  0
SECTION
  2
HEADER
  9
$ACADVER
  1
AC1014
  9
$ACADMAINTVER
 70
     9
  9
$DWGCODEPAGE
  3
ANSI_932
  9
$INSBASE
 10
0.0
 20
0.0
 30
0.0
  9
$EXTMIN
 10
0.0
 20
0.0
 30
0.0
  9
$EXTMAX
 10
841.0
 20
594.0
 30
0.0
  9
$LIMMIN
 10
0.0
 20
0.0
  9
$LIMMAX
 10
841.0
 20
594.0
  9
$ORTHOMODE
 70
     0
  9
$REGENMODE
 70
     1
  9
$FILLMODE
 70
     1
  9
$QTEXTMODE
 70
     0
  9
$MIRRTEXT
 70
     1
  9
$DRAGMODE
 70
     2
  9
$LTSCALE
 40
1.0
  9
$OSMODE
 70
    37
  9
$ATTMODE
 70
     1
  9
$TEXTSIZE
 40
0.2
  9
$TRACEWID
 40
0.05
  9
$TEXTSTYLE
  7
STYLE1
  9
$CLAYER
  8
0
  9
$CELTYPE
  6
BYLAYER
  9
$CECOLOR
 62
   256
  9
$CELTSCALE
 40
1.0
  9
$DELOBJ
 70
     1
  9
$DISPSILH
 70
     0
  9
$DIMSCALE
 40
1.0
  9
$DIMASZ
 40
4.0
  9
$DIMEXO
 40
1.0
  9
$DIMDLI
 40
10.0
  9
$DIMRND
 40
0.0
  9
$DIMDLE
 40
6.0
  9
$DIMEXE
 40
1.0
  9
$DIMTP
 40
0.0
  9
$DIMTM
 40
0.0
  9
$DIMTXT
 40
4.0
  9
$DIMCEN
 40
2.5
  9
$DIMTSZ
 40
0.0
  9
$DIMTOL
 70
     0
  9
$DIMLIM
 70
     0
  9
$DIMTIH
 70
     0
  9
$DIMTOH
 70
     0
  9
$DIMSE1
 70
     0
  9
$DIMSE2
 70
     0
  9
$DIMTAD
 70
     1
  9
$DIMZIN
 70
     8
  9
$DIMBLK
  1

  9
$DIMASO
 70
     1
  9
$DIMSHO
 70
     1
  9
$DIMPOST
  1

  9
$DIMAPOST
  1

  9
$DIMALT
 70
     0
  9
$DIMALTD
 70
     3
  9
$DIMALTF
 40
0.03937
  9
$DIMLFAC
 40
1.0
  9
$DIMTOFL
 70
     1
  9
$DIMTVP
 40
0.0
  9
$DIMTIX
 70
     0
  9
$DIMSOXD
 70
     0
  9
$DIMSAH
 70
     1
  9
$DIMBLK1
  1
FXTIP_ARROW_S
  9
$DIMBLK2
  1
FXTIP_ARROW_E
  9
$DIMSTYLE
  2
FXDIMINFO
  9
$DIMCLRD
 70
     7
  9
$DIMCLRE
 70
     7
  9
$DIMCLRT
 70
     7
  9
$DIMTFAC
 40
1.0
  9
$DIMGAP
 40
1.0
  9
$DIMJUST
 70
     0
  9
$DIMSD1
 70
     0
  9
$DIMSD2
 70
     0
  9
$DIMTOLJ
 70
     0
  9
$DIMTZIN
 70
     8
  9
$DIMALTZ
 70
     0
  9
$DIMALTTZ
 70
     0
  9
$DIMFIT
 70
     3
  9
$DIMUPT
 70
     0
  9
$DIMUNIT
 70
     2
  9
$DIMDEC
 70
     2
  9
$DIMTDEC
 70
     2
  9
$DIMALTU
 70
     2
  9
$DIMALTTD
 70
     3
  9
$DIMTXSTY
  7
STYLE1
  9
$DIMAUNIT
 70
     0
  9
$LUNITS
 70
     2
  9
$LUPREC
 70
     4
  9
$SKETCHINC
 40
0.1
  9
$FILLETRAD
 40
0.5
  9
$AUNITS
 70
     0
  9
$AUPREC
 70
     0
  9
$MENU
  1
.
  9
$ELEVATION
 40
0.0
  9
$PELEVATION
 40
0.0
  9
$THICKNESS
 40
0.0
  9
$LIMCHECK
 70
     0
  9
$CHAMFERA
 40
0.5
  9
$CHAMFERB
 40
0.5
  9
$CHAMFERC
 40
1.0
  9
$CHAMFERD
 40
0.0
  9
$SKPOLY
 70
     0
  9
$TDCREATE
 40
2455308.465522049
  9
$TDUPDATE
 40
2455308.46552206
  9
$TDINDWG
 40
0.0000000116
  9
$TDUSRTIMER
 40
0.0000000116
  9
$USRTIMER
 70
     1
  9
$ANGBASE
 50
0.0
  9
$ANGDIR
 70
     0
  9
$PDMODE
 70
     0
  9
$PDSIZE
 40
0.0
  9
$PLINEWID
 40
0.0
  9
$COORDS
 70
     1
  9
$SPLFRAME
 70
     0
  9
$SPLINETYPE
 70
     6
  9
$SPLINESEGS
 70
     8
  9
$ATTDIA
 70
     0
  9
$ATTREQ
 70
     1
  9
$HANDLING
 70
     1
  9
$HANDSEED
  5
437
  9
$SURFTAB1
 70
     6
  9
$SURFTAB2
 70
     6
  9
$SURFTYPE
 70
     6
  9
$SURFU
 70
     6
  9
$SURFV
 70
     6
  9
$UCSNAME
  2

  9
$UCSORG
 10
0.0
 20
0.0
 30
0.0
  9
$UCSXDIR
 10
1.0
 20
0.0
 30
0.0
  9
$UCSYDIR
 10
0.0
 20
1.0
 30
0.0
  9
$PUCSNAME
  2

  9
$PUCSORG
 10
0.0
 20
0.0
 30
0.0
  9
$PUCSXDIR
 10
1.0
 20
0.0
 30
0.0
  9
$PUCSYDIR
 10
0.0
 20
1.0
 30
0.0
  9
$USERI1
 70
     0
  9
$USERI2
 70
     0
  9
$USERI3
 70
     0
  9
$USERI4
 70
     0
  9
$USERI5
 70
     0
  9
$USERR1
 40
0.0
  9
$USERR2
 40
0.0
  9
$USERR3
 40
0.0
  9
$USERR4
 40
0.0
  9
$USERR5
 40
0.0
  9
$WORLDVIEW
 70
     1
  9
$SHADEDGE
 70
     3
  9
$SHADEDIF
 70
    70
  9
$TILEMODE
 70
     1
  9
$MAXACTVP
 70
    64
  9
$PINSBASE
 10
0.0
 20
0.0
 30
0.0
  9
$PLIMCHECK
 70
     0
  9
$PEXTMIN
 10
1.000000E+20
 20
1.000000E+20
 30
1.000000E+20
  9
$PEXTMAX
 10
-1.000000E+20
 20
-1.000000E+20
 30
-1.000000E+20
  9
$PLIMMIN
 10
0.0
 20
0.0
  9
$PLIMMAX
 10
12.0
 20
9.0
  9
$UNITMODE
 70
     0
  9
$VISRETAIN
 70
     1
  9
$PLINEGEN
 70
     0
  9
$PSLTSCALE
 70
     1
  9
$TREEDEPTH
 70
  3020
  9
$PICKSTYLE
 70
     1
  9
$CMLSTYLE
  2
STANDARD
  9
$CMLJUST
 70
     0
  9
$CMLSCALE
 40
1.0
  9
$PROXYGRAPHICS
 70
     1
  9
$MEASUREMENT
 70
     0
  0
ENDSEC
  0
SECTION
  2
CLASSES
  0
CLASS
  1
ACDBDICTIONARYWDFLT
  2
AcDbDictionaryWithDefault
  3
ObjectDBX Classes
 90
        0
280
     0
281
     0
  0
CLASS
  1
XRECORD
  2
AcDbXrecord
  3
AutoCAD 2000
 90
        0
280
     0
281
     0
  0
CLASS
  1
LWPOLYLINE
  2
AcDbPolyline
  3
AutoCAD 2000
 90
        0
280
     0
281
     1
  0
CLASS
  1
HATCH
  2
AcDbHatch
  3
AutoCAD 2000
 90
        0
280
     0
281
     1
  0
CLASS
  1
ACDBPLACEHOLDER
  2
AcDbPlaceHolder
  3
ObjectDBX Classes
 90
        0
280
     0
281
     0
  0
CLASS
  1
LAYOUT
  2
AcDbLayout
  3
ObjectDBX Classes
 90
        0
280
     0
281
     0
  0
ENDSEC
  0
SECTION
  2
TABLES
  0
TABLE
  2
VPORT
  5
8
330
0
100
AcDbSymbolTable
 70
     1
  0
VPORT
  5
29
330
8
100
AcDbSymbolTableRecord
100
AcDbViewportTableRecord
  2
*ACTIVE
 70
     0
 10
0.0
 20
0.0
 11
1.0
 21
1.0
 12
420.5
 22
297.0
 13
0.0
 23
0.0
 14
0.5
 24
0.5
 15
0.5
 25
0.5
 16
0.0
 26
0.0
 36
1.0
 17
0.0
 27
0.0
 37
0.0
 40
594.0
 41
1.415825
 42
50.0
 43
0.0
 44
0.0
 50
0.0
 51
0.0
 71
     0
 72
   100
 73
     1
 74
     3
 75
     0
 76
     0
 77
     0
 78
     0
  0
ENDTAB
  0
TABLE
  2
LTYPE
  5
5
330
0
100
AcDbSymbolTable
 70
     4
  0
LTYPE
  5
14
330
5
100
AcDbSymbolTableRecord
100
AcDbLinetypeTableRecord
  2
BYBLOCK
 70
     0
  3

 72
    65
 73
     0
 40
0.0
  0
LTYPE
  5
15
330
5
100
AcDbSymbolTableRecord
100
AcDbLinetypeTableRecord
  2
BYLAYER
 70
     0
  3

 72
    65
 73
     0
 40
0.0
  0
LTYPE
  5
16
330
5
100
AcDbSymbolTableRecord
100
AcDbLinetypeTableRecord
  2
CONTINUOUS
 70
     0
  3
--------------------
 72
    65
 73
     0
 40
0.0
  0
LTYPE
  5
2A
330
5
100
AcDbSymbolTableRecord
100
AcDbLinetypeTableRecord
  2
CENTER
 70
     0
  3
Center ____ _ ____ _ ____ _ ____ _ ____ _ ____
 72
    65
 73
     4
 40
13.0
 49
10.0
 74
     0
 49
-1.0
 74
     0
 49
1.0
 74
     0
 49
-1.0
 74
     0
  0
LTYPE
  5
2C
330
5
100
AcDbSymbolTableRecord
100
AcDbLinetypeTableRecord
  2
DASHED
 70
     0
  3
Dashed __ __ __ __ __ __ __ __ __ __ __ __ __ _
 72
    65
 73
     2
 40
4.0
 49
3.0
 74
     0
 49
-1.0
 74
     0
  0
ENDTAB
  0
TABLE
  2
LAYER
  5
2
330
0
100
AcDbSymbolTable
 70
    20
  0
LAYER
  5
10
330
2
100
AcDbSymbolTableRecord
100
AcDbLayerTableRecord
  2
0
 70
     0
 62
     7
  6
CONTINUOUS
  0
LAYER
  5
2D
330
2
100
AcDbSymbolTableRecord
100
AcDbLayerTableRecord
  2
LAYERGROUP-1
 70
     0
 62
     3
  6
CONTINUOUS
  0
LAYER
  5
3D
330
2
100
AcDbSymbolTableRecord
100
AcDbLayerTableRecord
  2
}}ﾊﾊGG血CCТ
 70
     0
 62
     3
  6
CONTINUOUS
  0
LAYER
  5
A9
330
2
100
AcDbSymbolTableRecord
100
AcDbLayerTableRecord
  2
GR1-1
 70
     0
 62
     7
  6
CONTINUOUS
  0
LAYER
  5
282
330
2
100
AcDbSymbolTableRecord
100
AcDbLayerTableRecord
  2
0-1
 70
     0
 62
     7
  6
CONTINUOUS
  0
ENDTAB
  0
TABLE
  2
STYLE
  5
3
330
0
100
AcDbSymbolTable
 70
     4
  0
STYLE
  5
11
330
3
100
AcDbSymbolTableRecord
100
AcDbTextStyleTableRecord
  2
STANDARD
 70
     0
 40
0.0
 41
1.0
 50
0.0
 71
     0
 42
0.2
  3
txt
  4

  0
STYLE
  5
3F
330
3
100
AcDbSymbolTableRecord
100
AcDbTextStyleTableRecord
  2
STYLE1
 70
     0
 40
0.0
 41
1.0
 50
0.0
 71
     0
 42
0.2
  3
MONOTXT.SHX
  4
extfont.shx
  0
STYLE
  5
40
330
3
100
AcDbSymbolTableRecord
100
AcDbTextStyleTableRecord
  2
FX_VECTOR
 70
     0
 40
0.0
 41
1.0
 50
0.0
 71
     0
 42
0.2
  3
MONOTXT.SHX
  4
BIGFONT.SHX
  0
ENDTAB
  0
TABLE
  2
VIEW
  5
6
330
0
100
AcDbSymbolTable
 70
     0
  0
ENDTAB
  0
TABLE
  2
UCS
  5
7
330
0
100
AcDbSymbolTable
 70
     0
  0
ENDTAB
  0
TABLE
  2
APPID
  5
9
330
0
100
AcDbSymbolTable
 70
     1
  0
APPID
  5
12
330
9
100
AcDbSymbolTableRecord
100
AcDbRegAppTableRecord
  2
ACAD
 70
     0
  0
ENDTAB
  0
TABLE
  2
DIMSTYLE
  5
A
330
0
100
AcDbSymbolTable
 70
     2
  0
DIMSTYLE
105
27
330
A
100
AcDbSymbolTableRecord
100
AcDbDimStyleTableRecord
  2
STANDARD
 70
     0
  3

  4

  5

  6

  7

 40
1.0
 41
0.18
 42
0.0625
 43
0.38
 44
0.18
 45
0.0
 46
0.0
 47
0.0
 48
0.0
140
0.18
141
0.09
142
0.0
143
25.4
144
1.0
145
0.0
146
1.0
147
0.09
 71
     0
 72
     0
 73
     1
 74
     1
 75
     0
 76
     0
 77
     0
 78
     0
170
     0
171
     2
172
     0
173
     0
174
     0
175
     0
176
     0
177
     0
178
     0
270
     2
271
     4
272
     4
273
     2
274
     2
340
11
275
     0
280
     0
281
     0
282
     0
283
     1
284
     0
285
     0
286
     0
287
     3
288
     0
  0
DIMSTYLE
105
A7
330
A
100
AcDbSymbolTableRecord
100
AcDbDimStyleTableRecord
  2
FXDIMINFO
 70
     0
  3

  4

  5

  6
FXTIP_ARROW_S
  7
FXTIP_ARROW_E
 40
1.0
 41
4.0
 42
1.0
 43
10.0
 44
1.0
 45
0.0
 46
6.0
 47
0.0
 48
0.0
140
4.0
141
2.5
142
0.0
143
0.03937
144
1.0
145
0.0
146
1.0
147
1.0
 71
     0
 72
     0
 73
     0
 74
     0
 75
     0
 76
     0
 77
     1
 78
     8
170
     0
171
     3
172
     1
173
     1
174
     0
175
     0
176
     7
177
     7
178
     7
179
     2
270
     2
271
     2
272
     2
273
     2
274
     3
340
3F
275
     0
280
     0
281
     0
282
     0
283
     0
284
     8
285
     0
286
     0
287
     3
288
     0
  0
ENDTAB
  0
TABLE
  2
BLOCK_RECORD
  5
1
330
0
100
AcDbSymbolTable
 70
    19
  0
BLOCK_RECORD
  5
1F
330
1
100
AcDbSymbolTableRecord
100
AcDbBlockTableRecord
  2
*MODEL_SPACE
  0
BLOCK_RECORD
  5
1B
330
1
100
AcDbSymbolTableRecord
100
AcDbBlockTableRecord
  2
*PAPER_SPACE
  0
BLOCK_RECORD
  5
41
330
1
100
AcDbSymbolTableRecord
100
AcDbBlockTableRecord
  2
FXTIP_ARROW_S
  0
BLOCK_RECORD
  5
47
330
1
100
AcDbSymbolTableRecord
100
AcDbBlockTableRecord
  2
FXTIP_ARROW_E
  0
BLOCK_RECORD
  5
4D
330
1
100
AcDbSymbolTableRecord
100
AcDbBlockTableRecord
  2
FXTIP_BLACKDOT_S
  0
BLOCK_RECORD
  5
53
330
1
100
AcDbSymbolTableRecord
100
AcDbBlockTableRecord
  2
FXTIP_BLACKDOT_E
  0
BLOCK_RECORD
  5
59
330
1
100
AcDbSymbolTableRecord
100
AcDbBlockTableRecord
  2
FXTIP_TRIANGLE_S
  0
BLOCK_RECORD
  5
60
330
1
100
AcDbSymbolTableRecord
100
AcDbBlockTableRecord
  2
FXTIP_TRIANGLE_E
  0
BLOCK_RECORD
  5
67
330
1
100
AcDbSymbolTableRecord
100
AcDbBlockTableRecord
  2
FXTIP_ARCHITECT_S
  0
BLOCK_RECORD
  5
6D
330
1
100
AcDbSymbolTableRecord
100
AcDbBlockTableRecord
  2
FXTIP_ARCHITECT_E
  0
BLOCK_RECORD
  5
73
330
1
100
AcDbSymbolTableRecord
100
AcDbBlockTableRecord
  2
FXTIP_CIVIL_S
  0
BLOCK_RECORD
  5
79
330
1
100
AcDbSymbolTableRecord
100
AcDbBlockTableRecord
  2
FXTIP_CIVIL_E
  0
BLOCK_RECORD
  5
7F
330
1
100
AcDbSymbolTableRecord
100
AcDbBlockTableRecord
  2
FXTIP_WHITEDOT_S
  0
BLOCK_RECORD
  5
84
330
1
100
AcDbSymbolTableRecord
100
AcDbBlockTableRecord
  2
FXTIP_WHITEDOT_E
  0
BLOCK_RECORD
  5
89
330
1
100
AcDbSymbolTableRecord
100
AcDbBlockTableRecord
  2
FXTIP_UPARROW_S
  0
BLOCK_RECORD
  5
8E
330
1
100
AcDbSymbolTableRecord
100
AcDbBlockTableRecord
  2
FXTIP_UPARROW_E
  0
BLOCK_RECORD
  5
93
330
1
100
AcDbSymbolTableRecord
100
AcDbBlockTableRecord
  2
FXTIP_DOWNARROW_S
  0
BLOCK_RECORD
  5
98
330
1
100
AcDbSymbolTableRecord
100
AcDbBlockTableRecord
  2
FXTIP_DOWNARROW_E
  0
BLOCK_RECORD
  5
9D
330
1
100
AcDbSymbolTableRecord
100
AcDbBlockTableRecord
  2
FXTIP_BLACKTRIANGLE_S
  0
BLOCK_RECORD
  5
A2
330
1
100
AcDbSymbolTableRecord
100
AcDbBlockTableRecord
  2
FXTIP_BLACKTRIANGLE_E
  0
ENDTAB
  0
ENDSEC
  0
SECTION
  2
BLOCKS
  0
BLOCK
  5
20
330
1F
100
AcDbEntity
  8
0
100
AcDbBlockBegin
  2
*MODEL_SPACE
 70
     0
 71
     0
 10
0.0
 20
0.0
 30
0.0
  3
*MODEL_SPACE
  1

  0
ENDBLK
  5
21
330
1F
100
AcDbEntity
  8
0
100
AcDbBlockEnd
  0
BLOCK
  5
1C
330
1B
100
AcDbEntity
 67
     1
  8
0
100
AcDbBlockBegin
  2
*PAPER_SPACE
 70
     0
 71
     0
 10
0.0
 20
0.0
 30
0.0
  3
*PAPER_SPACE
  1

  0
ENDBLK
  5
1D
330
1B
100
AcDbEntity
 67
     1
  8
0
100
AcDbBlockEnd
  0
BLOCK
  5
42
330
41
100
AcDbEntity
  8
0
100
AcDbBlockBegin
  2
FXTIP_ARROW_S
 70
     0
 71
     0
 10
0.0
 20
0.0
 30
0.0
  3
FXTIP_ARROW_S
  1

  0
LINE
  5
44
330
41
100
AcDbEntity
  8
0
  6
CONTINUOUS
 62
     0
100
AcDbLine
 10
0.0
 20
0.0
 30
0.0
 11
-1.0
 21
0.0
 31
0.0
  0
LINE
  5
45
330
41
100
AcDbEntity
  8
0
  6
CONTINUOUS
 62
     0
100
AcDbLine
 10
0.0
 20
0.0
 30
0.0
 11
-0.965926
 21
-0.258819
 31
0.0
  0
LINE
  5
46
330
41
100
AcDbEntity
  8
0
  6
CONTINUOUS
 62
     0
100
AcDbLine
 10
0.0
 20
0.0
 30
0.0
 11
-0.965926
 21
0.258819
 31
0.0
  0
ENDBLK
  5
43
330
41
100
AcDbEntity
  8
0
100
AcDbBlockEnd
  0
BLOCK
  5
48
330
47
100
AcDbEntity
  8
0
100
AcDbBlockBegin
  2
FXTIP_ARROW_E
 70
     0
 71
     0
 10
0.0
 20
0.0
 30
0.0
  3
FXTIP_ARROW_E
  1

  0
LINE
  5
4A
330
47
100
AcDbEntity
  8
0
  6
CONTINUOUS
 62
     0
100
AcDbLine
 10
0.0
 20
0.0
 30
0.0
 11
-1.0
 21
0.0
 31
0.0
  0
LINE
  5
4B
330
47
100
AcDbEntity
  8
0
  6
CONTINUOUS
 62
     0
100
AcDbLine
 10
0.0
 20
0.0
 30
0.0
 11
-0.965926
 21
0.258819
 31
0.0
  0
LINE
  5
4C
330
47
100
AcDbEntity
  8
0
  6
CONTINUOUS
 62
     0
100
AcDbLine
 10
0.0
 20
0.0
 30
0.0
 11
-0.965926
 21
-0.258819
 31
0.0
  0
ENDBLK
  5
49
330
47
100
AcDbEntity
  8
0
100
AcDbBlockEnd
  0
BLOCK
  5
4E
330
4D
100
AcDbEntity
  8
0
100
AcDbBlockBegin
  2
FXTIP_BLACKDOT_S
 70
     0
 71
     0
 10
0.0
 20
0.0
 30
0.0
  3
FXTIP_BLACKDOT_S
  1

  0
LINE
  5
50
330
4D
100
AcDbEntity
  8
0
  6
CONTINUOUS
 62
     0
100
AcDbLine
 10
0.0
 20
0.0
 30
0.0
 11
-1.0
 21
0.0
 31
0.0
  0
LWPOLYLINE
  5
51
330
4D
100
AcDbEntity
  8
0
  6
CONTINUOUS
 62
     0
100
AcDbPolyline
 90
        2
 70
     1
 10
-0.25
 20
0.0
 40
0.5
 41
0.5
 42
1.0
 10
0.25
 20
0.0
 40
0.5
 41
0.5
 42
1.0
  0
CIRCLE
  5
52
330
4D
100
AcDbEntity
  8
0
  6
CONTINUOUS
 62
     0
100
AcDbCircle
 10
0.0
 20
0.0
 30
0.0
 40
0.5
  0
ENDBLK
  5
4F
330
4D
100
AcDbEntity
  8
0
100
AcDbBlockEnd
  0
BLOCK
  5
54
330
53
100
AcDbEntity
  8
0
100
AcDbBlockBegin
  2
FXTIP_BLACKDOT_E
 70
     0
 71
     0
 10
0.0
 20
0.0
 30
0.0
  3
FXTIP_BLACKDOT_E
  1

  0
LINE
  5
56
330
53
100
AcDbEntity
  8
0
  6
CONTINUOUS
 62
     0
100
AcDbLine
 10
0.0
 20
0.0
 30
0.0
 11
-1.0
 21
0.0
 31
0.0
  0
LWPOLYLINE
  5
57
330
53
100
AcDbEntity
  8
0
  6
CONTINUOUS
 62
     0
100
AcDbPolyline
 90
        2
 70
     1
 10
-0.25
 20
0.0
 40
0.5
 41
0.5
 42
1.0
 10
0.25
 20
0.0
 40
0.5
 41
0.5
 42
1.0
  0
CIRCLE
  5
58
330
53
100
AcDbEntity
  8
0
  6
CONTINUOUS
 62
     0
100
AcDbCircle
 10
0.0
 20
0.0
 30
0.0
 40
0.5
  0
ENDBLK
  5
55
330
53
100
AcDbEntity
  8
0
100
AcDbBlockEnd
  0
BLOCK
  5
5A
330
59
100
AcDbEntity
  8
0
100
AcDbBlockBegin
  2
FXTIP_TRIANGLE_S
 70
     0
 71
     0
 10
0.0
 20
0.0
 30
0.0
  3
FXTIP_TRIANGLE_S
  1

  0
LINE
  5
5C
330
59
100
AcDbEntity
  8
0
  6
CONTINUOUS
 62
     0
100
AcDbLine
 10
0.0
 20
0.0
 30
0.0
 11
-1.0
 21
0.0
 31
0.0
  0
LINE
  5
5D
330
59
100
AcDbEntity
  8
0
  6
CONTINUOUS
 62
     0
100
AcDbLine
 10
0.0
 20
0.0
 30
0.0
 11
-0.965926
 21
-0.258819
 31
0.0
  0
LINE
  5
5E
330
59
100
AcDbEntity
  8
0
  6
CONTINUOUS
 62
     0
100
AcDbLine
 10
0.0
 20
0.0
 30
0.0
 11
-0.965926
 21
0.258819
 31
0.0
  0
LINE
  5
5F
330
59
100
AcDbEntity
  8
0
  6
CONTINUOUS
 62
     0
100
AcDbLine
 10
-0.965926
 20
-0.258819
 30
0.0
 11
-0.965926
 21
0.258819
 31
0.0
  0
ENDBLK
  5
5B
330
59
100
AcDbEntity
  8
0
100
AcDbBlockEnd
  0
BLOCK
  5
61
330
60
100
AcDbEntity
  8
0
100
AcDbBlockBegin
  2
FXTIP_TRIANGLE_E
 70
     0
 71
     0
 10
0.0
 20
0.0
 30
0.0
  3
FXTIP_TRIANGLE_E
  1

  0
LINE
  5
63
330
60
100
AcDbEntity
  8
0
  6
CONTINUOUS
 62
     0
100
AcDbLine
 10
0.0
 20
0.0
 30
0.0
 11
-1.0
 21
0.0
 31
0.0
  0
LINE
  5
64
330
60
100
AcDbEntity
  8
0
  6
CONTINUOUS
 62
     0
100
AcDbLine
 10
0.0
 20
0.0
 30
0.0
 11
-0.965926
 21
0.258819
 31
0.0
  0
LINE
  5
65
330
60
100
AcDbEntity
  8
0
  6
CONTINUOUS
 62
     0
100
AcDbLine
 10
0.0
 20
0.0
 30
0.0
 11
-0.965926
 21
-0.258819
 31
0.0
  0
LINE
  5
66
330
60
100
AcDbEntity
  8
0
  6
CONTINUOUS
 62
     0
100
AcDbLine
 10
-0.965926
 20
0.258819
 30
0.0
 11
-0.965926
 21
-0.258819
 31
0.0
  0
ENDBLK
  5
62
330
60
100
AcDbEntity
  8
0
100
AcDbBlockEnd
  0
BLOCK
  5
68
330
67
100
AcDbEntity
  8
0
100
AcDbBlockBegin
  2
FXTIP_ARCHITECT_S
 70
     0
 71
     0
 10
0.0
 20
0.0
 30
0.0
  3
FXTIP_ARCHITECT_S
  1

  0
LINE
  5
6A
330
67
100
AcDbEntity
  8
0
  6
CONTINUOUS
 62
     0
100
AcDbLine
 10
0.0
 20
0.0
 30
0.0
 11
-1.0
 21
0.0
 31
0.0
  0
LINE
  5
6B
330
67
100
AcDbEntity
  8
0
  6
CONTINUOUS
 62
     0
100
AcDbLine
 10
0.0
 20
0.0
 30
0.0
 11
-0.707107
 21
-0.707107
 31
0.0
  0
LINE
  5
6C
330
67
100
AcDbEntity
  8
0
  6
CONTINUOUS
 62
     0
100
AcDbLine
 10
0.0
 20
0.0
 30
0.0
 11
0.707107
 21
0.707107
 31
0.0
  0
ENDBLK
  5
69
330
67
100
AcDbEntity
  8
0
100
AcDbBlockEnd
  0
BLOCK
  5
6E
330
6D
100
AcDbEntity
  8
0
100
AcDbBlockBegin
  2
FXTIP_ARCHITECT_E
 70
     0
 71
     0
 10
0.0
 20
0.0
 30
0.0
  3
FXTIP_ARCHITECT_E
  1

  0
LINE
  5
70
330
6D
100
AcDbEntity
  8
0
  6
CONTINUOUS
 62
     0
100
AcDbLine
 10
0.0
 20
0.0
 30
0.0
 11
-1.0
 21
0.0
 31
0.0
  0
LINE
  5
71
330
6D
100
AcDbEntity
  8
0
  6
CONTINUOUS
 62
     0
100
AcDbLine
 10
0.0
 20
0.0
 30
0.0
 11
0.707107
 21
0.707107
 31
0.0
  0
LINE
  5
72
330
6D
100
AcDbEntity
  8
0
  6
CONTINUOUS
 62
     0
100
AcDbLine
 10
0.0
 20
0.0
 30
0.0
 11
-0.707107
 21
-0.707107
 31
0.0
  0
ENDBLK
  5
6F
330
6D
100
AcDbEntity
  8
0
100
AcDbBlockEnd
  0
BLOCK
  5
74
330
73
100
AcDbEntity
  8
0
100
AcDbBlockBegin
  2
FXTIP_CIVIL_S
 70
     0
 71
     0
 10
0.0
 20
0.0
 30
0.0
  3
FXTIP_CIVIL_S
  1

  0
LINE
  5
76
330
73
100
AcDbEntity
  8
0
  6
CONTINUOUS
 62
     0
100
AcDbLine
 10
0.0
 20
0.0
 30
0.0
 11
-1.0
 21
0.0
 31
0.0
  0
LINE
  5
77
330
73
100
AcDbEntity
  8
0
  6
CONTINUOUS
 62
     0
100
AcDbLine
 10
0.0
 20
-0.0625
 30
0.0
 11
-1.0
 21
-0.0625
 31
0.0
  0
LINE
  5
78
330
73
100
AcDbEntity
  8
0
  6
CONTINUOUS
 62
     0
100
AcDbLine
 10
0.0
 20
-0.125
 30
0.0
 11
-1.0
 21
-0.125
 31
0.0
  0
ENDBLK
  5
75
330
73
100
AcDbEntity
  8
0
100
AcDbBlockEnd
  0
BLOCK
  5
7A
330
79
100
AcDbEntity
  8
0
100
AcDbBlockBegin
  2
FXTIP_CIVIL_E
 70
     0
 71
     0
 10
0.0
 20
0.0
 30
0.0
  3
FXTIP_CIVIL_E
  1

  0
LINE
  5
7C
330
79
100
AcDbEntity
  8
0
  6
CONTINUOUS
 62
     0
100
AcDbLine
 10
0.0
 20
0.0
 30
0.0
 11
-1.0
 21
0.0
 31
0.0
  0
LINE
  5
7D
330
79
100
AcDbEntity
  8
0
  6
CONTINUOUS
 62
     0
100
AcDbLine
 10
0.0
 20
0.0625
 30
0.0
 11
-1.0
 21
0.0625
 31
0.0
  0
LINE
  5
7E
330
79
100
AcDbEntity
  8
0
  6
CONTINUOUS
 62
     0
100
AcDbLine
 10
0.0
 20
0.125
 30
0.0
 11
-1.0
 21
0.125
 31
0.0
  0
ENDBLK
  5
7B
330
79
100
AcDbEntity
  8
0
100
AcDbBlockEnd
  0
BLOCK
  5
80
330
7F
100
AcDbEntity
  8
0
100
AcDbBlockBegin
  2
FXTIP_WHITEDOT_S
 70
     0
 71
     0
 10
0.0
 20
0.0
 30
0.0
  3
FXTIP_WHITEDOT_S
  1

  0
LINE
  5
82
330
7F
100
AcDbEntity
  8
0
  6
CONTINUOUS
 62
     0
100
AcDbLine
 10
0.0
 20
0.0
 30
0.0
 11
-1.0
 21
0.0
 31
0.0
  0
CIRCLE
  5
83
330
7F
100
AcDbEntity
  8
0
  6
CONTINUOUS
 62
     0
100
AcDbCircle
 10
0.0
 20
0.0
 30
0.0
 40
0.5
  0
ENDBLK
  5
81
330
7F
100
AcDbEntity
  8
0
100
AcDbBlockEnd
  0
BLOCK
  5
85
330
84
100
AcDbEntity
  8
0
100
AcDbBlockBegin
  2
FXTIP_WHITEDOT_E
 70
     0
 71
     0
 10
0.0
 20
0.0
 30
0.0
  3
FXTIP_WHITEDOT_E
  1

  0
LINE
  5
87
330
84
100
AcDbEntity
  8
0
  6
CONTINUOUS
 62
     0
100
AcDbLine
 10
0.0
 20
0.0
 30
0.0
 11
-1.0
 21
0.0
 31
0.0
  0
CIRCLE
  5
88
330
84
100
AcDbEntity
  8
0
  6
CONTINUOUS
 62
     0
100
AcDbCircle
 10
0.0
 20
0.0
 30
0.0
 40
0.5
  0
ENDBLK
  5
86
330
84
100
AcDbEntity
  8
0
100
AcDbBlockEnd
  0
BLOCK
  5
8A
330
89
100
AcDbEntity
  8
0
100
AcDbBlockBegin
  2
FXTIP_UPARROW_S
 70
     0
 71
     0
 10
0.0
 20
0.0
 30
0.0
  3
FXTIP_UPARROW_S
  1

  0
LINE
  5
8C
330
89
100
AcDbEntity
  8
0
  6
CONTINUOUS
 62
     0
100
AcDbLine
 10
0.0
 20
0.0
 30
0.0
 11
-1.0
 21
0.0
 31
0.0
  0
LINE
  5
8D
330
89
100
AcDbEntity
  8
0
  6
CONTINUOUS
 62
     0
100
AcDbLine
 10
0.0
 20
0.0
 30
0.0
 11
-0.965926
 21
-0.258819
 31
0.0
  0
ENDBLK
  5
8B
330
89
100
AcDbEntity
  8
0
100
AcDbBlockEnd
  0
BLOCK
  5
8F
330
8E
100
AcDbEntity
  8
0
100
AcDbBlockBegin
  2
FXTIP_UPARROW_E
 70
     0
 71
     0
 10
0.0
 20
0.0
 30
0.0
  3
FXTIP_UPARROW_E
  1

  0
LINE
  5
91
330
8E
100
AcDbEntity
  8
0
  6
CONTINUOUS
 62
     0
100
AcDbLine
 10
0.0
 20
0.0
 30
0.0
 11
-1.0
 21
0.0
 31
0.0
  0
LINE
  5
92
330
8E
100
AcDbEntity
  8
0
  6
CONTINUOUS
 62
     0
100
AcDbLine
 10
0.0
 20
0.0
 30
0.0
 11
-0.965926
 21
0.258819
 31
0.0
  0
ENDBLK
  5
90
330
8E
100
AcDbEntity
  8
0
100
AcDbBlockEnd
  0
BLOCK
  5
94
330
93
100
AcDbEntity
  8
0
100
AcDbBlockBegin
  2
FXTIP_DOWNARROW_S
 70
     0
 71
     0
 10
0.0
 20
0.0
 30
0.0
  3
FXTIP_DOWNARROW_S
  1

  0
LINE
  5
96
330
93
100
AcDbEntity
  8
0
  6
CONTINUOUS
 62
     0
100
AcDbLine
 10
0.0
 20
0.0
 30
0.0
 11
-1.0
 21
0.0
 31
0.0
  0
LINE
  5
97
330
93
100
AcDbEntity
  8
0
  6
CONTINUOUS
 62
     0
100
AcDbLine
 10
0.0
 20
0.0
 30
0.0
 11
-0.965926
 21
0.258819
 31
0.0
  0
ENDBLK
  5
95
330
93
100
AcDbEntity
  8
0
100
AcDbBlockEnd
  0
BLOCK
  5
99
330
98
100
AcDbEntity
  8
0
100
AcDbBlockBegin
  2
FXTIP_DOWNARROW_E
 70
     0
 71
     0
 10
0.0
 20
0.0
 30
0.0
  3
FXTIP_DOWNARROW_E
  1

  0
LINE
  5
9B
330
98
100
AcDbEntity
  8
0
  6
CONTINUOUS
 62
     0
100
AcDbLine
 10
0.0
 20
0.0
 30
0.0
 11
-1.0
 21
0.0
 31
0.0
  0
LINE
  5
9C
330
98
100
AcDbEntity
  8
0
  6
CONTINUOUS
 62
     0
100
AcDbLine
 10
0.0
 20
0.0
 30
0.0
 11
-0.965926
 21
-0.258819
 31
0.0
  0
ENDBLK
  5
9A
330
98
100
AcDbEntity
  8
0
100
AcDbBlockEnd
  0
BLOCK
  5
9E
330
9D
100
AcDbEntity
  8
0
100
AcDbBlockBegin
  2
FXTIP_BLACKTRIANGLE_S
 70
     0
 71
     0
 10
0.0
 20
0.0
 30
0.0
  3
FXTIP_BLACKTRIANGLE_S
  1

  0
LINE
  5
A0
330
9D
100
AcDbEntity
  8
0
  6
CONTINUOUS
 62
     0
100
AcDbLine
 10
0.0
 20
0.0
 30
0.0
 11
-1.0
 21
0.0
 31
0.0
  0
SOLID
  5
A1
330
9D
100
AcDbEntity
  8
0
  6
CONTINUOUS
 62
     0
100
AcDbTrace
 10
0.0
 20
0.0
 30
0.0
 11
-0.965926
 21
-0.258819
 31
0.0
 12
-0.965926
 22
0.258819
 32
0.0
 13
-0.965926
 23
0.258819
 33
0.0
  0
ENDBLK
  5
9F
330
9D
100
AcDbEntity
  8
0
100
AcDbBlockEnd
  0
BLOCK
  5
A3
330
A2
100
AcDbEntity
  8
0
100
AcDbBlockBegin
  2
FXTIP_BLACKTRIANGLE_E
 70
     0
 71
     0
 10
0.0
 20
0.0
 30
0.0
  3
FXTIP_BLACKTRIANGLE_E
  1

  0
LINE
  5
A5
330
A2
100
AcDbEntity
  8
0
  6
CONTINUOUS
 62
     0
100
AcDbLine
 10
0.0
 20
0.0
 30
0.0
 11
-1.0
 21
0.0
 31
0.0
  0
SOLID
  5
A6
330
A2
100
AcDbEntity
  8
0
  6
CONTINUOUS
 62
     0
100
AcDbTrace
 10
0.0
 20
0.0
 30
0.0
 11
-0.965926
 21
0.258819
 31
0.0
 12
-0.965926
 22
-0.258819
 32
0.0
 13
-0.965926
 23
-0.258819
 33
0.0
  0
ENDBLK
  5
A4
330
A2
100
AcDbEntity
  8
0
100
AcDbBlockEnd
  0
ENDSEC
  0
SECTION
  2
ENTITIES
  0
TEXT
  5
A8
330
1F
100
AcDbEntity
  8
}}ﾊﾊGG血CCТ
  6
CONTINUOUS
 62
     7
100
AcDbText
 10
566.43335
 20
21.868788
 30
0.0
 40
6.0
  1
ＷＫ－１５０　ＲＢ
 41
0.792453
  7
FX_VECTOR
 72
     5
 11
602.43335
 21
21.868788
 31
0.0
100
AcDbText
  0
LINE
  5
AA
330
1F
100
AcDbEntity
  8
GR1-1
  6
CONTINUOUS
 62
     3
100
AcDbLine
 10
520.515326
 20
200.09387
 30
0.0
 11
541.664704
 21
299.59387
 31
0.0
  0
ARC
  5
AB
330
1F
100
AcDbEntity
  8
GR1-1
  6
CONTINUOUS
 62
     3
100
AcDbCircle
 10
1679.656147
 20
5.181162
 30
0.0
 40
1175.458790493665
100
AcDbArc
 50
165.494898
 51
170.505102
  0
CIRCLE
  5
AC
330
1F
100
AcDbEntity
  8
GR1-1
  6
CONTINUOUS
 62
     3
100
AcDbCircle
 10
494.981231
 20
200.09387
 30
0.0
 40
13.0
  0
ARC
  5
AD
330
1F
100
AcDbEntity
  8
GR1-1
  6
CONTINUOUS
 62
     3
100
AcDbCircle
 10
-689.693685
 20
5.181162
 30
0.0
 40
1175.458790493665
100
AcDbArc
 50
9.494898
 51
14.505102
  0
LINE
  5
AE
330
1F
100
AcDbEntity
  8
GR1-1
  6
CONTINUOUS
 62
     3
100
AcDbLine
 10
448.297758
 20
299.59387
 30
0.0
 11
469.447136
 21
200.09387
 31
0.0
  0
ARC
  5
AF
330
1F
100
AcDbEntity
  8
GR1-1
  6
CONTINUOUS
 62
     3
100
AcDbCircle
 10
494.981231
 20
204.99387
 30
0.0
 40
26.0
100
AcDbArc
 50
190.863015
 51
349.136985
  0
ARC
  5
B0
330
1F
100
AcDbEntity
  8
GR1-1
  6
CONTINUOUS
 62
     3
100
AcDbCircle
 10
560.430502
 20
292.461286
 30
0.0
 40
20.07558101129236
100
AcDbArc
 50
131.931068
 51
159.188993
  0
LINE
  5
B1
330
1F
100
AcDbEntity
  8
GR1-1
  6
CONTINUOUS
 62
     3
100
AcDbLine
 10
551.197066
 20
309.09387
 30
0.0
 11
563.981231
 21
309.09387
 31
0.0
  0
LINE
  5
B2
330
1F
100
AcDbEntity
  8
GR1-1
  6
CONTINUOUS
 62
     3
100
AcDbLine
 10
563.981231
 20
309.09387
 30
0.0
 11
563.981231
 21
317.59387
 31
0.0
  0
ARC
  5
B3
330
1F
100
AcDbEntity
  8
GR1-1
  6
CONTINUOUS
 62
     3
100
AcDbCircle
 10
558.481231
 20
317.59387
 30
0.0
 40
5.5
100
AcDbArc
 50
0.0
 51
90.0
  0
LINE
  5
B4
330
1F
100
AcDbEntity
  8
GR1-1
  6
CONTINUOUS
 62
     3
100
AcDbLine
 10
558.481231
 20
323.09387
 30
0.0
 11
522.290706
 21
323.09387
 31
0.0
  0
ARC
  5
B5
330
1F
100
AcDbEntity
  8
GR1-1
  6
CONTINUOUS
 62
     3
100
AcDbCircle
 10
522.290706
 20
315.09387
 30
0.0
 40
8.0
100
AcDbArc
 50
90.0
 51
136.567463
  0
LINE
  5
B6
330
1F
100
AcDbEntity
  8
GR1-1
  6
CONTINUOUS
 62
     3
100
AcDbLine
 10
516.481231
 20
320.59387
 30
0.0
 11
473.481231
 21
320.59387
 31
0.0
  0
ARC
  5
B7
330
1F
100
AcDbEntity
  8
GR1-1
  6
CONTINUOUS
 62
     3
100
AcDbCircle
 10
467.671756
 20
315.09387
 30
0.0
 40
8.0
100
AcDbArc
 50
43.432537
 51
90.0
  0
LINE
  5
B8
330
1F
100
AcDbEntity
  8
GR1-1
  6
CONTINUOUS
 62
     3
100
AcDbLine
 10
467.671756
 20
323.09387
 30
0.0
 11
431.481231
 21
323.09387
 31
0.0
  0
ARC
  5
B9
330
1F
100
AcDbEntity
  8
GR1-1
  6
CONTINUOUS
 62
     3
100
AcDbCircle
 10
431.481231
 20
317.59387
 30
0.0
 40
5.5
100
AcDbArc
 50
90.0
 51
180.0
  0
LINE
  5
BA
330
1F
100
AcDbEntity
  8
GR1-1
  6
CONTINUOUS
 62
     3
100
AcDbLine
 10
425.981231
 20
317.59387
 30
0.0
 11
425.981231
 21
309.09387
 31
0.0
  0
LINE
  5
BB
330
1F
100
AcDbEntity
  8
GR1-1
  6
CONTINUOUS
 62
     3
100
AcDbLine
 10
425.981231
 20
309.09387
 30
0.0
 11
438.765397
 21
309.09387
 31
0.0
  0
ARC
  5
BC
330
1F
100
AcDbEntity
  8
GR1-1
  6
CONTINUOUS
 62
     3
100
AcDbCircle
 10
438.765397
 20
303.09387
 30
0.0
 40
6.0
100
AcDbArc
 50
45.815989
 51
90.0
  0
ARC
  5
BD
330
1F
100
AcDbEntity
  8
GR1-1
  6
CONTINUOUS
 62
     3
100
AcDbCircle
 10
429.53196
 20
292.461286
 30
0.0
 40
20.07558101129236
100
AcDbArc
 50
20.811007
 51
48.068932
  0
ARC
  5
BE
330
1F
100
AcDbEntity
  8
GR1-1
  6
CONTINUOUS
 62
     3
100
AcDbCircle
 10
551.197066
 20
303.09387
 30
0.0
 40
6.0
100
AcDbArc
 50
90.0
 51
134.184011
  0
LINE
  5
BF
330
1F
100
AcDbEntity
  8
GR1-1
  6
CONTINUOUS
 62
     3
100
AcDbLine
 10
546.981231
 20
418.149425
 30
0.0
 11
545.548567
 21
418.149425
 31
0.0
  0
ARC
  5
C0
330
1F
100
AcDbEntity
  8
GR1-1
  6
CONTINUOUS
 62
     3
100
AcDbCircle
 10
546.981231
 20
435.149425
 30
0.0
 40
17.0
100
AcDbArc
 50
270.0
 51
360.0
  0
LINE
  5
C1
330
1F
100
AcDbEntity
  8
GR1-1
  6
CONTINUOUS
 62
     3
100
AcDbLine
 10
563.981231
 20
434.749425
 30
0.0
 11
563.981231
 21
494.549425
 31
0.0
  0
ARC
  5
C2
330
1F
100
AcDbEntity
  8
GR1-1
  6
CONTINUOUS
 62
     3
100
AcDbCircle
 10
546.981231
 20
494.149425
 30
0.0
 40
17.0
100
AcDbArc
 50
0.0
 51
90.0
  0
LINE
  5
C3
330
1F
100
AcDbEntity
  8
GR1-1
  6
CONTINUOUS
 62
     3
100
AcDbLine
 10
546.981231
 20
511.149425
 30
0.0
 11
545.548567
 21
511.149425
 31
0.0
  0
ARC
  5
C4
330
1F
100
AcDbEntity
  8
GR1-1
  6
CONTINUOUS
 62
     3
100
AcDbCircle
 10
545.548567
 20
494.149425
 30
0.0
 40
17.0
100
AcDbArc
 50
90.0
 51
125.0
  0
LINE
  5
C5
330
1F
100
AcDbEntity
  8
GR1-1
  6
CONTINUOUS
 62
     3
100
AcDbLine
 10
535.797768
 20
508.07501
 30
0.0
 11
520.613673
 21
497.442993
 31
0.0
  0
LINE
  5
C6
330
1F
100
AcDbEntity
  8
GR1-1
  6
CONTINUOUS
 62
     3
100
AcDbLine
 10
511.43645
 20
494.549425
 30
0.0
 11
478.526012
 21
494.549425
 31
0.0
  0
LINE
  5
C7
330
1F
100
AcDbEntity
  8
GR1-1
  6
CONTINUOUS
 62
     3
100
AcDbLine
 10
482.981231
 20
495.049425
 30
0.0
 11
482.981231
 21
497.549425
 31
0.0
  0
LINE
  5
C8
330
1F
100
AcDbEntity
  8
GR1-1
  6
CONTINUOUS
 62
     3
100
AcDbLine
 10
483.481231
 20
498.049425
 30
0.0
 11
506.481231
 21
498.049425
 31
0.0
  0
LINE
  5
C9
330
1F
100
AcDbEntity
  8
GR1-1
  6
CONTINUOUS
 62
     3
100
AcDbLine
 10
505.981231
 20
498.349425
 30
0.0
 11
505.981231
 21
505.749425
 31
0.0
  0
ARC
  5
CA
330
1F
100
AcDbEntity
  8
GR1-1
  6
CONTINUOUS
 62
     3
100
AcDbCircle
 10
505.681231
 20
505.749425
 30
0.0
 40
0.3
100
AcDbArc
 50
0.0
 51
90.0
  0
LINE
  5
CB
330
1F
100
AcDbEntity
  8
GR1-1
  6
CONTINUOUS
 62
     3
100
AcDbLine
 10
505.681231
 20
506.049425
 30
0.0
 11
484.281231
 21
506.049425
 31
0.0
  0
ARC
  5
CC
330
1F
100
AcDbEntity
  8
GR1-1
  6
CONTINUOUS
 62
     3
100
AcDbCircle
 10
484.281231
 20
505.749425
 30
0.0
 40
0.3
100
AcDbArc
 50
90.0
 51
180.0
  0
LINE
  5
CD
330
1F
100
AcDbEntity
  8
GR1-1
  6
CONTINUOUS
 62
     3
100
AcDbLine
 10
483.981231
 20
505.749425
 30
0.0
 11
483.981231
 21
498.349425
 31
0.0
  0
ARC
  5
CE
330
1F
100
AcDbEntity
  8
GR1-1
  6
CONTINUOUS
 62
     3
100
AcDbCircle
 10
484.281231
 20
498.349425
 30
0.0
 40
0.3
100
AcDbArc
 50
180.0
 51
270.0
  0
ARC
  5
CF
330
1F
100
AcDbEntity
  8
GR1-1
  6
CONTINUOUS
 62
     3
100
AcDbCircle
 10
483.481231
 20
497.549425
 30
0.0
 40
0.5
100
AcDbArc
 50
90.0
 51
180.0
  0
ARC
  5
D0
330
1F
100
AcDbEntity
  8
GR1-1
  6
CONTINUOUS
 62
     3
100
AcDbCircle
 10
489.481231
 20
513.935375
 30
0.0
 40
15.88594976734669
100
AcDbArc
 50
249.743842
 51
290.256158
  0
LINE
  5
D1
330
1F
100
AcDbEntity
  8
GR1-1
  6
CONTINUOUS
 62
     3
100
AcDbLine
 10
494.981231
 20
499.031906
 30
0.0
 11
494.981231
 21
505.066945
 31
0.0
  0
ARC
  5
D2
330
1F
100
AcDbEntity
  8
GR1-1
  6
CONTINUOUS
 62
     3
100
AcDbCircle
 10
489.481231
 20
490.163476
 30
0.0
 40
15.88594976734669
100
AcDbArc
 50
69.743842
 51
110.256158
  0
LINE
  5
D3
330
1F
100
AcDbEntity
  8
GR1-1
  6
CONTINUOUS
 62
     3
100
AcDbLine
 10
487.981231
 20
506.049425
 30
0.0
 11
487.981231
 21
506.849425
 31
0.0
  0
LINE
  5
D4
330
1F
100
AcDbEntity
  8
GR1-1
  6
CONTINUOUS
 62
     3
100
AcDbLine
 10
487.981231
 20
506.849425
 30
0.0
 11
488.981231
 21
507.849425
 31
0.0
  0
LINE
  5
D5
330
1F
100
AcDbEntity
  8
GR1-1
  6
CONTINUOUS
 62
     3
100
AcDbLine
 10
488.981231
 20
507.849425
 30
0.0
 11
500.981231
 21
507.849425
 31
0.0
  0
LINE
  5
D6
330
1F
100
AcDbEntity
  8
GR1-1
  6
CONTINUOUS
 62
     3
100
AcDbLine
 10
500.981231
 20
507.849425
 30
0.0
 11
501.981231
 21
506.849425
 31
0.0
  0
LINE
  5
D7
330
1F
100
AcDbEntity
  8
GR1-1
  6
CONTINUOUS
 62
     3
100
AcDbLine
 10
501.981231
 20
506.849425
 30
0.0
 11
501.981231
 21
506.049425
 31
0.0
  0
ARC
  5
D8
330
1F
100
AcDbEntity
  8
GR1-1
  6
CONTINUOUS
 62
     3
100
AcDbCircle
 10
500.481231
 20
490.163476
 30
0.0
 40
15.88594976734669
100
AcDbArc
 50
69.743842
 51
110.256158
  0
ARC
  5
D9
330
1F
100
AcDbEntity
  8
GR1-1
  6
CONTINUOUS
 62
     3
100
AcDbCircle
 10
500.481231
 20
513.935375
 30
0.0
 40
15.88594976734669
100
AcDbArc
 50
249.743842
 51
290.256158
  0
ARC
  5
DA
330
1F
100
AcDbEntity
  8
GR1-1
  6
CONTINUOUS
 62
     3
100
AcDbCircle
 10
505.681231
 20
498.349425
 30
0.0
 40
0.3
100
AcDbArc
 50
270.0
 51
360.0
  0
LINE
  5
DB
330
1F
100
AcDbEntity
  8
GR1-1
  6
CONTINUOUS
 62
     3
100
AcDbLine
 10
506.981231
 20
497.549425
 30
0.0
 11
506.981231
 21
495.049425
 31
0.0
  0
ARC
  5
DC
330
1F
100
AcDbEntity
  8
GR1-1
  6
CONTINUOUS
 62
     3
100
AcDbCircle
 10
506.481231
 20
495.049425
 30
0.0
 40
0.5
100
AcDbArc
 50
270.0
 51
360.0
  0
ARC
  5
DD
330
1F
100
AcDbEntity
  8
GR1-1
  6
CONTINUOUS
 62
     3
100
AcDbCircle
 10
506.481231
 20
497.549425
 30
0.0
 40
0.5
100
AcDbArc
 50
0.0
 51
90.0
  0
ARC
  5
DE
330
1F
100
AcDbEntity
  8
GR1-1
  6
CONTINUOUS
 62
     3
100
AcDbCircle
 10
511.43645
 20
510.549425
 30
0.0
 40
16.0
100
AcDbArc
 50
270.0
 51
305.0
  0
ARC
  5
DF
330
1F
100
AcDbEntity
  8
GR1-1
  6
CONTINUOUS
 62
     3
100
AcDbCircle
 10
543.481231
 20
491.149425
 30
0.0
 40
5.5
100
AcDbArc
 50
135.0
 51
315.0
  0
LINE
  5
E0
330
1F
100
AcDbEntity
  8
GR1-1
  6
CONTINUOUS
 62
     3
100
AcDbLine
 10
547.370318
 20
487.260338
 30
0.0
 11
548.870318
 21
488.760338
 31
0.0
  0
ARC
  5
E1
330
1F
100
AcDbEntity
  8
GR1-1
  6
CONTINUOUS
 62
     3
100
AcDbCircle
 10
544.981231
 20
492.649425
 30
0.0
 40
5.5
100
AcDbArc
 50
-45.0
 51
135.0
  0
LINE
  5
E2
330
1F
100
AcDbEntity
  8
GR1-1
  6
CONTINUOUS
 62
     3
100
AcDbLine
 10
541.092144
 20
496.538513
 30
0.0
 11
539.592144
 21
495.038513
 31
0.0
  0
LINE
  5
E3
330
1F
100
AcDbEntity
  8
GR1-1
  6
CONTINUOUS
 62
     3
100
AcDbLine
 10
548.870318
 20
440.538513
 30
0.0
 11
547.370318
 21
442.038513
 31
0.0
  0
ARC
  5
E4
330
1F
100
AcDbEntity
  8
GR1-1
  6
CONTINUOUS
 62
     3
100
AcDbCircle
 10
543.481231
 20
438.149425
 30
0.0
 40
5.5
100
AcDbArc
 50
45.0
 51
225.0
  0
LINE
  5
E5
330
1F
100
AcDbEntity
  8
GR1-1
  6
CONTINUOUS
 62
     3
100
AcDbLine
 10
539.592144
 20
434.260338
 30
0.0
 11
541.092144
 21
432.760338
 31
0.0
  0
ARC
  5
E6
330
1F
100
AcDbEntity
  8
GR1-1
  6
CONTINUOUS
 62
     3
100
AcDbCircle
 10
544.981231
 20
436.649425
 30
0.0
 40
5.5
100
AcDbArc
 50
-135.0
 51
45.0
  0
LINE
  5
E7
330
1F
100
AcDbEntity
  8
GR1-1
  6
CONTINUOUS
 62
     3
100
AcDbLine
 10
535.797768
 20
421.223841
 30
0.0
 11
520.613673
 21
431.855858
 31
0.0
  0
ARC
  5
E8
330
1F
100
AcDbEntity
  8
GR1-1
  6
CONTINUOUS
 62
     3
100
AcDbCircle
 10
511.43645
 20
418.749425
 30
0.0
 40
16.0
100
AcDbArc
 50
55.0
 51
90.0
  0
LINE
  5
E9
330
1F
100
AcDbEntity
  8
GR1-1
  6
CONTINUOUS
 62
     3
100
AcDbLine
 10
511.43645
 20
434.749425
 30
0.0
 11
478.526012
 21
434.749425
 31
0.0
  0
ARC
  5
EA
330
1F
100
AcDbEntity
  8
GR1-1
  6
CONTINUOUS
 62
     3
100
AcDbCircle
 10
478.526012
 20
418.749425
 30
0.0
 40
16.0
100
AcDbArc
 50
90.0
 51
125.0
  0
LINE
  5
EB
330
1F
100
AcDbEntity
  8
GR1-1
  6
CONTINUOUS
 62
     3
100
AcDbLine
 10
469.348789
 20
431.855858
 30
0.0
 11
454.164694
 21
421.223841
 31
0.0
  0
LINE
  5
EC
330
1F
100
AcDbEntity
  8
GR1-1
  6
CONTINUOUS
 62
     3
100
AcDbLine
 10
444.413895
 20
418.149425
 30
0.0
 11
442.981231
 21
418.149425
 31
0.0
  0
ARC
  5
ED
330
1F
100
AcDbEntity
  8
GR1-1
  6
CONTINUOUS
 62
     3
100
AcDbCircle
 10
444.413895
 20
435.149425
 30
0.0
 40
17.0
100
AcDbArc
 50
270.0
 51
305.0
  0
LINE
  5
EE
330
1F
100
AcDbEntity
  8
GR1-1
  6
CONTINUOUS
 62
     3
100
AcDbLine
 10
448.870318
 20
432.760338
 30
0.0
 11
450.370318
 21
434.260338
 31
0.0
  0
ARC
  5
EF
330
1F
100
AcDbEntity
  8
GR1-1
  6
CONTINUOUS
 62
     3
100
AcDbCircle
 10
446.481231
 20
438.149425
 30
0.0
 40
5.5
100
AcDbArc
 50
-45.0
 51
135.0
  0
LINE
  5
F0
330
1F
100
AcDbEntity
  8
GR1-1
  6
CONTINUOUS
 62
     3
100
AcDbLine
 10
442.592144
 20
442.038513
 30
0.0
 11
441.092144
 21
440.538513
 31
0.0
  0
ARC
  5
F1
330
1F
100
AcDbEntity
  8
GR1-1
  6
CONTINUOUS
 62
     3
100
AcDbCircle
 10
444.981231
 20
436.649425
 30
0.0
 40
5.5
100
AcDbArc
 50
135.0
 51
315.0
  0
LINE
  5
F2
330
1F
100
AcDbEntity
  8
GR1-1
  6
CONTINUOUS
 62
     3
100
AcDbLine
 10
425.981231
 20
434.749425
 30
0.0
 11
425.981231
 21
494.549425
 31
0.0
  0
ARC
  5
F3
330
1F
100
AcDbEntity
  8
GR1-1
  6
CONTINUOUS
 62
     3
100
AcDbCircle
 10
442.981231
 20
435.149425
 30
0.0
 40
17.0
100
AcDbArc
 50
180.0
 51
270.0
  0
LINE
  5
F4
330
1F
100
AcDbEntity
  8
GR1-1
  6
CONTINUOUS
 62
     3
100
AcDbLine
 10
481.979422
 20
431.749425
 30
0.0
 11
484.979422
 21
430.249425
 31
0.0
  0
LINE
  5
F5
330
1F
100
AcDbEntity
  8
GR1-1
  6
CONTINUOUS
 62
     3
100
AcDbLine
 10
484.979422
 20
430.249425
 30
0.0
 11
504.979422
 21
430.249425
 31
0.0
  0
LINE
  5
F6
330
1F
100
AcDbEntity
  8
GR1-1
  6
CONTINUOUS
 62
     3
100
AcDbLine
 10
504.979422
 20
430.249425
 30
0.0
 11
507.979422
 21
431.749425
 31
0.0
  0
LINE
  5
F7
330
1F
100
AcDbEntity
  8
GR1-1
  6
CONTINUOUS
 62
     3
100
AcDbLine
 10
507.979422
 20
431.749425
 30
0.0
 11
507.979422
 21
434.749425
 31
0.0
  0
LINE
  5
F8
330
1F
100
AcDbEntity
  8
GR1-1
  6
CONTINUOUS
 62
     3
100
AcDbLine
 10
481.979422
 20
434.749425
 30
0.0
 11
481.979422
 21
431.749425
 31
0.0
  0
ARC
  5
F9
330
1F
100
AcDbEntity
  8
GR1-1
  6
CONTINUOUS
 62
     3
100
AcDbCircle
 10
545.548567
 20
435.149425
 30
0.0
 40
17.0
100
AcDbArc
 50
235.0
 51
270.0
  0
ARC
  5
FA
330
1F
100
AcDbEntity
  8
GR1-1
  6
CONTINUOUS
 62
     3
100
AcDbCircle
 10
483.481231
 20
495.049425
 30
0.0
 40
0.5
100
AcDbArc
 50
180.0
 51
270.0
  0
LINE
  5
FB
330
1F
100
AcDbEntity
  8
GR1-1
  6
CONTINUOUS
 62
     3
100
AcDbLine
 10
469.348789
 20
497.442993
 30
0.0
 11
454.164694
 21
508.07501
 31
0.0
  0
ARC
  5
FC
330
1F
100
AcDbEntity
  8
GR1-1
  6
CONTINUOUS
 62
     3
100
AcDbCircle
 10
444.413895
 20
494.149425
 30
0.0
 40
17.0
100
AcDbArc
 50
55.0
 51
90.0
  0
LINE
  5
FD
330
1F
100
AcDbEntity
  8
GR1-1
  6
CONTINUOUS
 62
     3
100
AcDbLine
 10
444.413895
 20
511.149425
 30
0.0
 11
442.981231
 21
511.149425
 31
0.0
  0
ARC
  5
FE
330
1F
100
AcDbEntity
  8
GR1-1
  6
CONTINUOUS
 62
     3
100
AcDbCircle
 10
442.981231
 20
494.149425
 30
0.0
 40
17.0
100
AcDbArc
 50
90.0
 51
180.0
  0
ARC
  5
FF
330
1F
100
AcDbEntity
  8
GR1-1
  6
CONTINUOUS
 62
     3
100
AcDbCircle
 10
446.481231
 20
491.149425
 30
0.0
 40
5.5
100
AcDbArc
 50
-135.0
 51
45.0
  0
LINE
  5
100
330
1F
100
AcDbEntity
  8
GR1-1
  6
CONTINUOUS
 62
     3
100
AcDbLine
 10
450.370318
 20
495.038513
 30
0.0
 11
448.870318
 21
496.538513
 31
0.0
  0
ARC
  5
101
330
1F
100
AcDbEntity
  8
GR1-1
  6
CONTINUOUS
 62
     3
100
AcDbCircle
 10
444.981231
 20
492.649425
 30
0.0
 40
5.5
100
AcDbArc
 50
45.0
 51
225.0
  0
ARC
  5
102
330
1F
100
AcDbEntity
  8
GR1-1
  6
CONTINUOUS
 62
     3
100
AcDbCircle
 10
478.526012
 20
510.549425
 30
0.0
 40
16.0
100
AcDbArc
 50
235.0
 51
270.0
  0
TEXT
  5
103
330
1F
100
AcDbEntity
  8
GR1-1
  6
CONTINUOUS
 62
     7
100
AcDbText
 10
490.585541
 20
269.936737
 30
0.0
 40
9.394314
  1
K-150
 50
270.0
 41
0.69021
  7
FX_VECTOR
 72
     5
 11
490.585541
 21
237.82525
 31
0.0
100
AcDbText
  0
LINE
  5
104
330
1F
100
AcDbEntity
  8
GR1-1
  6
CENTER
 62
     6
100
AcDbLine
 10
543.481231
 20
484.442448
 30
0.0
 11
543.481231
 21
499.078154
 31
0.0
  0
LINE
  5
105
330
1F
100
AcDbEntity
  8
GR1-1
  6
CENTER
 62
     6
100
AcDbLine
 10
537.331124
 20
492.649425
 30
0.0
 11
551.295027
 21
492.649425
 31
0.0
  0
LINE
  5
106
330
1F
100
AcDbEntity
  8
GR1-1
  6
CENTER
 62
     6
100
AcDbLine
 10
544.981231
 20
499.749957
 30
0.0
 11
544.981231
 21
485.018279
 31
0.0
  0
LINE
  5
107
330
1F
100
AcDbEntity
  8
GR1-1
  6
CENTER
 62
     6
100
AcDbLine
 10
550.479267
 20
491.149425
 30
0.0
 11
537.331124
 21
491.149425
 31
0.0
  0
LINE
  5
108
330
1F
100
AcDbEntity
  8
GR1-1
  6
CENTER
 62
     6
100
AcDbLine
 10
413.959559
 20
464.649425
 30
0.0
 11
572.190732
 21
464.649425
 31
0.0
  0
LINE
  5
109
330
1F
100
AcDbEntity
  8
GR1-1
  6
CONTINUOUS
 62
     6
100
AcDbLine
 10
516.481231
 20
436.649425
 30
0.0
 11
516.481231
 21
492.649425
 31
0.0
  0
LINE
  5
10A
330
1F
100
AcDbEntity
  8
GR1-1
  6
CONTINUOUS
 62
     6
100
AcDbLine
 10
501.981231
 20
506.849425
 30
0.0
 11
487.981231
 21
506.849425
 31
0.0
  0
LINE
  5
10B
330
1F
100
AcDbEntity
  8
GR1-1
  6
CONTINUOUS
 62
     6
100
AcDbLine
 10
488.793231
 20
506.049425
 30
0.0
 11
488.793231
 21
507.661425
 31
0.0
  0
LINE
  5
10C
330
1F
100
AcDbEntity
  8
GR1-1
  6
CENTER
 62
     6
100
AcDbLine
 10
494.981231
 20
512.744076
 30
0.0
 11
494.981231
 21
422.070478
 31
0.0
  0
LINE
  5
10D
330
1F
100
AcDbEntity
  8
GR1-1
  6
CONTINUOUS
 62
     6
100
AcDbLine
 10
507.979422
 20
431.749425
 30
0.0
 11
481.979422
 21
431.749425
 31
0.0
  0
LINE
  5
10E
330
1F
100
AcDbEntity
  8
GR1-1
  6
CONTINUOUS
 62
     6
100
AcDbLine
 10
473.481231
 20
436.649425
 30
0.0
 11
473.481231
 21
492.649425
 31
0.0
  0
LINE
  5
10F
330
1F
100
AcDbEntity
  8
GR1-1
  6
CONTINUOUS
 62
     6
100
AcDbLine
 10
501.169231
 20
506.049425
 30
0.0
 11
501.169231
 21
507.661425
 31
0.0
  0
LINE
  5
110
330
1F
100
AcDbEntity
  8
GR1-1
  6
CENTER
 62
     6
100
AcDbLine
 10
494.981231
 20
328.502538
 30
0.0
 11
494.981231
 21
119.152693
 31
0.0
  0
LINE
  5
111
330
1F
100
AcDbEntity
  8
GR1-1
  6
CONTINUOUS
 62
     6
100
AcDbLine
 10
516.481231
 20
196.677461
 30
0.0
 11
516.481231
 21
316.213065
 31
0.0
  0
LINE
  5
112
330
1F
100
AcDbEntity
  8
GR1-1
  6
CONTINUOUS
 62
     6
100
AcDbLine
 10
473.481231
 20
316.213065
 30
0.0
 11
473.481231
 21
196.677461
 31
0.0
  0
CIRCLE
  5
113
330
1F
100
AcDbEntity
  8
GR1-1
  6
CONTINUOUS
 62
     6
100
AcDbCircle
 10
494.981231
 20
200.09387
 30
0.0
 40
10.0
  0
LINE
  5
114
330
1F
100
AcDbEntity
  8
GR1-1
  6
CENTER
 62
     6
100
AcDbLine
 10
573.279691
 20
200.09387
 30
0.0
 11
416.276365
 21
200.09387
 31
0.0
  0
LINE
  5
115
330
1F
100
AcDbEntity
  8
GR1-1
  6
CONTINUOUS
 62
     3
100
AcDbLine
 10
228.326432
 20
316.09387
 30
0.0
 11
229.226432
 21
290.59387
 31
0.0
  0
LINE
  5
116
330
1F
100
AcDbEntity
  8
GR1-1
  6
CONTINUOUS
 62
     3
100
AcDbLine
 10
229.226432
 20
290.59387
 30
0.0
 11
230.526432
 21
277.09387
 31
0.0
  0
ARC
  5
117
330
1F
100
AcDbEntity
  8
GR1-1
  6
CONTINUOUS
 62
     3
100
AcDbCircle
 10
881.500359
 20
352.594936
 30
0.0
 40
655.3376718259088
100
AcDbArc
 50
186.615704
 51
190.299511
  0
LINE
  5
118
330
1F
100
AcDbEntity
  8
GR1-1
  6
CONTINUOUS
 62
     3
100
AcDbLine
 10
246.826432
 20
178.99387
 30
0.0
 11
243.626432
 21
178.99387
 31
0.0
  0
LINE
  5
119
330
1F
100
AcDbEntity
  8
GR1-1
  6
CONTINUOUS
 62
     3
100
AcDbLine
 10
243.626432
 20
178.99387
 30
0.0
 11
243.626432
 21
188.59387
 31
0.0
  0
ARC
  5
11A
330
1F
100
AcDbEntity
  8
GR1-1
  6
CONTINUOUS
 62
     3
100
AcDbCircle
 10
-119.614458
 20
158.710553
 30
0.0
 40
364.501060766569
100
AcDbArc
 50
4.765716
 51
12.149498
  0
ARC
  5
11B
330
1F
100
AcDbEntity
  8
GR1-1
  6
CONTINUOUS
 62
     3
100
AcDbCircle
 10
-441.917852
 20
102.027763
 30
0.0
 40
694.2130745736985
100
AcDbArc
 50
7.196518
 51
10.607351
  0
LINE
  5
11C
330
1F
100
AcDbEntity
  8
GR1-1
  6
CONTINUOUS
 62
     3
100
AcDbLine
 10
239.143952
 20
212.795576
 30
0.0
 11
233.108913
 21
212.795576
 31
0.0
  0
LINE
  5
11D
330
1F
100
AcDbEntity
  8
GR1-1
  6
CONTINUOUS
 62
     3
100
AcDbLine
 10
233.108913
 20
212.795576
 30
0.0
 11
232.126432
 21
211.09387
 31
0.0
  0
LINE
  5
11E
330
1F
100
AcDbEntity
  8
GR1-1
  6
CONTINUOUS
 62
     3
100
AcDbLine
 10
232.126432
 20
211.09387
 30
0.0
 11
232.126432
 21
189.09387
 31
0.0
  0
LINE
  5
11F
330
1F
100
AcDbEntity
  8
GR1-1
  6
CONTINUOUS
 62
     3
100
AcDbLine
 10
232.126432
 20
189.09387
 30
0.0
 11
233.108913
 21
187.392164
 31
0.0
  0
LINE
  5
120
330
1F
100
AcDbEntity
  8
GR1-1
  6
CONTINUOUS
 62
     3
100
AcDbLine
 10
233.108913
 20
187.392164
 30
0.0
 11
239.143952
 21
187.392164
 31
0.0
  0
LINE
  5
121
330
1F
100
AcDbEntity
  8
GR1-1
  6
CONTINUOUS
 62
     3
100
AcDbLine
 10
239.143952
 20
187.392164
 30
0.0
 11
240.126432
 21
189.09387
 31
0.0
  0
ARC
  5
122
330
1F
100
AcDbEntity
  8
GR1-1
  6
CONTINUOUS
 62
     3
100
AcDbCircle
 10
240.626432
 20
188.59387
 30
0.0
 40
0.5
100
AcDbArc
 50
180.0
 51
270.0
  0
LINE
  5
123
330
1F
100
AcDbEntity
  8
GR1-1
  6
CONTINUOUS
 62
     3
100
AcDbLine
 10
240.626432
 20
188.09387
 30
0.0
 11
243.126432
 21
188.09387
 31
0.0
  0
ARC
  5
124
330
1F
100
AcDbEntity
  8
GR1-1
  6
CONTINUOUS
 62
     3
100
AcDbCircle
 10
243.126432
 20
188.59387
 30
0.0
 40
0.5
100
AcDbArc
 50
270.0
 51
360.0
  0
LINE
  5
125
330
1F
100
AcDbEntity
  8
GR1-1
  6
CONTINUOUS
 62
     3
100
AcDbLine
 10
240.126432
 20
188.59387
 30
0.0
 11
240.126432
 21
211.59387
 31
0.0
  0
LINE
  5
126
330
1F
100
AcDbEntity
  8
GR1-1
  6
CONTINUOUS
 62
     3
100
AcDbLine
 10
240.126432
 20
211.09387
 30
0.0
 11
239.143952
 21
212.795576
 31
0.0
  0
LINE
  5
127
330
1F
100
AcDbEntity
  8
GR1-1
  6
CONTINUOUS
 62
     3
100
AcDbLine
 10
240.626432
 20
212.09387
 30
0.0
 11
240.956263
 21
212.09387
 31
0.0
  0
ARC
  5
128
330
1F
100
AcDbEntity
  8
GR1-1
  6
CONTINUOUS
 62
     3
100
AcDbCircle
 10
240.626432
 20
211.59387
 30
0.0
 40
0.5
100
AcDbArc
 50
90.0
 51
180.0
  0
ARC
  5
129
330
1F
100
AcDbEntity
  8
GR1-1
  6
CONTINUOUS
 62
     3
100
AcDbCircle
 10
234.503622
 20
209.620149
 30
0.0
 40
5.622810046529507
100
AcDbArc
 50
-34.384247
 51
34.384247
  0
ARC
  5
12A
330
1F
100
AcDbEntity
  8
GR1-1
  6
CONTINUOUS
 62
     3
100
AcDbCircle
 10
237.749242
 20
209.620149
 30
0.0
 40
5.622810046529507
100
AcDbArc
 50
145.615753
 51
214.384247
  0
ARC
  5
12B
330
1F
100
AcDbEntity
  8
GR1-1
  6
CONTINUOUS
 62
     3
100
AcDbCircle
 10
253.143952
 20
200.09387
 30
0.0
 40
21.01751962775467
100
AcDbArc
 50
162.412046
 51
197.587954
  0
LINE
  5
12C
330
1F
100
AcDbEntity
  8
GR1-1
  6
CONTINUOUS
 62
     3
100
AcDbLine
 10
233.108913
 20
193.743017
 30
0.0
 11
239.143952
 21
193.743017
 31
0.0
  0
ARC
  5
12D
330
1F
100
AcDbEntity
  8
GR1-1
  6
CONTINUOUS
 62
     3
100
AcDbCircle
 10
219.108913
 20
200.09387
 30
0.0
 40
21.01751962775467
100
AcDbArc
 50
-17.587954
 51
17.587954
  0
LINE
  5
12E
330
1F
100
AcDbEntity
  8
GR1-1
  6
CONTINUOUS
 62
     3
100
AcDbLine
 10
239.143952
 20
206.444723
 30
0.0
 11
233.108913
 21
206.444723
 31
0.0
  0
LINE
  5
12F
330
1F
100
AcDbEntity
  8
GR1-1
  6
CONTINUOUS
 62
     3
100
AcDbLine
 10
232.126432
 20
207.09387
 30
0.0
 11
231.326432
 21
207.09387
 31
0.0
  0
LINE
  5
130
330
1F
100
AcDbEntity
  8
GR1-1
  6
CONTINUOUS
 62
     3
100
AcDbLine
 10
231.326432
 20
207.09387
 30
0.0
 11
230.326432
 21
206.09387
 31
0.0
  0
LINE
  5
131
330
1F
100
AcDbEntity
  8
GR1-1
  6
CONTINUOUS
 62
     3
100
AcDbLine
 10
230.326432
 20
206.09387
 30
0.0
 11
230.326432
 21
194.09387
 31
0.0
  0
LINE
  5
132
330
1F
100
AcDbEntity
  8
GR1-1
  6
CONTINUOUS
 62
     3
100
AcDbLine
 10
230.326432
 20
194.09387
 30
0.0
 11
231.326432
 21
193.09387
 31
0.0
  0
LINE
  5
133
330
1F
100
AcDbEntity
  8
GR1-1
  6
CONTINUOUS
 62
     3
100
AcDbLine
 10
231.326432
 20
193.09387
 30
0.0
 11
232.126432
 21
193.09387
 31
0.0
  0
ARC
  5
134
330
1F
100
AcDbEntity
  8
GR1-1
  6
CONTINUOUS
 62
     3
100
AcDbCircle
 10
237.749242
 20
190.56759
 30
0.0
 40
5.622810046529507
100
AcDbArc
 50
145.615753
 51
214.384247
  0
ARC
  5
135
330
1F
100
AcDbEntity
  8
GR1-1
  6
CONTINUOUS
 62
     3
100
AcDbCircle
 10
234.503622
 20
190.56759
 30
0.0
 40
5.622810046529507
100
AcDbArc
 50
-34.384247
 51
34.384247
  0
LINE
  5
136
330
1F
100
AcDbEntity
  8
GR1-1
  6
CONTINUOUS
 62
     3
100
AcDbLine
 10
246.826432
 20
178.99387
 30
0.0
 11
246.826432
 21
309.09387
 31
0.0
  0
ARC
  5
137
330
1F
100
AcDbEntity
  8
GR1-1
  6
CONTINUOUS
 62
     3
100
AcDbCircle
 10
232.8114
 20
308.09387
 30
0.0
 40
1.0
100
AcDbArc
 50
90.0
 51
182.021365
  0
LINE
  5
138
330
1F
100
AcDbEntity
  8
GR1-1
  6
CONTINUOUS
 62
     3
100
AcDbLine
 10
231.812023
 20
308.058598
 30
0.0
 11
232.421013
 21
290.803863
 31
0.0
  0
ARC
  5
139
330
1F
100
AcDbEntity
  8
GR1-1
  6
CONTINUOUS
 62
     3
100
AcDbCircle
 10
515.399653
 20
301.413362
 30
0.0
 40
283.1774564780955
100
AcDbArc
 50
182.14714
 51
187.785851
  0
ARC
  5
13A
330
1F
100
AcDbEntity
  8
GR1-1
  6
CONTINUOUS
 62
     3
100
AcDbCircle
 10
706.140431
 20
325.372266
 30
0.0
 40
475.4102383947955
100
AcDbArc
 50
187.532545
 51
191.595205
  0
LINE
  5
13B
330
1F
100
AcDbEntity
  8
GR1-1
  6
CONTINUOUS
 62
     3
100
AcDbLine
 10
308.846071
 20
213.09387
 30
0.0
 11
309.026432
 21
213.09387
 31
0.0
  0
LINE
  5
13C
330
1F
100
AcDbEntity
  8
GR1-1
  6
CONTINUOUS
 62
     3
100
AcDbLine
 10
309.026432
 20
213.09387
 30
0.0
 11
310.526432
 21
210.09387
 31
0.0
  0
LINE
  5
13D
330
1F
100
AcDbEntity
  8
GR1-1
  6
CONTINUOUS
 62
     3
100
AcDbLine
 10
310.526432
 20
210.09387
 30
0.0
 11
310.526432
 21
190.09387
 31
0.0
  0
LINE
  5
13E
330
1F
100
AcDbEntity
  8
GR1-1
  6
CONTINUOUS
 62
     3
100
AcDbLine
 10
310.526432
 20
190.09387
 30
0.0
 11
309.026432
 21
187.09387
 31
0.0
  0
LINE
  5
13F
330
1F
100
AcDbEntity
  8
GR1-1
  6
CONTINUOUS
 62
     3
100
AcDbLine
 10
309.026432
 20
187.09387
 30
0.0
 11
306.026432
 21
187.09387
 31
0.0
  0
LINE
  5
140
330
1F
100
AcDbEntity
  8
GR1-1
  6
CONTINUOUS
 62
     3
100
AcDbLine
 10
306.026432
 20
188.99387
 30
0.0
 11
306.026432
 21
178.99387
 31
0.0
  0
LINE
  5
141
330
1F
100
AcDbEntity
  8
GR1-1
  6
CONTINUOUS
 62
     3
100
AcDbLine
 10
306.026432
 20
178.99387
 30
0.0
 11
302.826432
 21
178.99387
 31
0.0
  0
LINE
  5
142
330
1F
100
AcDbEntity
  8
GR1-1
  6
CONTINUOUS
 62
     3
100
AcDbLine
 10
302.826432
 20
178.99387
 30
0.0
 11
302.826432
 21
309.09387
 31
0.0
  0
LINE
  5
143
330
1F
100
AcDbEntity
  8
GR1-1
  6
CONTINUOUS
 62
     3
100
AcDbLine
 10
317.840842
 20
308.058598
 30
0.0
 11
317.231851
 21
290.803863
 31
0.0
  0
LINE
  5
144
330
1F
100
AcDbEntity
  8
GR1-1
  6
CONTINUOUS
 62
     3
100
AcDbLine
 10
320.426432
 20
290.59387
 30
0.0
 11
321.326432
 21
316.09387
 31
0.0
  0
ARC
  5
145
330
1F
100
AcDbEntity
  8
GR1-1
  6
CONTINUOUS
 62
     3
100
AcDbCircle
 10
314.326432
 20
316.09387
 30
0.0
 40
7.0
100
AcDbArc
 50
0.0
 51
90.0
  0
LINE
  5
146
330
1F
100
AcDbEntity
  8
GR1-1
  6
CONTINUOUS
 62
     3
100
AcDbLine
 10
314.326432
 20
323.09387
 30
0.0
 11
235.326432
 21
323.09387
 31
0.0
  0
ARC
  5
147
330
1F
100
AcDbEntity
  8
GR1-1
  6
CONTINUOUS
 62
     3
100
AcDbCircle
 10
235.326432
 20
316.09387
 30
0.0
 40
7.0
100
AcDbArc
 50
90.0
 51
180.0
  0
LINE
  5
148
330
1F
100
AcDbEntity
  8
GR1-1
  6
CONTINUOUS
 62
     3
100
AcDbLine
 10
230.645325
 20
309.09387
 30
0.0
 11
319.00754
 21
309.09387
 31
0.0
  0
ARC
  5
149
330
1F
100
AcDbEntity
  8
GR1-1
  6
CONTINUOUS
 62
     3
100
AcDbCircle
 10
316.841464
 20
308.09387
 30
0.0
 40
1.0
100
AcDbArc
 50
-2.021365
 51
90.0
  0
ARC
  5
14A
330
1F
100
AcDbEntity
  8
GR1-1
  6
CONTINUOUS
 62
     3
100
AcDbCircle
 10
319.00754
 20
307.09387
 30
0.0
 40
2.0
100
AcDbArc
 50
-2.021365
 51
90.0
  0
LINE
  5
14B
330
1F
100
AcDbEntity
  8
GR1-1
  6
CONTINUOUS
 62
     3
100
AcDbLine
 10
320.426432
 20
290.59387
 30
0.0
 11
319.126432
 21
277.09387
 31
0.0
  0
ARC
  5
14C
330
1F
100
AcDbEntity
  8
GR1-1
  6
CONTINUOUS
 62
     3
100
AcDbCircle
 10
34.253212
 20
301.413362
 30
0.0
 40
283.1774564780955
100
AcDbArc
 50
352.214149
 51
357.85286
  0
ARC
  5
14D
330
1F
100
AcDbEntity
  8
GR1-1
  6
CONTINUOUS
 62
     3
100
AcDbCircle
 10
991.570717
 20
102.027763
 30
0.0
 40
694.2130745736985
100
AcDbArc
 50
169.392649
 51
172.803482
  0
ARC
  5
14E
330
1F
100
AcDbEntity
  8
GR1-1
  6
CONTINUOUS
 62
     3
100
AcDbCircle
 10
-156.487567
 20
325.372266
 30
0.0
 40
475.4102383947955
100
AcDbArc
 50
348.404795
 51
352.467455
  0
ARC
  5
14F
330
1F
100
AcDbEntity
  8
GR1-1
  6
CONTINUOUS
 62
     3
100
AcDbCircle
 10
669.267322
 20
158.710553
 30
0.0
 40
364.501060766569
100
AcDbArc
 50
167.850502
 51
175.234284
  0
ARC
  5
150
330
1F
100
AcDbEntity
  8
GR1-1
  6
CONTINUOUS
 62
     3
100
AcDbCircle
 10
-331.847494
 20
352.594936
 30
0.0
 40
655.3376718259088
100
AcDbArc
 50
349.700489
 51
353.384296
  0
ARC
  5
151
330
1F
100
AcDbEntity
  8
GR1-1
  6
CONTINUOUS
 62
     3
100
AcDbCircle
 10
230.645325
 20
307.09387
 30
0.0
 40
2.0
100
AcDbArc
 50
90.0
 51
182.021365
  0
LINE
  5
152
330
1F
100
AcDbEntity
  8
GR1-1
  6
CONTINUOUS
 62
     6
100
AcDbLine
 10
309.026432
 20
187.09387
 30
0.0
 11
309.026432
 21
213.09387
 31
0.0
  0
LINE
  5
153
330
1F
100
AcDbEntity
  8
GR1-1
  6
CENTER
 62
     6
100
AcDbLine
 10
315.751966
 20
200.09387
 30
0.0
 11
225.189227
 21
200.09387
 31
0.0
  0
LINE
  5
154
330
1F
100
AcDbEntity
  8
GR1-1
  6
CONTINUOUS
 62
     6
100
AcDbLine
 10
230.514432
 20
206.28187
 30
0.0
 11
232.126432
 21
206.28187
 31
0.0
  0
LINE
  5
155
330
1F
100
AcDbEntity
  8
GR1-1
  6
CONTINUOUS
 62
     6
100
AcDbLine
 10
231.326432
 20
207.09387
 30
0.0
 11
231.326432
 21
193.09387
 31
0.0
  0
LINE
  5
156
330
1F
100
AcDbEntity
  8
GR1-1
  6
CONTINUOUS
 62
     6
100
AcDbLine
 10
232.126432
 20
193.90587
 30
0.0
 11
230.514432
 21
193.90587
 31
0.0
  0
LINE
  5
157
330
1F
100
AcDbEntity
  8
GR1-1
  6
CENTER
 62
     6
100
AcDbLine
 10
274.826432
 20
120.312102
 30
0.0
 11
274.826432
 21
328.546821
 31
0.0
  0
TEXT
  5
158
330
1F
100
AcDbEntity
  8
}}ﾊﾊGG血CCТ
  6
CONTINUOUS
 62
     7
100
AcDbText
 10
666.369324
 20
21.950436
 30
0.0
 40
6.0
  1
W40B0ALA-C01
 41
0.711864
  7
FX_VECTOR
 72
     5
 11
714.369324
 21
21.950436
 31
0.0
100
AcDbText
  0
LINE
  5
159
330
1F
100
AcDbEntity
  8
GR1-1
  6
CENTER
 62
     6
100
AcDbLine
 10
446.481231
 20
484.442448
 30
0.0
 11
446.481231
 21
499.078154
 31
0.0
  0
LINE
  5
15A
330
1F
100
AcDbEntity
  8
GR1-1
  6
CENTER
 62
     6
100
AcDbLine
 10
452.631338
 20
492.649425
 30
0.0
 11
438.667435
 21
492.649425
 31
0.0
  0
LINE
  5
15B
330
1F
100
AcDbEntity
  8
GR1-1
  6
CENTER
 62
     6
100
AcDbLine
 10
444.981231
 20
499.749957
 30
0.0
 11
444.981231
 21
485.018279
 31
0.0
  0
LINE
  5
15C
330
1F
100
AcDbEntity
  8
GR1-1
  6
CENTER
 62
     6
100
AcDbLine
 10
439.483195
 20
491.149425
 30
0.0
 11
452.631338
 21
491.149425
 31
0.0
  0
LINE
  5
15D
330
1F
100
AcDbEntity
  8
GR1-1
  6
CENTER
 62
     6
100
AcDbLine
 10
543.481231
 20
444.856403
 30
0.0
 11
543.481231
 21
430.220696
 31
0.0
  0
LINE
  5
15E
330
1F
100
AcDbEntity
  8
GR1-1
  6
CENTER
 62
     6
100
AcDbLine
 10
537.331124
 20
436.649425
 30
0.0
 11
551.295027
 21
436.649425
 31
0.0
  0
LINE
  5
15F
330
1F
100
AcDbEntity
  8
GR1-1
  6
CENTER
 62
     6
100
AcDbLine
 10
544.981231
 20
429.548893
 30
0.0
 11
544.981231
 21
444.280572
 31
0.0
  0
LINE
  5
160
330
1F
100
AcDbEntity
  8
GR1-1
  6
CENTER
 62
     6
100
AcDbLine
 10
550.479267
 20
438.149425
 30
0.0
 11
537.331124
 21
438.149425
 31
0.0
  0
LINE
  5
161
330
1F
100
AcDbEntity
  8
GR1-1
  6
CENTER
 62
     6
100
AcDbLine
 10
446.481231
 20
444.856403
 30
0.0
 11
446.481231
 21
430.220696
 31
0.0
  0
LINE
  5
162
330
1F
100
AcDbEntity
  8
GR1-1
  6
CENTER
 62
     6
100
AcDbLine
 10
452.631338
 20
436.649425
 30
0.0
 11
438.667435
 21
436.649425
 31
0.0
  0
LINE
  5
163
330
1F
100
AcDbEntity
  8
GR1-1
  6
CENTER
 62
     6
100
AcDbLine
 10
444.981231
 20
429.548893
 30
0.0
 11
444.981231
 21
444.280572
 31
0.0
  0
LINE
  5
164
330
1F
100
AcDbEntity
  8
GR1-1
  6
CENTER
 62
     6
100
AcDbLine
 10
439.483195
 20
438.149425
 30
0.0
 11
452.631338
 21
438.149425
 31
0.0
  0
LINE
  5
165
330
1F
100
AcDbEntity
  8
}}ﾊﾊGG血CCТ
  6
CENTER
 62
     6
100
AcDbLine
 10
544.981231
 20
327.88963
 30
0.0
 11
544.981231
 21
318.441759
 31
0.0
  0
LINE
  5
166
330
1F
100
AcDbEntity
  8
}}ﾊﾊGG血CCТ
  6
CENTER
 62
     6
100
AcDbLine
 10
543.481231
 20
327.88963
 30
0.0
 11
543.481231
 21
318.441759
 31
0.0
  0
LINE
  5
167
330
1F
100
AcDbEntity
  8
}}ﾊﾊGG血CCТ
  6
CENTER
 62
     6
100
AcDbLine
 10
444.981231
 20
327.88963
 30
0.0
 11
444.981231
 21
318.441759
 31
0.0
  0
LINE
  5
168
330
1F
100
AcDbEntity
  8
}}ﾊﾊGG血CCТ
  6
CENTER
 62
     6
100
AcDbLine
 10
446.481231
 20
327.88963
 30
0.0
 11
446.481231
 21
318.441759
 31
0.0
  0
LINE
  5
169
330
1F
100
AcDbEntity
  8
GR1-1
  6
CENTER
 62
     6
100
AcDbLine
 10
301.326432
 20
318.441759
 30
0.0
 11
301.326432
 21
327.88963
 31
0.0
  0
LINE
  5
16A
330
1F
100
AcDbEntity
  8
GR1-1
  6
CENTER
 62
     6
100
AcDbLine
 10
302.826432
 20
318.441759
 30
0.0
 11
302.826432
 21
327.88963
 31
0.0
  0
LINE
  5
16B
330
1F
100
AcDbEntity
  8
GR1-1
  6
CENTER
 62
     6
100
AcDbLine
 10
248.326432
 20
318.441759
 30
0.0
 11
248.326432
 21
327.88963
 31
0.0
  0
LINE
  5
16C
330
1F
100
AcDbEntity
  8
GR1-1
  6
CENTER
 62
     6
100
AcDbLine
 10
246.826432
 20
318.441759
 30
0.0
 11
246.826432
 21
327.88963
 31
0.0
  0
LINE
  5
16D
330
1F
100
AcDbEntity
  8
}}ﾊﾊGG血CCТ
  6
CONTINUOUS
 62
     3
100
AcDbLine
 10
442.592144
 20
487.260338
 30
0.0
 11
441.092144
 21
488.760338
 31
0.0
  0
TEXT
  5
16E
330
1F
100
AcDbEntity
  8
GR1-1
  6
CONTINUOUS
 62
     7
100
AcDbText
 10
490.481232
 20
389.088562
 30
0.0
 40
4.0
  1
138
 41
0.828947
  7
FX_VECTOR
 72
     5
 11
499.481232
 21
389.088562
 31
0.0
100
AcDbText
  0
LINE
  5
16F
330
1F
100
AcDbEntity
  8
GR1-1
  6
CONTINUOUS
 62
     7
100
AcDbLine
 10
425.981231
 20
434.149425
 30
0.0
 11
425.981231
 21
387.088593
 31
0.0
  0
LINE
  5
170
330
1F
100
AcDbEntity
  8
GR1-1
  6
CONTINUOUS
 62
     7
100
AcDbLine
 10
563.981231
 20
434.149425
 30
0.0
 11
563.981231
 21
387.088593
 31
0.0
  0
LINE
  5
171
330
1F
100
AcDbEntity
  8
GR1-1
  6
CONTINUOUS
 62
     7
100
AcDbLine
 10
425.981231
 20
388.088593
 30
0.0
 11
563.981231
 21
388.088593
 31
0.0
  0
INSERT
  5
172
330
1F
100
AcDbEntity
  8
GR1-1
  6
CONTINUOUS
 62
     7
100
AcDbBlockReference
  2
FXTIP_ARROW_S
 10
425.981231
 20
388.088593
 30
0.0
 41
4.0
 42
4.0
 50
180.0
  0
INSERT
  5
173
330
1F
100
AcDbEntity
  8
GR1-1
  6
CONTINUOUS
 62
     7
100
AcDbBlockReference
  2
FXTIP_ARROW_E
 10
563.981231
 20
388.088593
 30
0.0
 41
4.0
 42
4.0
 50
360.0
  0
TEXT
  5
174
330
1F
100
AcDbEntity
  8
GR1-1
  6
CONTINUOUS
 62
     7
100
AcDbText
 10
490.481232
 20
399.088562
 30
0.0
 40
4.0
  1
100
 41
0.828947
  7
FX_VECTOR
 72
     5
 11
499.481232
 21
399.088562
 31
0.0
100
AcDbText
  0
LINE
  5
175
330
1F
100
AcDbEntity
  8
GR1-1
  6
CONTINUOUS
 62
     7
100
AcDbLine
 10
444.981231
 20
429.761927
 30
0.0
 11
444.981231
 21
397.088593
 31
0.0
  0
LINE
  5
176
330
1F
100
AcDbEntity
  8
GR1-1
  6
CONTINUOUS
 62
     7
100
AcDbLine
 10
544.981231
 20
429.761927
 30
0.0
 11
544.981231
 21
397.088593
 31
0.0
  0
LINE
  5
177
330
1F
100
AcDbEntity
  8
GR1-1
  6
CONTINUOUS
 62
     7
100
AcDbLine
 10
444.981231
 20
398.088593
 30
0.0
 11
544.981231
 21
398.088593
 31
0.0
  0
INSERT
  5
178
330
1F
100
AcDbEntity
  8
GR1-1
  6
CONTINUOUS
 62
     7
100
AcDbBlockReference
  2
FXTIP_ARROW_S
 10
444.981231
 20
398.088593
 30
0.0
 41
4.0
 42
4.0
 50
180.0
  0
INSERT
  5
179
330
1F
100
AcDbEntity
  8
GR1-1
  6
CONTINUOUS
 62
     7
100
AcDbBlockReference
  2
FXTIP_ARROW_E
 10
544.981231
 20
398.088593
 30
0.0
 41
4.0
 42
4.0
 50
360.0
  0
TEXT
  5
17A
330
1F
100
AcDbEntity
  8
GR1-1
  6
CONTINUOUS
 62
     7
100
AcDbText
 10
491.981232
 20
409.088562
 30
0.0
 40
4.0
  1
97
 41
0.851351
  7
FX_VECTOR
 72
     5
 11
497.981232
 21
409.088562
 31
0.0
100
AcDbText
  0
LINE
  5
17B
330
1F
100
AcDbEntity
  8
GR1-1
  6
CONTINUOUS
 62
     7
100
AcDbLine
 10
543.481231
 20
431.261927
 30
0.0
 11
543.481231
 21
407.088593
 31
0.0
  0
LINE
  5
17C
330
1F
100
AcDbEntity
  8
GR1-1
  6
CONTINUOUS
 62
     7
100
AcDbLine
 10
446.481231
 20
431.261927
 30
0.0
 11
446.481231
 21
407.088593
 31
0.0
  0
LINE
  5
17D
330
1F
100
AcDbEntity
  8
GR1-1
  6
CONTINUOUS
 62
     7
100
AcDbLine
 10
543.481231
 20
408.088593
 30
0.0
 11
446.481231
 21
408.088593
 31
0.0
  0
INSERT
  5
17E
330
1F
100
AcDbEntity
  8
GR1-1
  6
CONTINUOUS
 62
     7
100
AcDbBlockReference
  2
FXTIP_ARROW_S
 10
543.481231
 20
408.088593
 30
0.0
 41
4.0
 42
4.0
  0
INSERT
  5
17F
330
1F
100
AcDbEntity
  8
GR1-1
  6
CONTINUOUS
 62
     7
100
AcDbBlockReference
  2
FXTIP_ARROW_E
 10
446.481231
 20
408.088593
 30
0.0
 41
4.0
 42
4.0
 50
180.0
  0
TEXT
  5
180
330
1F
100
AcDbEntity
  8
GR1-1
  6
CONTINUOUS
 62
     7
100
AcDbText
 10
598.95459
 20
461.649384
 30
0.0
 40
4.0
  1
93
 50
90.0
 41
0.851351
  7
FX_VECTOR
 72
     5
 11
598.95459
 21
467.649384
 31
0.0
100
AcDbText
  0
LINE
  5
181
330
1F
100
AcDbEntity
  8
GR1-1
  6
CONTINUOUS
 62
     7
100
AcDbLine
 10
547.981231
 20
511.149425
 30
0.0
 11
600.954644
 21
511.149425
 31
0.0
  0
LINE
  5
182
330
1F
100
AcDbEntity
  8
GR1-1
  6
CONTINUOUS
 62
     7
100
AcDbLine
 10
547.981231
 20
418.149425
 30
0.0
 11
600.954644
 21
418.149425
 31
0.0
  0
LINE
  5
183
330
1F
100
AcDbEntity
  8
GR1-1
  6
CONTINUOUS
 62
     7
100
AcDbLine
 10
599.954644
 20
511.149425
 30
0.0
 11
599.954644
 21
418.149425
 31
0.0
  0
INSERT
  5
184
330
1F
100
AcDbEntity
  8
GR1-1
  6
CONTINUOUS
 62
     7
100
AcDbBlockReference
  2
FXTIP_ARROW_S
 10
599.954644
 20
511.149425
 30
0.0
 41
4.0
 42
4.0
 50
90.0
  0
INSERT
  5
185
330
1F
100
AcDbEntity
  8
GR1-1
  6
CONTINUOUS
 62
     7
100
AcDbBlockReference
  2
FXTIP_ARROW_E
 10
599.954644
 20
418.149425
 30
0.0
 41
4.0
 42
4.0
 50
270.0
  0
TEXT
  5
186
330
1F
100
AcDbEntity
  8
GR1-1
  6
CONTINUOUS
 62
     7
100
AcDbText
 10
588.95459
 20
461.649384
 30
0.0
 40
4.0
  1
56
 50
90.0
 41
0.851351
  7
FX_VECTOR
 72
     5
 11
588.95459
 21
467.649384
 31
0.0
100
AcDbText
  0
LINE
  5
187
330
1F
100
AcDbEntity
  8
GR1-1
  6
CONTINUOUS
 62
     7
100
AcDbLine
 10
551.889059
 20
492.649425
 30
0.0
 11
590.954644
 21
492.649425
 31
0.0
  0
LINE
  5
188
330
1F
100
AcDbEntity
  8
GR1-1
  6
CONTINUOUS
 62
     7
100
AcDbLine
 10
551.481231
 20
436.649425
 30
0.0
 11
590.954644
 21
436.649425
 31
0.0
  0
LINE
  5
189
330
1F
100
AcDbEntity
  8
GR1-1
  6
CONTINUOUS
 62
     7
100
AcDbLine
 10
589.954644
 20
492.649425
 30
0.0
 11
589.954644
 21
436.649425
 31
0.0
  0
INSERT
  5
18A
330
1F
100
AcDbEntity
  8
GR1-1
  6
CONTINUOUS
 62
     7
100
AcDbBlockReference
  2
FXTIP_ARROW_S
 10
589.954644
 20
492.649425
 30
0.0
 41
4.0
 42
4.0
 50
90.0
  0
INSERT
  5
18B
330
1F
100
AcDbEntity
  8
GR1-1
  6
CONTINUOUS
 62
     7
100
AcDbBlockReference
  2
FXTIP_ARROW_E
 10
589.954644
 20
436.649425
 30
0.0
 41
4.0
 42
4.0
 50
270.0
  0
TEXT
  5
18C
330
1F
100
AcDbEntity
  8
GR1-1
  6
CONTINUOUS
 62
     7
100
AcDbText
 10
578.95459
 20
461.649384
 30
0.0
 40
4.0
  1
53
 50
90.0
 41
0.851351
  7
FX_VECTOR
 72
     5
 11
578.95459
 21
467.649384
 31
0.0
100
AcDbText
  0
LINE
  5
18D
330
1F
100
AcDbEntity
  8
GR1-1
  6
CONTINUOUS
 62
     7
100
AcDbLine
 10
550.389059
 20
491.149425
 30
0.0
 11
580.954644
 21
491.149425
 31
0.0
  0
LINE
  5
18E
330
1F
100
AcDbEntity
  8
GR1-1
  6
CONTINUOUS
 62
     7
100
AcDbLine
 10
550.389059
 20
438.149425
 30
0.0
 11
580.954644
 21
438.149425
 31
0.0
  0
LINE
  5
18F
330
1F
100
AcDbEntity
  8
GR1-1
  6
CONTINUOUS
 62
     7
100
AcDbLine
 10
579.954644
 20
491.149425
 30
0.0
 11
579.954644
 21
438.149425
 31
0.0
  0
INSERT
  5
190
330
1F
100
AcDbEntity
  8
GR1-1
  6
CONTINUOUS
 62
     7
100
AcDbBlockReference
  2
FXTIP_ARROW_S
 10
579.954644
 20
491.149425
 30
0.0
 41
4.0
 42
4.0
 50
90.0
  0
INSERT
  5
191
330
1F
100
AcDbEntity
  8
GR1-1
  6
CONTINUOUS
 62
     7
100
AcDbBlockReference
  2
FXTIP_ARROW_E
 10
579.954644
 20
438.149425
 30
0.0
 41
4.0
 42
4.0
 50
270.0
  0
TEXT
  5
192
330
1F
100
AcDbEntity
  8
GR1-1
  6
CONTINUOUS
 62
     7
100
AcDbText
 10
588.91803
 20
219.593872
 30
0.0
 40
4.0
  1
198
 50
90.0
 41
0.828947
  7
FX_VECTOR
 72
     5
 11
588.91803
 21
228.593872
 31
0.0
100
AcDbText
  0
LINE
  5
193
330
1F
100
AcDbEntity
  8
GR1-1
  6
CONTINUOUS
 62
     7
100
AcDbLine
 10
559.481231
 20
323.09387
 30
0.0
 11
590.918113
 21
323.09387
 31
0.0
  0
LINE
  5
194
330
1F
100
AcDbEntity
  8
GR1-1
  6
CONTINUOUS
 62
     7
100
AcDbLine
 10
495.981231
 20
125.09387
 30
0.0
 11
590.918113
 21
125.09387
 31
0.0
  0
LINE
  5
195
330
1F
100
AcDbEntity
  8
GR1-1
  6
CONTINUOUS
 62
     7
100
AcDbLine
 10
589.918113
 20
323.09387
 30
0.0
 11
589.918113
 21
125.09387
 31
0.0
  0
INSERT
  5
196
330
1F
100
AcDbEntity
  8
GR1-1
  6
CONTINUOUS
 62
     7
100
AcDbBlockReference
  2
FXTIP_ARROW_S
 10
589.918113
 20
323.09387
 30
0.0
 41
4.0
 42
4.0
 50
90.0
  0
INSERT
  5
197
330
1F
100
AcDbEntity
  8
GR1-1
  6
CONTINUOUS
 62
     7
100
AcDbBlockReference
  2
FXTIP_ARROW_E
 10
589.918113
 20
125.09387
 30
0.0
 41
4.0
 42
4.0
 50
270.0
  0
TEXT
  5
198
330
1F
100
AcDbEntity
  8
GR1-1
  6
CONTINUOUS
 62
     7
100
AcDbText
 10
578.91803
 20
257.093872
 30
0.0
 40
4.0
  1
123
 50
90.0
 41
0.828947
  7
FX_VECTOR
 72
     5
 11
578.91803
 21
266.093872
 31
0.0
100
AcDbText
  0
LINE
  5
199
330
1F
100
AcDbEntity
  8
GR1-1
  6
CONTINUOUS
 62
     7
100
AcDbLine
 10
574.279691
 20
200.09387
 30
0.0
 11
580.918113
 21
200.09387
 31
0.0
  0
LINE
  5
19A
330
1F
100
AcDbEntity
  8
GR1-1
  6
CONTINUOUS
 62
     7
100
AcDbLine
 10
579.918113
 20
200.09387
 30
0.0
 11
579.918113
 21
323.09387
 31
0.0
  0
INSERT
  5
19B
330
1F
100
AcDbEntity
  8
GR1-1
  6
CONTINUOUS
 62
     7
100
AcDbBlockReference
  2
FXTIP_ARROW_S
 10
579.918113
 20
200.09387
 30
0.0
 41
4.0
 42
4.0
 50
270.0
  0
INSERT
  5
19C
330
1F
100
AcDbEntity
  8
GR1-1
  6
CONTINUOUS
 62
     7
100
AcDbBlockReference
  2
FXTIP_ARROW_E
 10
579.918113
 20
323.09387
 30
0.0
 41
4.0
 42
4.0
 50
90.0
  0
TEXT
  5
19D
330
1F
100
AcDbEntity
  8
GR1-1
  6
CONTINUOUS
 62
     7
100
AcDbText
 10
271.826416
 20
106.099113
 30
0.0
 40
4.0
  1
53
 41
0.851351
  7
FX_VECTOR
 72
     5
 11
277.826416
 21
106.099113
 31
0.0
100
AcDbText
  0
LINE
  5
19E
330
1F
100
AcDbEntity
  8
GR1-1
  6
CONTINUOUS
 62
     7
100
AcDbLine
 10
248.326432
 20
185.89387
 30
0.0
 11
248.326432
 21
104.099113
 31
0.0
  0
LINE
  5
19F
330
1F
100
AcDbEntity
  8
GR1-1
  6
CONTINUOUS
 62
     7
100
AcDbLine
 10
301.326432
 20
185.89387
 30
0.0
 11
301.326432
 21
104.099113
 31
0.0
  0
LINE
  5
1A0
330
1F
100
AcDbEntity
  8
GR1-1
  6
CONTINUOUS
 62
     7
100
AcDbLine
 10
248.326432
 20
105.099113
 30
0.0
 11
301.326432
 21
105.099113
 31
0.0
  0
INSERT
  5
1A1
330
1F
100
AcDbEntity
  8
GR1-1
  6
CONTINUOUS
 62
     7
100
AcDbBlockReference
  2
FXTIP_ARROW_S
 10
248.326432
 20
105.099113
 30
0.0
 41
4.0
 42
4.0
 50
180.0
  0
INSERT
  5
1A2
330
1F
100
AcDbEntity
  8
GR1-1
  6
CONTINUOUS
 62
     7
100
AcDbBlockReference
  2
FXTIP_ARROW_E
 10
301.326432
 20
105.099113
 30
0.0
 41
4.0
 42
4.0
 50
360.0
  0
TEXT
  5
1A3
330
1F
100
AcDbEntity
  8
GR1-1
  6
CONTINUOUS
 62
     7
100
AcDbText
 10
271.826416
 20
116.099113
 30
0.0
 40
4.0
  1
45
 41
0.851351
  7
FX_VECTOR
 72
     5
 11
277.826416
 21
116.099113
 31
0.0
100
AcDbText
  0
LINE
  5
1A4
330
1F
100
AcDbEntity
  8
GR1-1
  6
CONTINUOUS
 62
     7
100
AcDbLine
 10
252.326432
 20
137.59387
 30
0.0
 11
252.326432
 21
114.099113
 31
0.0
  0
LINE
  5
1A5
330
1F
100
AcDbEntity
  8
GR1-1
  6
CONTINUOUS
 62
     7
100
AcDbLine
 10
297.326432
 20
137.59387
 30
0.0
 11
297.326432
 21
114.099113
 31
0.0
  0
LINE
  5
1A6
330
1F
100
AcDbEntity
  8
GR1-1
  6
CONTINUOUS
 62
     7
100
AcDbLine
 10
252.326432
 20
115.099113
 30
0.0
 11
297.326432
 21
115.099113
 31
0.0
  0
INSERT
  5
1A7
330
1F
100
AcDbEntity
  8
GR1-1
  6
CONTINUOUS
 62
     7
100
AcDbBlockReference
  2
FXTIP_ARROW_S
 10
252.326432
 20
115.099113
 30
0.0
 41
4.0
 42
4.0
 50
180.0
  0
INSERT
  5
1A8
330
1F
100
AcDbEntity
  8
GR1-1
  6
CONTINUOUS
 62
     7
100
AcDbBlockReference
  2
FXTIP_ARROW_E
 10
297.326432
 20
115.099113
 30
0.0
 41
4.0
 42
4.0
 50
360.0
  0
TEXT
  5
1A9
330
1F
100
AcDbEntity
  8
GR1-1
  6
CONTINUOUS
 62
     7
100
AcDbText
 10
328.184998
 20
194.093872
 30
0.0
 40
4.0
  1
%%c150
 50
90.0
 41
0.828947
  7
FX_VECTOR
 72
     5
 11
328.184998
 21
206.093872
 31
0.0
100
AcDbText
  0
LINE
  5
1AA
330
1F
100
AcDbEntity
  8
GR1-1
  6
CONTINUOUS
 62
     7
100
AcDbLine
 10
275.826432
 20
125.09387
 30
0.0
 11
330.185024
 21
125.09387
 31
0.0
  0
LINE
  5
1AB
330
1F
100
AcDbEntity
  8
GR1-1
  6
CONTINUOUS
 62
     7
100
AcDbLine
 10
275.826432
 20
275.09387
 30
0.0
 11
330.185024
 21
275.09387
 31
0.0
  0
LINE
  5
1AC
330
1F
100
AcDbEntity
  8
GR1-1
  6
CONTINUOUS
 62
     7
100
AcDbLine
 10
329.185024
 20
125.09387
 30
0.0
 11
329.185024
 21
275.09387
 31
0.0
  0
INSERT
  5
1AD
330
1F
100
AcDbEntity
  8
GR1-1
  6
CONTINUOUS
 62
     7
100
AcDbBlockReference
  2
FXTIP_ARROW_S
 10
329.185024
 20
125.09387
 30
0.0
 41
4.0
 42
4.0
 50
270.0
  0
INSERT
  5
1AE
330
1F
100
AcDbEntity
  8
GR1-1
  6
CONTINUOUS
 62
     7
100
AcDbBlockReference
  2
FXTIP_ARROW_E
 10
329.185024
 20
275.09387
 30
0.0
 41
4.0
 42
4.0
 50
90.0
  0
ARC
  5
1AF
330
1F
100
AcDbEntity
  8
GR1-1
  6
CONTINUOUS
 62
     3
100
AcDbCircle
 10
494.981231
 20
200.09387
 30
0.0
 40
75.0
100
AcDbArc
 50
-238.548133
 51
58.548133
  0
ARC
  5
1B0
330
1F
100
AcDbEntity
  8
LAYERGROUP-1
  6
CONTINUOUS
 62
     6
100
AcDbCircle
 10
494.981231
 20
200.09387
 30
0.0
 40
53.5
100
AcDbArc
 50
-230.170421
 51
50.170421
  0
ARC
  5
1B1
330
1F
100
AcDbEntity
  8
LAYERGROUP-1
  6
CONTINUOUS
 62
     6
100
AcDbCircle
 10
494.981231
 20
200.09387
 30
0.0
 40
30.0
100
AcDbArc
 50
-201.639749
 51
21.639749
  0
LINE
  5
1B2
330
1F
100
AcDbEntity
  8
LAYERGROUP-1
  6
DASHED
 62
     6
100
AcDbLine
 10
465.799127
 20
217.256405
 30
0.0
 11
449.295397
 21
227.974052
 31
0.0
  0
LINE
  5
1B3
330
1F
100
AcDbEntity
  8
LAYERGROUP-1
  6
DASHED
 62
     6
100
AcDbLine
 10
465.100849
 20
203.161893
 30
0.0
 11
441.633055
 21
204.391788
 31
0.0
  0
LINE
  5
1B4
330
1F
100
AcDbEntity
  8
LAYERGROUP-1
  6
CONTINUOUS
 62
     6
100
AcDbLine
 10
465.358079
 20
219.331369
 30
0.0
 11
455.00223
 21
226.056536
 31
0.0
  0
LINE
  5
1B5
330
1F
100
AcDbEntity
  8
LAYERGROUP-1
  6
CONTINUOUS
 62
     6
100
AcDbLine
 10
461.119737
 20
201.868475
 30
0.0
 11
447.377068
 21
202.588698
 31
0.0
  0
ARC
  5
1B6
330
1F
100
AcDbEntity
  8
LAYERGROUP-1
  6
CONTINUOUS
 62
     6
100
AcDbCircle
 10
448.466562
 20
215.992489
 30
0.0
 40
12.0
100
AcDbArc
 50
57.0
 51
85.955024
  0
ARC
  5
1B7
330
1F
100
AcDbEntity
  8
LAYERGROUP-1
  6
CONTINUOUS
 62
     6
100
AcDbCircle
 10
448.005099
 20
214.572253
 30
0.0
 40
12.0
100
AcDbArc
 50
238.044976
 51
267.0
  0
ARC
  5
1B8
330
1F
100
AcDbEntity
  8
LAYERGROUP-1
  6
CONTINUOUS
 62
     6
100
AcDbCircle
 10
460.988897
 20
199.371902
 30
0.0
 40
2.5
100
AcDbArc
 50
1.21673
 51
87.0
  0
LINE
  5
1B9
330
1F
100
AcDbEntity
  8
LAYERGROUP-1
  6
CONTINUOUS
 62
     6
100
AcDbLine
 10
463.488333
 20
199.424987
 30
0.0
 11
465.100849
 21
203.161893
 31
0.0
  0
LINE
  5
1BA
330
1F
100
AcDbEntity
  8
LAYERGROUP-1
  6
CONTINUOUS
 62
     6
100
AcDbLine
 10
465.100849
 20
203.161893
 30
0.0
 11
461.119737
 21
201.868475
 31
0.0
  0
LINE
  5
1BB
330
1F
100
AcDbEntity
  8
LAYERGROUP-1
  6
DASHED
 62
     6
100
AcDbLine
 10
472.610833
 20
180.048539
 30
0.0
 11
454.347903
 21
165.25951
 31
0.0
  0
LINE
  5
1BC
330
1F
100
AcDbEntity
  8
LAYERGROUP-1
  6
DASHED
 62
     6
100
AcDbLine
 10
482.829822
 20
172.624009
 30
0.0
 11
474.408175
 21
150.684869
 31
0.0
  0
LINE
  5
1BD
330
1F
100
AcDbEntity
  8
LAYERGROUP-1
  6
CONTINUOUS
 62
     6
100
AcDbLine
 10
468.629794
 20
178.754897
 30
0.0
 11
457.935077
 21
170.094486
 31
0.0
  0
LINE
  5
1BE
330
1F
100
AcDbEntity
  8
LAYERGROUP-1
  6
CONTINUOUS
 62
     6
100
AcDbLine
 10
482.829704
 20
168.438059
 30
0.0
 11
477.898013
 21
155.590564
 31
0.0
  0
ARC
  5
1BF
330
1F
100
AcDbEntity
  8
LAYERGROUP-1
  6
CONTINUOUS
 62
     6
100
AcDbCircle
 10
465.486922
 20
160.768734
 30
0.0
 40
12.0
100
AcDbArc
 50
129.0
 51
157.955024
  0
ARC
  5
1C0
330
1F
100
AcDbEntity
  8
LAYERGROUP-1
  6
CONTINUOUS
 62
     6
100
AcDbCircle
 10
466.695048
 20
159.89098
 30
0.0
 40
12.0
100
AcDbArc
 50
310.044976
 51
339.0
  0
ARC
  5
1C1
330
1F
100
AcDbEntity
  8
LAYERGROUP-1
  6
CONTINUOUS
 62
     6
100
AcDbCircle
 10
485.163655
 20
167.542139
 30
0.0
 40
2.5
100
AcDbArc
 50
73.21673
 51
159.0
  0
LINE
  5
1C2
330
1F
100
AcDbEntity
  8
LAYERGROUP-1
  6
CONTINUOUS
 62
     6
100
AcDbLine
 10
485.885535
 20
169.935648
 30
0.0
 11
482.829822
 21
172.624009
 31
0.0
  0
LINE
  5
1C3
330
1F
100
AcDbEntity
  8
LAYERGROUP-1
  6
CONTINUOUS
 62
     6
100
AcDbLine
 10
482.829822
 20
172.624009
 30
0.0
 11
482.829704
 21
168.438059
 31
0.0
  0
ARC
  5
1C4
330
1F
100
AcDbEntity
  8
LAYERGROUP-1
  6
CONTINUOUS
 62
     6
100
AcDbCircle
 10
467.056493
 20
180.697762
 30
0.0
 40
2.5
100
AcDbArc
 50
-51.0
 51
34.78327
  0
LINE
  5
1C5
330
1F
100
AcDbEntity
  8
LAYERGROUP-1
  6
CONTINUOUS
 62
     6
100
AcDbLine
 10
469.109783
 20
182.123946
 30
0.0
 11
472.610833
 21
180.048539
 31
0.0
  0
LINE
  5
1C6
330
1F
100
AcDbEntity
  8
LAYERGROUP-1
  6
CONTINUOUS
 62
     6
100
AcDbLine
 10
472.610833
 20
180.048539
 30
0.0
 11
468.629794
 21
178.754897
 31
0.0
  0
LINE
  5
1C7
330
1F
100
AcDbEntity
  8
LAYERGROUP-1
  6
DASHED
 62
     6
100
AcDbLine
 10
507.13264
 20
172.624009
 30
0.0
 11
515.554287
 21
150.684869
 31
0.0
  0
LINE
  5
1C8
330
1F
100
AcDbEntity
  8
LAYERGROUP-1
  6
DASHED
 62
     6
100
AcDbLine
 10
517.351629
 20
180.048539
 30
0.0
 11
535.614559
 21
165.25951
 31
0.0
  0
LINE
  5
1C9
330
1F
100
AcDbEntity
  8
LAYERGROUP-1
  6
CONTINUOUS
 62
     6
100
AcDbLine
 10
507.132758
 20
168.438059
 30
0.0
 11
512.064449
 21
155.590564
 31
0.0
  0
LINE
  5
1CA
330
1F
100
AcDbEntity
  8
LAYERGROUP-1
  6
CONTINUOUS
 62
     6
100
AcDbLine
 10
521.332668
 20
178.754897
 30
0.0
 11
532.027385
 21
170.094486
 31
0.0
  0
ARC
  5
1CB
330
1F
100
AcDbEntity
  8
LAYERGROUP-1
  6
CONTINUOUS
 62
     6
100
AcDbCircle
 10
523.267415
 20
159.89098
 30
0.0
 40
12.0
100
AcDbArc
 50
201.0
 51
229.955024
  0
ARC
  5
1CC
330
1F
100
AcDbEntity
  8
LAYERGROUP-1
  6
CONTINUOUS
 62
     6
100
AcDbCircle
 10
524.47554
 20
160.768734
 30
0.0
 40
12.0
100
AcDbArc
 50
22.044976
 51
51.0
  0
ARC
  5
1CD
330
1F
100
AcDbEntity
  8
LAYERGROUP-1
  6
CONTINUOUS
 62
     6
100
AcDbCircle
 10
522.905969
 20
180.697762
 30
0.0
 40
2.5
100
AcDbArc
 50
145.21673
 51
231.0
  0
LINE
  5
1CE
330
1F
100
AcDbEntity
  8
LAYERGROUP-1
  6
CONTINUOUS
 62
     6
100
AcDbLine
 10
520.852679
 20
182.123946
 30
0.0
 11
517.351629
 21
180.048539
 31
0.0
  0
LINE
  5
1CF
330
1F
100
AcDbEntity
  8
LAYERGROUP-1
  6
CONTINUOUS
 62
     6
100
AcDbLine
 10
517.351629
 20
180.048539
 30
0.0
 11
521.332668
 21
178.754897
 31
0.0
  0
ARC
  5
1D0
330
1F
100
AcDbEntity
  8
LAYERGROUP-1
  6
CONTINUOUS
 62
     6
100
AcDbCircle
 10
504.798807
 20
167.542139
 30
0.0
 40
2.5
100
AcDbArc
 50
21.0
 51
106.78327
  0
LINE
  5
1D1
330
1F
100
AcDbEntity
  8
LAYERGROUP-1
  6
CONTINUOUS
 62
     6
100
AcDbLine
 10
504.076927
 20
169.935648
 30
0.0
 11
507.13264
 21
172.624009
 31
0.0
  0
LINE
  5
1D2
330
1F
100
AcDbEntity
  8
LAYERGROUP-1
  6
CONTINUOUS
 62
     6
100
AcDbLine
 10
507.13264
 20
172.624009
 30
0.0
 11
507.132758
 21
168.438059
 31
0.0
  0
LINE
  5
1D3
330
1F
100
AcDbEntity
  8
LAYERGROUP-1
  6
DASHED
 62
     6
100
AcDbLine
 10
524.861613
 20
203.161893
 30
0.0
 11
548.329407
 21
204.391788
 31
0.0
  0
LINE
  5
1D4
330
1F
100
AcDbEntity
  8
LAYERGROUP-1
  6
DASHED
 62
     6
100
AcDbLine
 10
524.163335
 20
217.256405
 30
0.0
 11
540.667065
 21
227.974052
 31
0.0
  0
LINE
  5
1D5
330
1F
100
AcDbEntity
  8
LAYERGROUP-1
  6
CONTINUOUS
 62
     6
100
AcDbLine
 10
528.842725
 20
201.868475
 30
0.0
 11
542.585394
 21
202.588698
 31
0.0
  0
LINE
  5
1D6
330
1F
100
AcDbEntity
  8
LAYERGROUP-1
  6
CONTINUOUS
 62
     6
100
AcDbLine
 10
524.604383
 20
219.331369
 30
0.0
 11
534.960232
 21
226.056536
 31
0.0
  0
ARC
  5
1D7
330
1F
100
AcDbEntity
  8
LAYERGROUP-1
  6
CONTINUOUS
 62
     6
100
AcDbCircle
 10
541.957363
 20
214.572253
 30
0.0
 40
12.0
100
AcDbArc
 50
273.0
 51
301.955024
  0
ARC
  5
1D8
330
1F
100
AcDbEntity
  8
LAYERGROUP-1
  6
CONTINUOUS
 62
     6
100
AcDbCircle
 10
541.4959
 20
215.992489
 30
0.0
 40
12.0
100
AcDbArc
 50
94.044976
 51
123.0
  0
ARC
  5
1D9
330
1F
100
AcDbEntity
  8
LAYERGROUP-1
  6
CONTINUOUS
 62
     6
100
AcDbCircle
 10
528.973565
 20
199.371902
 30
0.0
 40
2.5
100
AcDbArc
 50
93.0
 51
178.78327
  0
LINE
  5
1DA
330
1F
100
AcDbEntity
  8
LAYERGROUP-1
  6
CONTINUOUS
 62
     6
100
AcDbLine
 10
526.474129
 20
199.424987
 30
0.0
 11
524.861613
 21
203.161893
 31
0.0
  0
LINE
  5
1DB
330
1F
100
AcDbEntity
  8
LAYERGROUP-1
  6
CONTINUOUS
 62
     6
100
AcDbLine
 10
524.861613
 20
203.161893
 30
0.0
 11
528.842725
 21
201.868475
 31
0.0
  0
ARC
  5
1DC
330
1F
100
AcDbEntity
  8
LAYERGROUP-1
  6
CONTINUOUS
 62
     6
100
AcDbCircle
 10
494.981231
 20
200.09387
 30
0.0
 40
31.5
100
AcDbArc
 50
325.21673
 51
358.78327
  0
ARC
  5
1DD
330
1F
100
AcDbEntity
  8
LAYERGROUP-1
  6
CONTINUOUS
 62
     6
100
AcDbCircle
 10
494.981231
 20
200.09387
 30
0.0
 40
31.5
100
AcDbArc
 50
253.21673
 51
286.78327
  0
ARC
  5
1DE
330
1F
100
AcDbEntity
  8
LAYERGROUP-1
  6
CONTINUOUS
 62
     6
100
AcDbCircle
 10
494.981231
 20
200.09387
 30
0.0
 40
31.5
100
AcDbArc
 50
181.21673
 51
214.78327
  0
ARC
  5
1DF
330
1F
100
AcDbEntity
  8
LAYERGROUP-1
  6
CONTINUOUS
 62
     6
100
AcDbCircle
 10
494.981231
 20
200.09387
 30
0.0
 40
48.92
100
AcDbArc
 50
4.757096
 51
31.242904
  0
ARC
  5
1E0
330
1F
100
AcDbEntity
  8
LAYERGROUP-1
  6
CONTINUOUS
 62
     6
100
AcDbCircle
 10
494.981231
 20
200.09387
 30
0.0
 40
48.14
100
AcDbArc
 50
-39.010983
 51
3.010983
  0
ARC
  5
1E1
330
1F
100
AcDbEntity
  8
LAYERGROUP-1
  6
CONTINUOUS
 62
     6
100
AcDbCircle
 10
494.981231
 20
200.09387
 30
0.0
 40
48.14
100
AcDbArc
 50
32.989017
 51
46.746702
  0
ARC
  5
1E2
330
1F
100
AcDbEntity
  8
LAYERGROUP-1
  6
CONTINUOUS
 62
     6
100
AcDbCircle
 10
494.981231
 20
200.09387
 30
0.0
 40
48.92
100
AcDbArc
 50
148.757096
 51
175.242904
  0
ARC
  5
1E3
330
1F
100
AcDbEntity
  8
LAYERGROUP-1
  6
CONTINUOUS
 62
     6
100
AcDbCircle
 10
494.981231
 20
200.09387
 30
0.0
 40
48.14
100
AcDbArc
 50
133.253298
 51
147.010983
  0
ARC
  5
1E4
330
1F
100
AcDbEntity
  8
LAYERGROUP-1
  6
CONTINUOUS
 62
     6
100
AcDbCircle
 10
494.981231
 20
200.09387
 30
0.0
 40
48.92
100
AcDbArc
 50
220.757096
 51
247.242904
  0
ARC
  5
1E5
330
1F
100
AcDbEntity
  8
LAYERGROUP-1
  6
CONTINUOUS
 62
     6
100
AcDbCircle
 10
494.981231
 20
200.09387
 30
0.0
 40
48.92
100
AcDbArc
 50
292.757096
 51
319.242904
  0
ARC
  5
1E6
330
1F
100
AcDbEntity
  8
LAYERGROUP-1
  6
CONTINUOUS
 62
     6
100
AcDbCircle
 10
494.981231
 20
200.09387
 30
0.0
 40
48.14
100
AcDbArc
 50
176.989017
 51
219.010983
  0
ARC
  5
1E7
330
1F
100
AcDbEntity
  8
LAYERGROUP-1
  6
CONTINUOUS
 62
     6
100
AcDbCircle
 10
494.981231
 20
200.09387
 30
0.0
 40
48.14
100
AcDbArc
 50
248.989017
 51
291.010983
  0
TEXT
  5
1E8
330
1F
100
AcDbEntity
  8
LAYERGROUP-1
  6
CONTINUOUS
 62
     7
100
AcDbText
 10
462.277527
 20
177.882645
 30
0.0
 40
6.339136
  1
W
 50
121.0
 41
0.76408
  7
FX_VECTOR
 72
     5
 11
459.664093
 21
182.232128
 31
0.0
100
AcDbText
  0
TEXT
  5
1E9
330
1F
100
AcDbEntity
  8
LAYERGROUP-1
  6
CONTINUOUS
 62
     7
100
AcDbText
 10
455.91333
 20
194.305557
 30
0.0
 40
6.251131
  1
0
 50
94.5
 41
1.036712
  7
FX_VECTOR
 72
     5
 11
455.501716
 21
199.535604
 31
0.0
100
AcDbText
  0
TEXT
  5
1EA
330
1F
100
AcDbEntity
  8
LAYERGROUP-1
  6
CONTINUOUS
 62
     7
100
AcDbText
 10
456.731812
 20
189.713425
 30
0.0
 40
6.072946
  1
5
 50
101.5
 41
0.998947
  7
FX_VECTOR
 72
     5
 11
455.752712
 21
194.525851
 31
0.0
100
AcDbText
  0
TEXT
  5
1EB
330
1F
100
AcDbEntity
  8
LAYERGROUP-1
  6
CONTINUOUS
 62
     7
100
AcDbText
 10
457.941528
 20
186.174011
 30
0.0
 40
6.142267
  1
1
 50
108.0
 41
1.097353
  7
FX_VECTOR
 72
     5
 11
456.850513
 21
189.531811
 31
0.0
100
AcDbText
  0
TEXT
  5
1EC
330
1F
100
AcDbEntity
  8
LAYERGROUP-1
  6
CONTINUOUS
 62
     7
100
AcDbText
 10
459.730652
 20
181.844543
 30
0.0
 40
6.0
  1
-
 50
114.448181
 41
0.636364
  7
FX_VECTOR
 72
     5
 11
458.075171
 21
185.485887
 31
0.0
100
AcDbText
  0
ARC
  5
1ED
330
1F
100
AcDbEntity
  8
LAYERGROUP-1
  6
CONTINUOUS
 62
     3
100
AcDbCircle
 10
494.981231
 20
200.09387
 30
0.0
 40
57.00000000000009
100
AcDbArc
 50
-232.012348
 51
52.012348
  0
ARC
  5
1EE
330
1F
100
AcDbEntity
  8
LAYERGROUP-1
  6
CONTINUOUS
 62
     3
100
AcDbCircle
 10
494.981231
 20
200.09387
 30
0.0
 40
23.49999999999994
100
AcDbArc
 50
205.663647
 51
334.336353
  0
ARC
  5
1EF
330
1F
100
AcDbEntity
  8
LAYERGROUP-1
  6
DASHED
 62
     6
100
AcDbCircle
 10
494.981231
 20
200.09387
 30
0.0
 40
22.49999999999992
100
AcDbArc
 50
221.372547
 51
318.627453
  0
TEXT
  5
1F0
330
1F
100
AcDbEntity
  8
GR1-1
  6
CONTINUOUS
 62
     7
100
AcDbText
 10
440.247253
 20
167.88205
 30
0.0
 40
7.0
  1
G
 50
115.0
 41
1.0
  7
FX_VECTOR
 72
     5
 11
437.711544
 21
173.319896
 31
0.0
100
AcDbText
  0
TEXT
  5
1F1
330
1F
100
AcDbEntity
  8
GR1-1
  6
CONTINUOUS
 62
     7
100
AcDbText
 10
436.797974
 20
174.893585
 30
0.0
 40
7.0
  1
O
 50
108.0
 41
0.947368
  7
FX_VECTOR
 72
     5
 11
434.943872
 21
180.599924
 31
0.0
100
AcDbText
  0
TEXT
  5
1F2
330
1F
100
AcDbEntity
  8
GR1-1
  6
CONTINUOUS
 62
     7
100
AcDbText
 10
434.14032
 20
182.244476
 30
0.0
 40
7.0
  1
L
 50
101.0
 41
1.125
  7
FX_VECTOR
 72
     5
 11
432.995466
 21
188.134239
 31
0.0
100
AcDbText
  0
TEXT
  5
1F3
330
1F
100
AcDbEntity
  8
GR1-1
  6
CONTINUOUS
 62
     7
100
AcDbText
 10
432.44397
 20
189.821503
 30
0.0
 40
7.0
  1
D
 50
94.0
 41
1.0
  7
FX_VECTOR
 72
     5
 11
432.025431
 21
195.806887
 31
0.0
100
AcDbText
  0
TEXT
  5
1F4
330
1F
100
AcDbEntity
  8
GR1-1
  6
CONTINUOUS
 62
     7
100
AcDbText
 10
431.832336
 20
205.228546
 30
0.0
 40
7.0
  1
C
 50
80.0
 41
1.0
  7
FX_VECTOR
 72
     5
 11
432.874225
 21
211.137393
 31
0.0
100
AcDbText
  0
TEXT
  5
1F5
330
1F
100
AcDbEntity
  8
GR1-1
  6
CONTINUOUS
 62
     7
100
AcDbText
 10
433.005066
 20
212.432159
 30
0.0
 40
7.0
  1
A
 50
73.0
 41
1.058824
  7
FX_VECTOR
 72
     5
 11
434.759296
 21
218.169988
 31
0.0
100
AcDbText
  0
TEXT
  5
1F6
330
1F
100
AcDbEntity
  8
GR1-1
  6
CONTINUOUS
 62
     7
100
AcDbText
 10
434.680298
 20
219.970917
 30
0.0
 40
7.0
  1
S
 50
66.0
 41
1.058824
  7
FX_VECTOR
 72
     5
 11
437.120718
 21
225.452189
 31
0.0
100
AcDbText
  0
TEXT
  5
1F7
330
1F
100
AcDbEntity
  8
GR1-1
  6
CONTINUOUS
 62
     7
100
AcDbText
 10
437.528259
 20
226.839508
 30
0.0
 40
7.0
  1
T
 50
59.0
 41
1.2
  7
FX_VECTOR
 72
     5
 11
440.618488
 21
231.982512
 31
0.0
100
AcDbText
  0
TEXT
  5
1F8
330
1F
100
AcDbEntity
  8
GR1-1
  6
CONTINUOUS
 62
     7
100
AcDbText
 10
441.38147
 20
233.875641
 30
0.0
 40
7.0
  1
E
 50
52.0
 41
1.058824
  7
FX_VECTOR
 72
     5
 11
445.075439
 21
238.603705
 31
0.0
100
AcDbText
  0
TEXT
  5
1F9
330
1F
100
AcDbEntity
  8
GR1-1
  6
CONTINUOUS
 62
     7
100
AcDbText
 10
446.239746
 20
240.576752
 30
0.0
 40
7.0
  1
R
 50
45.0
 41
1.0
  7
FX_VECTOR
 72
     5
 11
450.482387
 21
244.819392
 31
0.0
100
AcDbText
  0
TEXT
  5
1FA
330
1F
100
AcDbEntity
  8
GR1-1
  6
CONTINUOUS
 62
     7
100
AcDbText
 10
553.380127
 20
224.388702
 30
0.0
 40
7.0
  1
1
 50
290.0
 41
1.636364
  7
FX_VECTOR
 72
     5
 11
555.432248
 21
218.750547
 31
0.0
100
AcDbText
  0
TEXT
  5
1FB
330
1F
100
AcDbEntity
  8
GR1-1
  6
CONTINUOUS
 62
     7
100
AcDbText
 10
556.286438
 20
215.863495
 30
0.0
 40
7.0
  1
5
 50
282.0
 41
1.058824
  7
FX_VECTOR
 72
     5
 11
557.533908
 21
209.994609
 31
0.0
100
AcDbText
  0
TEXT
  5
1FC
330
1F
100
AcDbEntity
  8
GR1-1
  6
CONTINUOUS
 62
     7
100
AcDbText
 10
557.836426
 20
207.338348
 30
0.0
 40
7.0
  1
0
 50
274.0
 41
1.058824
  7
FX_VECTOR
 72
     5
 11
558.254965
 21
201.352964
 31
0.0
100
AcDbText
  0
TEXT
  5
1FD
330
1F
100
AcDbEntity
  8
GR1-1
  6
CONTINUOUS
 62
     7
100
AcDbText
 10
558.223938
 20
198.231903
 30
0.0
 40
7.0
  1
X
 50
266.0
 41
1.058824
  7
FX_VECTOR
 72
     5
 11
557.805399
 21
192.246519
 31
0.0
100
AcDbText
  0
TEXT
  5
1FE
330
1F
100
AcDbEntity
  8
GR1-1
  6
CONTINUOUS
 62
     7
100
AcDbText
 10
557.448914
 20
189.900421
 30
0.0
 40
7.0
  1
4
 50
258.0
 41
1.0
  7
FX_VECTOR
 72
     5
 11
556.201443
 21
184.031536
 31
0.0
100
AcDbText
  0
TEXT
  5
1FF
330
1F
100
AcDbEntity
  8
GR1-1
  6
CONTINUOUS
 62
     7
100
AcDbText
 10
555.317627
 20
180.987762
 30
0.0
 40
7.0
  1
5
 50
250.0
 41
1.058824
  7
FX_VECTOR
 72
     5
 11
553.265506
 21
175.349607
 31
0.0
100
AcDbText
  0
LINE
  5
200
330
1F
100
AcDbEntity
  8
GR1-1
  6
CONTINUOUS
 62
     7
100
AcDbLine
 10
445.340057
 20
151.359858
 30
0.0
 11
441.325274
 21
155.818727
 31
0.0
  0
LINE
  5
201
330
1F
100
AcDbEntity
  8
GR1-1
  6
CONTINUOUS
 62
     7
100
AcDbLine
 10
441.325274
 20
155.818727
 30
0.0
 11
445.784143
 21
159.833511
 31
0.0
  0
LINE
  5
202
330
1F
100
AcDbEntity
  8
GR1-1
  6
CONTINUOUS
 62
     7
100
AcDbLine
 10
445.784143
 20
159.833511
 30
0.0
 11
449.798926
 21
155.374642
 31
0.0
  0
LINE
  5
203
330
1F
100
AcDbEntity
  8
GR1-1
  6
CONTINUOUS
 62
     7
100
AcDbLine
 10
449.798926
 20
155.374642
 30
0.0
 11
445.340057
 21
151.359858
 31
0.0
  0
LINE
  5
204
330
1F
100
AcDbEntity
  8
GR1-1
  6
CONTINUOUS
 62
     7
100
AcDbLine
 10
447.454687
 20
153.494753
 30
0.0
 11
443.460169
 21
153.704097
 31
0.0
  0
LINE
  5
205
330
1F
100
AcDbEntity
  8
GR1-1
  6
CONTINUOUS
 62
     7
100
AcDbLine
 10
443.460169
 20
153.704097
 30
0.0
 11
443.647309
 21
157.274933
 31
0.0
  0
LINE
  5
206
330
1F
100
AcDbEntity
  8
GR1-1
  6
CONTINUOUS
 62
     7
100
AcDbLine
 10
443.647309
 20
157.274933
 30
0.0
 11
444.593602
 21
156.223967
 31
0.0
  0
LINE
  5
207
330
1F
100
AcDbEntity
  8
GR1-1
  6
CONTINUOUS
 62
     7
100
AcDbLine
 10
444.593602
 20
156.223967
 30
0.0
 11
444.511135
 21
154.650391
 31
0.0
  0
LINE
  5
208
330
1F
100
AcDbEntity
  8
GR1-1
  6
CONTINUOUS
 62
     7
100
AcDbLine
 10
444.511135
 20
154.650391
 30
0.0
 11
446.508394
 21
154.545719
 31
0.0
  0
LINE
  5
209
330
1F
100
AcDbEntity
  8
GR1-1
  6
CONTINUOUS
 62
     7
100
AcDbLine
 10
446.508394
 20
154.545719
 30
0.0
 11
446.613066
 21
156.542978
 31
0.0
  0
LINE
  5
20A
330
1F
100
AcDbEntity
  8
GR1-1
  6
CONTINUOUS
 62
     7
100
AcDbLine
 10
446.613066
 20
156.542978
 30
0.0
 11
445.563035
 21
156.598008
 31
0.0
  0
ARC
  5
20B
330
1F
100
AcDbEntity
  8
GR1-1
  6
CONTINUOUS
 62
     7
100
AcDbCircle
 10
445.557801
 20
156.498145
 30
0.0
 40
0.1
100
AcDbArc
 50
87.0
 51
222.0
  0
LINE
  5
20C
330
1F
100
AcDbEntity
  8
GR1-1
  6
CONTINUOUS
 62
     7
100
AcDbLine
 10
445.483487
 20
156.431232
 30
0.0
 11
445.933673
 21
155.93125
 31
0.0
  0
LINE
  5
20D
330
1F
100
AcDbEntity
  8
GR1-1
  6
CONTINUOUS
 62
     7
100
AcDbLine
 10
445.933673
 20
155.93125
 30
0.0
 11
445.5621
 21
155.596684
 31
0.0
  0
LINE
  5
20E
330
1F
100
AcDbEntity
  8
GR1-1
  6
CONTINUOUS
 62
     7
100
AcDbLine
 10
445.5621
 20
155.596684
 30
0.0
 11
443.669513
 21
157.698615
 31
0.0
  0
LINE
  5
20F
330
1F
100
AcDbEntity
  8
GR1-1
  6
CONTINUOUS
 62
     7
100
AcDbLine
 10
443.669513
 20
157.698615
 30
0.0
 11
445.173876
 21
159.05315
 31
0.0
  0
LINE
  5
210
330
1F
100
AcDbEntity
  8
GR1-1
  6
CONTINUOUS
 62
     7
100
AcDbLine
 10
445.173876
 20
159.05315
 30
0.0
 11
445.843007
 21
158.310005
 31
0.0
  0
LINE
  5
211
330
1F
100
AcDbEntity
  8
GR1-1
  6
CONTINUOUS
 62
     7
100
AcDbLine
 10
445.843007
 20
158.310005
 30
0.0
 11
445.261199
 21
157.786144
 31
0.0
  0
ARC
  5
212
330
1F
100
AcDbEntity
  8
GR1-1
  6
CONTINUOUS
 62
     7
100
AcDbCircle
 10
445.328112
 20
157.711829
 30
0.0
 40
0.1
100
AcDbArc
 50
132.0
 51
267.0
  0
LINE
  5
213
330
1F
100
AcDbEntity
  8
GR1-1
  6
CONTINUOUS
 62
     7
100
AcDbLine
 10
445.322879
 20
157.611966
 30
0.0
 11
447.664031
 21
157.489272
 31
0.0
  0
LINE
  5
214
330
1F
100
AcDbEntity
  8
GR1-1
  6
CONTINUOUS
 62
     7
100
AcDbLine
 10
447.664031
 20
157.489272
 30
0.0
 11
447.454687
 21
153.494753
 31
0.0
  0
ARC
  5
215
330
1F
100
AcDbEntity
  8
LAYERGROUP-1
  6
CONTINUOUS
 62
     6
100
AcDbCircle
 10
494.981231
 20
200.09387
 30
0.0
 40
60.0
100
AcDbArc
 50
-233.400771
 51
53.400771
  0
LINE
  5
216
330
1F
100
AcDbEntity
  8
GR1-1
  6
CONTINUOUS
 62
     7
100
AcDbLine
 10
445.973401
 20
159.623318
 30
0.0
 11
445.57395
 21
159.644252
 31
0.0
  0
LINE
  5
217
330
1F
100
AcDbEntity
  8
GR1-1
  6
CONTINUOUS
 62
     7
100
AcDbLine
 10
446.16266
 20
159.413125
 30
0.0
 11
445.363757
 21
159.454993
 31
0.0
  0
LINE
  5
218
330
1F
100
AcDbEntity
  8
GR1-1
  6
CONTINUOUS
 62
     7
100
AcDbLine
 10
446.351919
 20
159.202931
 30
0.0
 11
445.153563
 21
159.265735
 31
0.0
  0
LINE
  5
219
330
1F
100
AcDbEntity
  8
GR1-1
  6
CONTINUOUS
 62
     7
100
AcDbLine
 10
446.541178
 20
158.992738
 30
0.0
 11
444.94337
 21
159.076476
 31
0.0
  0
LINE
  5
21A
330
1F
100
AcDbEntity
  8
GR1-1
  6
CONTINUOUS
 62
     7
100
AcDbLine
 10
446.730436
 20
158.782545
 30
0.0
 11
445.352508
 21
158.854759
 31
0.0
  0
LINE
  5
21B
330
1F
100
AcDbEntity
  8
GR1-1
  6
CONTINUOUS
 62
     7
100
AcDbLine
 10
444.975485
 20
158.874518
 30
0.0
 11
444.733177
 21
158.887217
 31
0.0
  0
LINE
  5
21C
330
1F
100
AcDbEntity
  8
GR1-1
  6
CONTINUOUS
 62
     7
100
AcDbLine
 10
446.919695
 20
158.572352
 30
0.0
 11
445.541767
 21
158.644566
 31
0.0
  0
LINE
  5
21D
330
1F
100
AcDbEntity
  8
GR1-1
  6
CONTINUOUS
 62
     7
100
AcDbLine
 10
444.765292
 20
158.68526
 30
0.0
 11
444.522984
 21
158.697958
 31
0.0
  0
LINE
  5
21E
330
1F
100
AcDbEntity
  8
GR1-1
  6
CONTINUOUS
 62
     7
100
AcDbLine
 10
447.108954
 20
158.362159
 30
0.0
 11
445.731026
 21
158.434373
 31
0.0
  0
LINE
  5
21F
330
1F
100
AcDbEntity
  8
GR1-1
  6
CONTINUOUS
 62
     7
100
AcDbLine
 10
444.555099
 20
158.496001
 30
0.0
 11
444.312791
 21
158.5087
 31
0.0
  0
LINE
  5
220
330
1F
100
AcDbEntity
  8
GR1-1
  6
CONTINUOUS
 62
     7
100
AcDbLine
 10
447.298213
 20
158.151966
 30
0.0
 11
445.757182
 21
158.232728
 31
0.0
  0
LINE
  5
221
330
1F
100
AcDbEntity
  8
GR1-1
  6
CONTINUOUS
 62
     7
100
AcDbLine
 10
444.344906
 20
158.306742
 30
0.0
 11
444.102598
 21
158.319441
 31
0.0
  0
LINE
  5
222
330
1F
100
AcDbEntity
  8
GR1-1
  6
CONTINUOUS
 62
     7
100
AcDbLine
 10
447.487471
 20
157.941773
 30
0.0
 11
445.546988
 21
158.043469
 31
0.0
  0
LINE
  5
223
330
1F
100
AcDbEntity
  8
GR1-1
  6
CONTINUOUS
 62
     7
100
AcDbLine
 10
444.134713
 20
158.117483
 30
0.0
 11
443.892405
 21
158.130182
 31
0.0
  0
LINE
  5
224
330
1F
100
AcDbEntity
  8
GR1-1
  6
CONTINUOUS
 62
     7
100
AcDbLine
 10
447.67673
 20
157.73158
 30
0.0
 11
445.336795
 21
157.854211
 31
0.0
  0
LINE
  5
225
330
1F
100
AcDbEntity
  8
GR1-1
  6
CONTINUOUS
 62
     7
100
AcDbLine
 10
443.92452
 20
157.928225
 30
0.0
 11
443.682212
 21
157.940924
 31
0.0
  0
LINE
  5
226
330
1F
100
AcDbEntity
  8
GR1-1
  6
CONTINUOUS
 62
     7
100
AcDbLine
 10
447.865989
 20
157.521387
 30
0.0
 11
445.243309
 21
157.658835
 31
0.0
  0
LINE
  5
227
330
1F
100
AcDbEntity
  8
GR1-1
  6
CONTINUOUS
 62
     7
100
AcDbLine
 10
443.714327
 20
157.738966
 30
0.0
 11
443.472019
 21
157.751665
 31
0.0
  0
LINE
  5
228
330
1F
100
AcDbEntity
  8
GR1-1
  6
CONTINUOUS
 62
     7
100
AcDbLine
 10
448.055247
 20
157.311194
 30
0.0
 11
447.655796
 21
157.332128
 31
0.0
  0
LINE
  5
229
330
1F
100
AcDbEntity
  8
GR1-1
  6
CONTINUOUS
 62
     7
100
AcDbLine
 10
443.818421
 20
157.533236
 30
0.0
 11
443.261826
 21
157.562406
 31
0.0
  0
LINE
  5
22A
330
1F
100
AcDbEntity
  8
GR1-1
  6
CONTINUOUS
 62
     7
100
AcDbLine
 10
448.244506
 20
157.101
 30
0.0
 11
447.645328
 21
157.132402
 31
0.0
  0
LINE
  5
22B
330
1F
100
AcDbEntity
  8
GR1-1
  6
CONTINUOUS
 62
     7
100
AcDbLine
 10
444.00768
 20
157.323043
 30
0.0
 11
443.051632
 21
157.373147
 31
0.0
  0
LINE
  5
22C
330
1F
100
AcDbEntity
  8
GR1-1
  6
CONTINUOUS
 62
     7
100
AcDbLine
 10
448.433765
 20
156.890807
 30
0.0
 11
447.634861
 21
156.932676
 31
0.0
  0
LINE
  5
22D
330
1F
100
AcDbEntity
  8
GR1-1
  6
CONTINUOUS
 62
     7
100
AcDbLine
 10
444.196938
 20
157.11285
 30
0.0
 11
443.773256
 21
157.135054
 31
0.0
  0
LINE
  5
22E
330
1F
100
AcDbEntity
  8
GR1-1
  6
CONTINUOUS
 62
     7
100
AcDbLine
 10
443.640343
 20
157.14202
 30
0.0
 11
442.841439
 21
157.183889
 31
0.0
  0
LINE
  5
22F
330
1F
100
AcDbEntity
  8
GR1-1
  6
CONTINUOUS
 62
     7
100
AcDbLine
 10
448.623024
 20
156.680614
 30
0.0
 11
447.624394
 21
156.73295
 31
0.0
  0
LINE
  5
230
330
1F
100
AcDbEntity
  8
GR1-1
  6
CONTINUOUS
 62
     7
100
AcDbLine
 10
444.386197
 20
156.902657
 30
0.0
 11
443.962515
 21
156.924861
 31
0.0
  0
LINE
  5
231
330
1F
100
AcDbEntity
  8
GR1-1
  6
CONTINUOUS
 62
     7
100
AcDbLine
 10
443.629876
 20
156.942294
 30
0.0
 11
442.631246
 21
156.99463
 31
0.0
  0
LINE
  5
232
330
1F
100
AcDbEntity
  8
GR1-1
  6
CONTINUOUS
 62
     7
100
AcDbLine
 10
448.812282
 20
156.470421
 30
0.0
 11
447.613927
 21
156.533224
 31
0.0
  0
LINE
  5
233
330
1F
100
AcDbEntity
  8
GR1-1
  6
CONTINUOUS
 62
     7
100
AcDbLine
 10
444.575456
 20
156.692464
 30
0.0
 11
444.151773
 21
156.714668
 31
0.0
  0
LINE
  5
234
330
1F
100
AcDbEntity
  8
GR1-1
  6
CONTINUOUS
 62
     7
100
AcDbLine
 10
443.619409
 20
156.742568
 30
0.0
 11
442.421053
 21
156.805371
 31
0.0
  0
LINE
  5
235
330
1F
100
AcDbEntity
  8
GR1-1
  6
CONTINUOUS
 62
     7
100
AcDbLine
 10
449.001541
 20
156.260228
 30
0.0
 11
447.60346
 21
156.333498
 31
0.0
  0
LINE
  5
236
330
1F
100
AcDbEntity
  8
GR1-1
  6
CONTINUOUS
 62
     7
100
AcDbLine
 10
446.60483
 20
156.385834
 30
0.0
 11
445.472997
 21
156.445151
 31
0.0
  0
LINE
  5
237
330
1F
100
AcDbEntity
  8
GR1-1
  6
CONTINUOUS
 62
     7
100
AcDbLine
 10
444.764715
 20
156.482271
 30
0.0
 11
444.341032
 21
156.504475
 31
0.0
  0
LINE
  5
238
330
1F
100
AcDbEntity
  8
GR1-1
  6
CONTINUOUS
 62
     7
100
AcDbLine
 10
443.608941
 20
156.542842
 30
0.0
 11
442.21086
 21
156.616113
 31
0.0
  0
LINE
  5
239
330
1F
100
AcDbEntity
  8
GR1-1
  6
CONTINUOUS
 62
     7
100
AcDbLine
 10
449.1908
 20
156.050035
 30
0.0
 11
447.592992
 21
156.133772
 31
0.0
  0
LINE
  5
23A
330
1F
100
AcDbEntity
  8
GR1-1
  6
CONTINUOUS
 62
     7
100
AcDbLine
 10
446.594363
 20
156.186108
 30
0.0
 11
445.660111
 21
156.23507
 31
0.0
  0
LINE
  5
23B
330
1F
100
AcDbEntity
  8
GR1-1
  6
CONTINUOUS
 62
     7
100
AcDbLine
 10
444.953973
 20
156.272078
 30
0.0
 11
444.530291
 21
156.294282
 31
0.0
  0
LINE
  5
23C
330
1F
100
AcDbEntity
  8
GR1-1
  6
CONTINUOUS
 62
     7
100
AcDbLine
 10
443.598474
 20
156.343116
 30
0.0
 11
442.000667
 21
156.426854
 31
0.0
  0
LINE
  5
23D
330
1F
100
AcDbEntity
  8
GR1-1
  6
CONTINUOUS
 62
     7
100
AcDbLine
 10
449.380058
 20
155.839842
 30
0.0
 11
447.582525
 21
155.934047
 31
0.0
  0
LINE
  5
23E
330
1F
100
AcDbEntity
  8
GR1-1
  6
CONTINUOUS
 62
     7
100
AcDbLine
 10
446.583896
 20
155.986383
 30
0.0
 11
445.84937
 21
156.024877
 31
0.0
  0
LINE
  5
23F
330
1F
100
AcDbEntity
  8
GR1-1
  6
CONTINUOUS
 62
     7
100
AcDbLine
 10
445.143232
 20
156.061885
 30
0.0
 11
444.586637
 21
156.091054
 31
0.0
  0
LINE
  5
240
330
1F
100
AcDbEntity
  8
GR1-1
  6
CONTINUOUS
 62
     7
100
AcDbLine
 10
443.588007
 20
156.14339
 30
0.0
 11
441.790474
 21
156.237595
 31
0.0
  0
LINE
  5
241
330
1F
100
AcDbEntity
  8
GR1-1
  6
CONTINUOUS
 62
     7
100
AcDbLine
 10
449.569317
 20
155.629649
 30
0.0
 11
447.572058
 21
155.734321
 31
0.0
  0
LINE
  5
242
330
1F
100
AcDbEntity
  8
GR1-1
  6
CONTINUOUS
 62
     7
100
AcDbLine
 10
446.573428
 20
155.786657
 30
0.0
 11
445.817107
 21
155.826294
 31
0.0
  0
LINE
  5
243
330
1F
100
AcDbEntity
  8
GR1-1
  6
CONTINUOUS
 62
     7
100
AcDbLine
 10
445.332491
 20
155.851691
 30
0.0
 11
444.576169
 21
155.891329
 31
0.0
  0
LINE
  5
244
330
1F
100
AcDbEntity
  8
GR1-1
  6
CONTINUOUS
 62
     7
100
AcDbLine
 10
443.57754
 20
155.943664
 30
0.0
 11
441.580281
 21
156.048336
 31
0.0
  0
LINE
  5
245
330
1F
100
AcDbEntity
  8
GR1-1
  6
CONTINUOUS
 62
     7
100
AcDbLine
 10
449.758576
 20
155.419456
 30
0.0
 11
447.561591
 21
155.534595
 31
0.0
  0
LINE
  5
246
330
1F
100
AcDbEntity
  8
GR1-1
  6
CONTINUOUS
 62
     7
100
AcDbLine
 10
446.562961
 20
155.586931
 30
0.0
 11
445.606914
 21
155.637035
 31
0.0
  0
LINE
  5
247
330
1F
100
AcDbEntity
  8
GR1-1
  6
CONTINUOUS
 62
     7
100
AcDbLine
 10
445.52175
 20
155.641498
 30
0.0
 11
444.565702
 21
155.691603
 31
0.0
  0
LINE
  5
248
330
1F
100
AcDbEntity
  8
GR1-1
  6
CONTINUOUS
 62
     7
100
AcDbLine
 10
443.567073
 20
155.743939
 30
0.0
 11
441.370088
 21
155.859078
 31
0.0
  0
LINE
  5
249
330
1F
100
AcDbEntity
  8
GR1-1
  6
CONTINUOUS
 62
     7
100
AcDbLine
 10
449.633547
 20
155.225734
 30
0.0
 11
447.551124
 21
155.334869
 31
0.0
  0
LINE
  5
24A
330
1F
100
AcDbEntity
  8
GR1-1
  6
CONTINUOUS
 62
     7
100
AcDbLine
 10
446.552494
 20
155.387205
 30
0.0
 11
444.555235
 21
155.491877
 31
0.0
  0
LINE
  5
24B
330
1F
100
AcDbEntity
  8
GR1-1
  6
CONTINUOUS
 62
     7
100
AcDbLine
 10
443.556605
 20
155.544213
 30
0.0
 11
441.474182
 21
155.653348
 31
0.0
  0
LINE
  5
24C
330
1F
100
AcDbEntity
  8
GR1-1
  6
CONTINUOUS
 62
     7
100
AcDbLine
 10
449.423354
 20
155.036475
 30
0.0
 11
447.540656
 21
155.135143
 31
0.0
  0
LINE
  5
24D
330
1F
100
AcDbEntity
  8
GR1-1
  6
CONTINUOUS
 62
     7
100
AcDbLine
 10
446.542027
 20
155.187479
 30
0.0
 11
444.544768
 21
155.292151
 31
0.0
  0
LINE
  5
24E
330
1F
100
AcDbEntity
  8
GR1-1
  6
CONTINUOUS
 62
     7
100
AcDbLine
 10
443.546138
 20
155.344487
 30
0.0
 11
441.663441
 21
155.443155
 31
0.0
  0
LINE
  5
24F
330
1F
100
AcDbEntity
  8
GR1-1
  6
CONTINUOUS
 62
     7
100
AcDbLine
 10
449.213161
 20
154.847216
 30
0.0
 11
447.530189
 21
154.935417
 31
0.0
  0
LINE
  5
250
330
1F
100
AcDbEntity
  8
GR1-1
  6
CONTINUOUS
 62
     7
100
AcDbLine
 10
446.53156
 20
154.987753
 30
0.0
 11
444.534301
 21
155.092425
 31
0.0
  0
LINE
  5
251
330
1F
100
AcDbEntity
  8
GR1-1
  6
CONTINUOUS
 62
     7
100
AcDbLine
 10
443.535671
 20
155.144761
 30
0.0
 11
441.852699
 21
155.232962
 31
0.0
  0
LINE
  5
252
330
1F
100
AcDbEntity
  8
GR1-1
  6
CONTINUOUS
 62
     7
100
AcDbLine
 10
449.002968
 20
154.657958
 30
0.0
 11
447.519722
 21
154.735691
 31
0.0
  0
LINE
  5
253
330
1F
100
AcDbEntity
  8
GR1-1
  6
CONTINUOUS
 62
     7
100
AcDbLine
 10
446.521093
 20
154.788027
 30
0.0
 11
444.523833
 21
154.892699
 31
0.0
  0
LINE
  5
254
330
1F
100
AcDbEntity
  8
GR1-1
  6
CONTINUOUS
 62
     7
100
AcDbLine
 10
443.525204
 20
154.945035
 30
0.0
 11
442.041958
 21
155.022769
 31
0.0
  0
LINE
  5
255
330
1F
100
AcDbEntity
  8
GR1-1
  6
CONTINUOUS
 62
     7
100
AcDbLine
 10
448.792775
 20
154.468699
 30
0.0
 11
447.509255
 21
154.535965
 31
0.0
  0
LINE
  5
256
330
1F
100
AcDbEntity
  8
GR1-1
  6
CONTINUOUS
 62
     7
100
AcDbLine
 10
446.510625
 20
154.588301
 30
0.0
 11
444.513366
 21
154.692973
 31
0.0
  0
LINE
  5
257
330
1F
100
AcDbEntity
  8
GR1-1
  6
CONTINUOUS
 62
     7
100
AcDbLine
 10
443.514737
 20
154.745309
 30
0.0
 11
442.231217
 21
154.812575
 31
0.0
  0
LINE
  5
258
330
1F
100
AcDbEntity
  8
GR1-1
  6
CONTINUOUS
 62
     7
100
AcDbLine
 10
448.582582
 20
154.27944
 30
0.0
 11
447.498788
 21
154.336239
 31
0.0
  0
LINE
  5
259
330
1F
100
AcDbEntity
  8
GR1-1
  6
CONTINUOUS
 62
     7
100
AcDbLine
 10
443.50427
 20
154.545583
 30
0.0
 11
442.420476
 21
154.602382
 31
0.0
  0
LINE
  5
25A
330
1F
100
AcDbEntity
  8
GR1-1
  6
CONTINUOUS
 62
     7
100
AcDbLine
 10
448.372389
 20
154.090181
 30
0.0
 11
447.48832
 21
154.136513
 31
0.0
  0
LINE
  5
25B
330
1F
100
AcDbEntity
  8
GR1-1
  6
CONTINUOUS
 62
     7
100
AcDbLine
 10
443.493802
 20
154.345857
 30
0.0
 11
442.609734
 21
154.392189
 31
0.0
  0
LINE
  5
25C
330
1F
100
AcDbEntity
  8
GR1-1
  6
CONTINUOUS
 62
     7
100
AcDbLine
 10
448.162196
 20
153.900923
 30
0.0
 11
447.477853
 21
153.936787
 31
0.0
  0
LINE
  5
25D
330
1F
100
AcDbEntity
  8
GR1-1
  6
CONTINUOUS
 62
     7
100
AcDbLine
 10
443.483335
 20
154.146131
 30
0.0
 11
442.798993
 21
154.181996
 31
0.0
  0
LINE
  5
25E
330
1F
100
AcDbEntity
  8
GR1-1
  6
CONTINUOUS
 62
     7
100
AcDbLine
 10
447.952002
 20
153.711664
 30
0.0
 11
447.467386
 21
153.737062
 31
0.0
  0
LINE
  5
25F
330
1F
100
AcDbEntity
  8
GR1-1
  6
CONTINUOUS
 62
     7
100
AcDbLine
 10
443.472868
 20
153.946405
 30
0.0
 11
442.988252
 21
153.971803
 31
0.0
  0
LINE
  5
260
330
1F
100
AcDbEntity
  8
GR1-1
  6
CONTINUOUS
 62
     7
100
AcDbLine
 10
447.741809
 20
153.522405
 30
0.0
 11
447.456919
 21
153.537336
 31
0.0
  0
LINE
  5
261
330
1F
100
AcDbEntity
  8
GR1-1
  6
CONTINUOUS
 62
     7
100
AcDbLine
 10
443.462401
 20
153.74668
 30
0.0
 11
443.17751
 21
153.76161
 31
0.0
  0
LINE
  5
262
330
1F
100
AcDbEntity
  8
GR1-1
  6
CONTINUOUS
 62
     7
100
AcDbLine
 10
447.531616
 20
153.333146
 30
0.0
 11
443.366769
 21
153.551417
 31
0.0
  0
LINE
  5
263
330
1F
100
AcDbEntity
  8
GR1-1
  6
CONTINUOUS
 62
     7
100
AcDbLine
 10
447.321423
 20
153.143888
 30
0.0
 11
443.556028
 21
153.341224
 31
0.0
  0
LINE
  5
264
330
1F
100
AcDbEntity
  8
GR1-1
  6
CONTINUOUS
 62
     7
100
AcDbLine
 10
447.11123
 20
152.954629
 30
0.0
 11
443.745287
 21
153.131031
 31
0.0
  0
LINE
  5
265
330
1F
100
AcDbEntity
  8
GR1-1
  6
CONTINUOUS
 62
     7
100
AcDbLine
 10
446.901037
 20
152.76537
 30
0.0
 11
443.934545
 21
152.920838
 31
0.0
  0
LINE
  5
266
330
1F
100
AcDbEntity
  8
GR1-1
  6
CONTINUOUS
 62
     7
100
AcDbLine
 10
446.690844
 20
152.576112
 30
0.0
 11
444.123804
 21
152.710644
 31
0.0
  0
LINE
  5
267
330
1F
100
AcDbEntity
  8
GR1-1
  6
CONTINUOUS
 62
     7
100
AcDbLine
 10
446.480651
 20
152.386853
 30
0.0
 11
444.313063
 21
152.500451
 31
0.0
  0
LINE
  5
268
330
1F
100
AcDbEntity
  8
GR1-1
  6
CONTINUOUS
 62
     7
100
AcDbLine
 10
446.270458
 20
152.197594
 30
0.0
 11
444.502321
 21
152.290258
 31
0.0
  0
LINE
  5
269
330
1F
100
AcDbEntity
  8
GR1-1
  6
CONTINUOUS
 62
     7
100
AcDbLine
 10
446.060265
 20
152.008335
 30
0.0
 11
444.69158
 21
152.080065
 31
0.0
  0
LINE
  5
26A
330
1F
100
AcDbEntity
  8
GR1-1
  6
CONTINUOUS
 62
     7
100
AcDbLine
 10
445.850071
 20
151.819077
 30
0.0
 11
444.880839
 21
151.869872
 31
0.0
  0
LINE
  5
26B
330
1F
100
AcDbEntity
  8
GR1-1
  6
CONTINUOUS
 62
     7
100
AcDbLine
 10
445.639878
 20
151.629818
 30
0.0
 11
445.070098
 21
151.659679
 31
0.0
  0
LINE
  5
26C
330
1F
100
AcDbEntity
  8
GR1-1
  6
CONTINUOUS
 62
     7
100
AcDbLine
 10
445.429685
 20
151.440559
 30
0.0
 11
445.259356
 21
151.449486
 31
0.0
  0
LINE
  5
26D
330
1F
100
AcDbEntity
  8
LAYERGROUP-1
  6
CONTINUOUS
 62
     3
100
AcDbLine
 10
298.326432
 20
230.09387
 30
0.0
 11
297.326432
 21
234.688779
 31
0.0
  0
LINE
  5
26E
330
1F
100
AcDbEntity
  8
LAYERGROUP-1
  6
CONTINUOUS
 62
     3
100
AcDbLine
 10
300.826432
 20
214.59387
 30
0.0
 11
298.326432
 21
214.59387
 31
0.0
  0
LINE
  5
26F
330
1F
100
AcDbEntity
  8
LAYERGROUP-1
  6
CONTINUOUS
 62
     3
100
AcDbLine
 10
301.326432
 20
214.09387
 30
0.0
 11
300.826432
 21
214.59387
 31
0.0
  0
LINE
  5
270
330
1F
100
AcDbEntity
  8
LAYERGROUP-1
  6
CONTINUOUS
 62
     3
100
AcDbLine
 10
297.326432
 20
260.093589
 30
0.0
 11
297.326432
 21
140.09415
 31
0.0
  0
LINE
  5
271
330
1F
100
AcDbEntity
  8
}}ﾊﾊGG血CCТ
  6
CONTINUOUS
 62
     3
100
AcDbLine
 10
301.326432
 20
214.09387
 30
0.0
 11
301.326432
 21
186.09387
 31
0.0
  0
LINE
  5
272
330
1F
100
AcDbEntity
  8
}}ﾊﾊGG血CCТ
  6
CONTINUOUS
 62
     3
100
AcDbLine
 10
298.326432
 20
230.09387
 30
0.0
 11
298.326432
 21
170.09387
 31
0.0
  0
LINE
  5
273
330
1F
100
AcDbEntity
  8
GR1-1
  6
CONTINUOUS
 62
     6
100
AcDbLine
 10
289.826432
 20
271.816689
 30
0.0
 11
289.826432
 21
128.37105
 31
0.0
  0
LINE
  5
274
330
1F
100
AcDbEntity
  8
GR1-1
  6
CONTINUOUS
 62
     6
100
AcDbLine
 10
300.826432
 20
214.59387
 30
0.0
 11
300.826432
 21
185.59387
 31
0.0
  0
LINE
  5
275
330
1F
100
AcDbEntity
  8
GR1-1
  6
CONTINUOUS
 62
     3
100
AcDbLine
 10
302.826432
 20
210.09387
 30
0.0
 11
301.326432
 21
210.09387
 31
0.0
  0
LINE
  5
276
330
1F
100
AcDbEntity
  8
LAYERGROUP-1
  6
CONTINUOUS
 62
     3
100
AcDbLine
 10
251.326432
 20
230.09387
 30
0.0
 11
252.326432
 21
234.688779
 31
0.0
  0
LINE
  5
277
330
1F
100
AcDbEntity
  8
LAYERGROUP-1
  6
CONTINUOUS
 62
     3
100
AcDbLine
 10
248.826432
 20
214.59387
 30
0.0
 11
251.326432
 21
214.59387
 31
0.0
  0
LINE
  5
278
330
1F
100
AcDbEntity
  8
LAYERGROUP-1
  6
CONTINUOUS
 62
     3
100
AcDbLine
 10
248.326432
 20
214.09387
 30
0.0
 11
248.826432
 21
214.59387
 31
0.0
  0
LINE
  5
279
330
1F
100
AcDbEntity
  8
LAYERGROUP-1
  6
CONTINUOUS
 62
     3
100
AcDbLine
 10
252.326432
 20
260.093589
 30
0.0
 11
252.326432
 21
140.09415
 31
0.0
  0
LINE
  5
27A
330
1F
100
AcDbEntity
  8
}}ﾊﾊGG血CCТ
  6
CONTINUOUS
 62
     3
100
AcDbLine
 10
248.326432
 20
214.09387
 30
0.0
 11
248.326432
 21
186.09387
 31
0.0
  0
LINE
  5
27B
330
1F
100
AcDbEntity
  8
}}ﾊﾊGG血CCТ
  6
CONTINUOUS
 62
     3
100
AcDbLine
 10
251.326432
 20
230.09387
 30
0.0
 11
251.326432
 21
170.09387
 31
0.0
  0
LINE
  5
27C
330
1F
100
AcDbEntity
  8
GR1-1
  6
CONTINUOUS
 62
     6
100
AcDbLine
 10
259.826432
 20
271.816689
 30
0.0
 11
259.826432
 21
128.37105
 31
0.0
  0
LINE
  5
27D
330
1F
100
AcDbEntity
  8
GR1-1
  6
CONTINUOUS
 62
     6
100
AcDbLine
 10
248.826432
 20
214.59387
 30
0.0
 11
248.826432
 21
185.59387
 31
0.0
  0
LINE
  5
27E
330
1F
100
AcDbEntity
  8
GR1-1
  6
CONTINUOUS
 62
     3
100
AcDbLine
 10
246.826432
 20
210.09387
 30
0.0
 11
248.326432
 21
210.09387
 31
0.0
  0
LINE
  5
27F
330
1F
100
AcDbEntity
  8
LAYERGROUP-1
  6
CONTINUOUS
 62
     3
100
AcDbLine
 10
298.326432
 20
170.09387
 30
0.0
 11
297.326432
 21
165.49896
 31
0.0
  0
LINE
  5
280
330
1F
100
AcDbEntity
  8
LAYERGROUP-1
  6
CONTINUOUS
 62
     3
100
AcDbLine
 10
300.826432
 20
185.59387
 30
0.0
 11
298.326432
 21
185.59387
 31
0.0
  0
LINE
  5
281
330
1F
100
AcDbEntity
  8
LAYERGROUP-1
  6
CONTINUOUS
 62
     3
100
AcDbLine
 10
301.326432
 20
186.09387
 30
0.0
 11
300.826432
 21
185.59387
 31
0.0
  0
LINE
  5
283
330
1F
100
AcDbEntity
  8
0-1
  6
CONTINUOUS
 62
     3
100
AcDbLine
 10
291.935369
 20
130.756555
 30
0.0
 11
297.326432
 21
140.09415
 31
0.0
  0
ARC
  5
284
330
1F
100
AcDbEntity
  8
LAYERGROUP-1
  6
CONTINUOUS
 62
     3
100
AcDbCircle
 10
285.007166
 20
134.756555
 30
0.0
 40
8.0
100
AcDbArc
 50
288.550957
 51
330.0
  0
LINE
  5
285
330
1F
100
AcDbEntity
  8
}}ﾊﾊGG血CCТ
  6
CONTINUOUS
 62
     3
100
AcDbLine
 10
297.326432
 20
140.19415
 30
0.0
 11
297.326432
 21
140.09415
 31
0.0
  0
LINE
  5
286
330
1F
100
AcDbEntity
  8
GR1-1
  6
CONTINUOUS
 62
     3
100
AcDbLine
 10
302.826432
 20
190.09387
 30
0.0
 11
301.326432
 21
190.09387
 31
0.0
  0
LINE
  5
287
330
1F
100
AcDbEntity
  8
LAYERGROUP-1
  6
CONTINUOUS
 62
     3
100
AcDbLine
 10
251.326432
 20
170.09387
 30
0.0
 11
252.326432
 21
165.49896
 31
0.0
  0
LINE
  5
288
330
1F
100
AcDbEntity
  8
LAYERGROUP-1
  6
CONTINUOUS
 62
     3
100
AcDbLine
 10
248.826432
 20
185.59387
 30
0.0
 11
251.326432
 21
185.59387
 31
0.0
  0
LINE
  5
289
330
1F
100
AcDbEntity
  8
LAYERGROUP-1
  6
CONTINUOUS
 62
     3
100
AcDbLine
 10
248.326432
 20
186.09387
 30
0.0
 11
248.826432
 21
185.59387
 31
0.0
  0
LINE
  5
28A
330
1F
100
AcDbEntity
  8
0-1
  6
CONTINUOUS
 62
     3
100
AcDbLine
 10
257.717495
 20
130.756555
 30
0.0
 11
252.326432
 21
140.09415
 31
0.0
  0
ARC
  5
28B
330
1F
100
AcDbEntity
  8
LAYERGROUP-1
  6
CONTINUOUS
 62
     3
100
AcDbCircle
 10
264.645698
 20
134.756555
 30
0.0
 40
8.0
100
AcDbArc
 50
210.0
 51
251.449043
  0
LINE
  5
28C
330
1F
100
AcDbEntity
  8
}}ﾊﾊGG血CCТ
  6
CONTINUOUS
 62
     3
100
AcDbLine
 10
252.326432
 20
140.19415
 30
0.0
 11
252.326432
 21
140.09415
 31
0.0
  0
LINE
  5
28D
330
1F
100
AcDbEntity
  8
GR1-1
  6
CONTINUOUS
 62
     3
100
AcDbLine
 10
246.826432
 20
190.09387
 30
0.0
 11
248.326432
 21
190.09387
 31
0.0
  0
ARC
  5
28E
330
1F
100
AcDbEntity
  8
0-1
  6
CONTINUOUS
 62
     3
100
AcDbCircle
 10
274.826432
 20
165.09387
 30
0.0
 40
40.0
100
AcDbArc
 50
251.449043
 51
288.550957
  0
LINE
  5
28F
330
1F
100
AcDbEntity
  8
0-1
  6
CONTINUOUS
 62
     3
100
AcDbLine
 10
291.935369
 20
269.431184
 30
0.0
 11
297.326432
 21
260.093589
 31
0.0
  0
ARC
  5
290
330
1F
100
AcDbEntity
  8
LAYERGROUP-1
  6
CONTINUOUS
 62
     3
100
AcDbCircle
 10
285.007166
 20
265.431184
 30
0.0
 40
8.0
100
AcDbArc
 50
30.0
 51
71.449043
  0
LINE
  5
291
330
1F
100
AcDbEntity
  8
}}ﾊﾊGG血CCТ
  6
CONTINUOUS
 62
     3
100
AcDbLine
 10
297.326432
 20
259.99359
 30
0.0
 11
297.326432
 21
260.093589
 31
0.0
  0
LINE
  5
292
330
1F
100
AcDbEntity
  8
0-1
  6
CONTINUOUS
 62
     3
100
AcDbLine
 10
257.717495
 20
269.431184
 30
0.0
 11
252.326432
 21
260.093589
 31
0.0
  0
ARC
  5
293
330
1F
100
AcDbEntity
  8
LAYERGROUP-1
  6
CONTINUOUS
 62
     3
100
AcDbCircle
 10
264.645698
 20
265.431184
 30
0.0
 40
8.0
100
AcDbArc
 50
108.550957
 51
150.0
  0
LINE
  5
294
330
1F
100
AcDbEntity
  8
}}ﾊﾊGG血CCТ
  6
CONTINUOUS
 62
     3
100
AcDbLine
 10
252.326432
 20
259.99359
 30
0.0
 11
252.326432
 21
260.093589
 31
0.0
  0
ARC
  5
295
330
1F
100
AcDbEntity
  8
0-1
  6
CONTINUOUS
 62
     3
100
AcDbCircle
 10
274.826432
 20
235.09387
 30
0.0
 40
40.0
100
AcDbArc
 50
71.449043
 51
108.550957
  0
LINE
  5
296
330
1F
100
AcDbEntity
  8
GR1-1
  6
CONTINUOUS
 62
     6
100
AcDbLine
 10
425.981231
 20
449.649425
 30
0.0
 11
423.258411
 21
449.649425
 31
0.0
  0
LINE
  5
297
330
1F
100
AcDbEntity
  8
GR1-1
  6
CONTINUOUS
 62
     6
100
AcDbLine
 10
425.981231
 20
479.649425
 30
0.0
 11
423.258411
 21
479.649425
 31
0.0
  0
LINE
  5
298
330
1F
100
AcDbEntity
  8
0-1
  6
CONTINUOUS
 62
     3
100
AcDbLine
 10
425.643916
 20
447.540488
 30
0.0
 11
425.981231
 21
447.345739
 31
0.0
  0
ARC
  5
299
330
1F
100
AcDbEntity
  8
LAYERGROUP-1
  6
CONTINUOUS
 62
     3
100
AcDbCircle
 10
429.643916
 20
454.468691
 30
0.0
 40
8.0
100
AcDbArc
 50
198.550957
 51
240.0
  0
LINE
  5
29A
330
1F
100
AcDbEntity
  8
0-1
  6
CONTINUOUS
 62
     3
100
AcDbLine
 10
425.643916
 20
481.758362
 30
0.0
 11
425.981231
 21
481.953111
 31
0.0
  0
ARC
  5
29B
330
1F
100
AcDbEntity
  8
LAYERGROUP-1
  6
CONTINUOUS
 62
     3
100
AcDbCircle
 10
429.643916
 20
474.830159
 30
0.0
 40
8.0
100
AcDbArc
 50
120.0
 51
161.449043
  0
ARC
  5
29C
330
1F
100
AcDbEntity
  8
0-1
  6
CONTINUOUS
 62
     3
100
AcDbCircle
 10
459.981231
 20
464.649425
 30
0.0
 40
40.0
100
AcDbArc
 50
161.449043
 51
198.550957
  0
LINE
  5
29D
330
1F
100
AcDbEntity
  8
GR1-1
  6
CONTINUOUS
 62
     6
100
AcDbLine
 10
563.981231
 20
449.649425
 30
0.0
 11
566.704051
 21
449.649425
 31
0.0
  0
LINE
  5
29E
330
1F
100
AcDbEntity
  8
GR1-1
  6
CONTINUOUS
 62
     6
100
AcDbLine
 10
563.981231
 20
479.649425
 30
0.0
 11
566.704051
 21
479.649425
 31
0.0
  0
LINE
  5
29F
330
1F
100
AcDbEntity
  8
0-1
  6
CONTINUOUS
 62
     3
100
AcDbLine
 10
564.318546
 20
447.540488
 30
0.0
 11
563.981231
 21
447.345739
 31
0.0
  0
ARC
  5
2A0
330
1F
100
AcDbEntity
  8
LAYERGROUP-1
  6
CONTINUOUS
 62
     3
100
AcDbCircle
 10
560.318546
 20
454.468691
 30
0.0
 40
8.0
100
AcDbArc
 50
300.0
 51
341.449043
  0
LINE
  5
2A1
330
1F
100
AcDbEntity
  8
0-1
  6
CONTINUOUS
 62
     3
100
AcDbLine
 10
564.318546
 20
481.758362
 30
0.0
 11
563.981231
 21
481.953111
 31
0.0
  0
ARC
  5
2A2
330
1F
100
AcDbEntity
  8
LAYERGROUP-1
  6
CONTINUOUS
 62
     3
100
AcDbCircle
 10
560.318546
 20
474.830159
 30
0.0
 40
8.0
100
AcDbArc
 50
18.550957
 51
60.0
  0
ARC
  5
2A3
330
1F
100
AcDbEntity
  8
0-1
  6
CONTINUOUS
 62
     3
100
AcDbCircle
 10
529.981231
 20
464.649425
 30
0.0
 40
40.0
100
AcDbArc
 50
-18.550957
 51
18.550957
  0
LINE
  5
2A4
330
1F
100
AcDbEntity
  8
}}ﾊﾊGG血CCТ
  6
CONTINUOUS
 62
     7
100
AcDbLine
 10
20.0
 20
20.0
 30
0.0
 11
821.0
 21
20.0
 31
0.0
  0
LINE
  5
2A5
330
1F
100
AcDbEntity
  8
}}ﾊﾊGG血CCТ
  6
CONTINUOUS
 62
     7
100
AcDbLine
 10
20.0
 20
20.0
 30
0.0
 11
20.0
 21
574.0
 31
0.0
  0
LINE
  5
2A6
330
1F
100
AcDbEntity
  8
}}ﾊﾊGG血CCТ
  6
CONTINUOUS
 62
     7
100
AcDbLine
 10
20.0
 20
574.0
 30
0.0
 11
821.0
 21
574.0
 31
0.0
  0
LINE
  5
2A7
330
1F
100
AcDbEntity
  8
}}ﾊﾊGG血CCТ
  6
CONTINUOUS
 62
     7
100
AcDbLine
 10
821.0
 20
574.0
 30
0.0
 11
821.0
 21
20.0
 31
0.0
  0
LINE
  5
2A8
330
1F
100
AcDbEntity
  8
}}ﾊﾊGG血CCТ
  6
CONTINUOUS
 62
     7
100
AcDbLine
 10
564.0
 20
20.0
 30
0.0
 11
564.0
 21
30.0
 31
0.0
  0
TEXT
  5
2A9
330
1F
100
AcDbEntity
  8
}}ﾊﾊGG血CCТ
  6
CONTINUOUS
 62
     7
100
AcDbText
 10
548.738831
 20
21.596878
 30
0.0
 40
6.648749
  1
品名
 41
1.083413
  7
FX_VECTOR
 72
     5
 11
560.058371
 21
21.596878
 31
0.0
100
AcDbText
  0
LINE
  5
2AA
330
1F
100
AcDbEntity
  8
}}ﾊﾊGG血CCТ
  6
CONTINUOUS
 62
     7
100
AcDbLine
 10
644.0
 20
30.0
 30
0.0
 11
644.0
 21
20.0
 31
0.0
  0
LINE
  5
2AB
330
1F
100
AcDbEntity
  8
}}ﾊﾊGG血CCТ
  6
CONTINUOUS
 62
     7
100
AcDbLine
 10
544.0
 20
30.0
 30
0.0
 11
821.0
 21
30.0
 31
0.0
  0
TEXT
  5
2AC
330
1F
100
AcDbEntity
  8
}}ﾊﾊGG血CCТ
  6
CONTINUOUS
 62
     7
100
AcDbText
 10
760.225769
 20
21.461285
 30
0.0
 40
7.170908
  1
GOLD CASTER
 41
0.63978
  7
FX_VECTOR
 72
     5
 11
806.977636
 21
21.461285
 31
0.0
100
AcDbText
  0
LINE
  5
2AD
330
1F
100
AcDbEntity
  8
}}ﾊﾊGG血CCТ
  6
CONTINUOUS
 62
     7
100
AcDbLine
 10
664.0
 20
20.0
 30
0.0
 11
664.0
 21
30.0
 31
0.0
  0
TEXT
  5
2AE
330
1F
100
AcDbEntity
  8
}}ﾊﾊGG血CCТ
  6
CONTINUOUS
 62
     7
100
AcDbText
 10
648.738831
 20
21.596878
 30
0.0
 40
6.648749
  1
図番
 41
1.083413
  7
FX_VECTOR
 72
     5
 11
660.058371
 21
21.596878
 31
0.0
100
AcDbText
  0
LINE
  5
2AF
330
1F
100
AcDbEntity
  8
}}ﾊﾊGG血CCТ
  6
CONTINUOUS
 62
     7
100
AcDbLine
 10
744.0
 20
30.0
 30
0.0
 11
744.0
 21
20.0
 31
0.0
  0
LINE
  5
2B0
330
1F
100
AcDbEntity
  8
}}ﾊﾊGG血CCТ
  6
CONTINUOUS
 62
     7
100
AcDbLine
 10
544.0
 20
30.0
 30
0.0
 11
544.0
 21
20.0
 31
0.0
  0
LINE
  5
2B1
330
1F
100
AcDbEntity
  8
0-1
  6
CONTINUOUS
 62
     7
100
AcDbLine
 10
755.8019
 20
27.913462
 30
0.0
 11
749.8019
 21
27.913462
 31
0.0
  0
LINE
  5
2B2
330
1F
100
AcDbEntity
  8
0-1
  6
CONTINUOUS
 62
     7
100
AcDbLine
 10
749.8019
 20
27.913462
 30
0.0
 11
749.8019
 21
21.913462
 31
0.0
  0
LINE
  5
2B3
330
1F
100
AcDbEntity
  8
0-1
  6
CONTINUOUS
 62
     7
100
AcDbLine
 10
749.8019
 20
21.913462
 30
0.0
 11
755.8019
 21
21.913462
 31
0.0
  0
LINE
  5
2B4
330
1F
100
AcDbEntity
  8
0-1
  6
CONTINUOUS
 62
     7
100
AcDbLine
 10
755.8019
 20
21.913462
 30
0.0
 11
755.8019
 21
27.913462
 31
0.0
  0
LINE
  5
2B5
330
1F
100
AcDbEntity
  8
0-1
  6
CONTINUOUS
 62
     7
100
AcDbLine
 10
755.224977
 20
25.346154
 30
0.0
 11
752.8019
 21
27.769231
 31
0.0
  0
LINE
  5
2B6
330
1F
100
AcDbEntity
  8
0-1
  6
CONTINUOUS
 62
     7
100
AcDbLine
 10
752.8019
 20
27.769231
 30
0.0
 11
749.946131
 21
24.913462
 31
0.0
  0
LINE
  5
2B7
330
1F
100
AcDbEntity
  8
0-1
  6
CONTINUOUS
 62
     7
100
AcDbLine
 10
749.946131
 20
24.913462
 30
0.0
 11
752.8019
 21
22.057692
 31
0.0
  0
LINE
  5
2B8
330
1F
100
AcDbEntity
  8
0-1
  6
CONTINUOUS
 62
     7
100
AcDbLine
 10
752.8019
 20
22.057692
 30
0.0
 11
754.359592
 21
23.615385
 31
0.0
  0
LINE
  5
2B9
330
1F
100
AcDbEntity
  8
0-1
  6
CONTINUOUS
 62
     7
100
AcDbLine
 10
754.359592
 20
23.615385
 30
0.0
 11
754.359592
 21
22.980769
 31
0.0
  0
LINE
  5
2BA
330
1F
100
AcDbEntity
  8
0-1
  6
CONTINUOUS
 62
     7
100
AcDbLine
 10
754.359592
 20
22.980769
 30
0.0
 11
755.224977
 21
22.980769
 31
0.0
  0
LINE
  5
2BB
330
1F
100
AcDbEntity
  8
0-1
  6
CONTINUOUS
 62
     7
100
AcDbLine
 10
755.224977
 20
22.980769
 30
0.0
 11
755.224977
 21
25.0
 31
0.0
  0
LINE
  5
2BC
330
1F
100
AcDbEntity
  8
0-1
  6
CONTINUOUS
 62
     7
100
AcDbLine
 10
755.224977
 20
25.0
 30
0.0
 11
752.8019
 21
25.0
 31
0.0
  0
LINE
  5
2BD
330
1F
100
AcDbEntity
  8
0-1
  6
CONTINUOUS
 62
     7
100
AcDbLine
 10
752.8019
 20
25.0
 30
0.0
 11
752.8019
 21
24.134615
 31
0.0
  0
LINE
  5
2BE
330
1F
100
AcDbEntity
  8
0-1
  6
CONTINUOUS
 62
     7
100
AcDbLine
 10
752.8019
 20
24.134615
 30
0.0
 11
753.246131
 21
24.134615
 31
0.0
  0
LINE
  5
2BF
330
1F
100
AcDbEntity
  8
0-1
  6
CONTINUOUS
 62
     7
100
AcDbLine
 10
753.246131
 20
24.134615
 30
0.0
 11
752.8019
 21
23.690385
 31
0.0
  0
LINE
  5
2C0
330
1F
100
AcDbEntity
  8
0-1
  6
CONTINUOUS
 62
     7
100
AcDbLine
 10
752.8019
 20
23.690385
 30
0.0
 11
751.578823
 21
24.913462
 31
0.0
  0
LINE
  5
2C1
330
1F
100
AcDbEntity
  8
0-1
  6
CONTINUOUS
 62
     7
100
AcDbLine
 10
751.578823
 20
24.913462
 30
0.0
 11
752.8019
 21
26.136538
 31
0.0
  0
LINE
  5
2C2
330
1F
100
AcDbEntity
  8
0-1
  6
CONTINUOUS
 62
     7
100
AcDbLine
 10
752.8019
 20
26.136538
 30
0.0
 11
753.592284
 21
25.346154
 31
0.0
  0
LINE
  5
2C3
330
1F
100
AcDbEntity
  8
0-1
  6
CONTINUOUS
 62
     7
100
AcDbLine
 10
753.592284
 20
25.346154
 30
0.0
 11
755.224977
 21
25.346154
 31
0.0
  0
LINE
  5
2C4
330
1F
100
AcDbEntity
  8
GR1-1
  6
CONTINUOUS
 62
     7
100
AcDbLine
 10
750.72238
 20
21.913462
 30
0.0
 11
751.834255
 21
23.025337
 31
0.0
  0
LINE
  5
2C5
330
1F
100
AcDbEntity
  8
GR1-1
  6
CONTINUOUS
 62
     7
100
AcDbLine
 10
752.650601
 20
23.841683
 30
0.0
 11
752.943534
 21
24.134615
 31
0.0
  0
LINE
  5
2C6
330
1F
100
AcDbEntity
  8
GR1-1
  6
CONTINUOUS
 62
     7
100
AcDbLine
 10
753.808918
 20
25.0
 30
0.0
 11
754.155072
 21
25.346154
 31
0.0
  0
LINE
  5
2C7
330
1F
100
AcDbEntity
  8
GR1-1
  6
CONTINUOUS
 62
     7
100
AcDbLine
 10
754.690024
 20
25.881106
 30
0.0
 11
755.8019
 21
26.992981
 31
0.0
  0
LINE
  5
2C8
330
1F
100
AcDbEntity
  8
GR1-1
  6
CONTINUOUS
 62
     7
100
AcDbLine
 10
750.651669
 20
21.913462
 30
0.0
 11
751.7989
 21
23.060692
 31
0.0
  0
LINE
  5
2C9
330
1F
100
AcDbEntity
  8
GR1-1
  6
CONTINUOUS
 62
     7
100
AcDbLine
 10
752.615246
 20
23.877038
 30
0.0
 11
752.872823
 21
24.134615
 31
0.0
  0
LINE
  5
2CA
330
1F
100
AcDbEntity
  8
GR1-1
  6
CONTINUOUS
 62
     7
100
AcDbLine
 10
753.738208
 20
25.0
 30
0.0
 11
754.084362
 21
25.346154
 31
0.0
  0
LINE
  5
2CB
330
1F
100
AcDbEntity
  8
GR1-1
  6
CONTINUOUS
 62
     7
100
AcDbLine
 10
754.654669
 20
25.916461
 30
0.0
 11
755.8019
 21
27.063692
 31
0.0
  0
LINE
  5
2CC
330
1F
100
AcDbEntity
  8
GR1-1
  6
CONTINUOUS
 62
     7
100
AcDbLine
 10
750.580959
 20
21.913462
 30
0.0
 11
751.763545
 21
23.096047
 31
0.0
  0
LINE
  5
2CD
330
1F
100
AcDbEntity
  8
GR1-1
  6
CONTINUOUS
 62
     7
100
AcDbLine
 10
752.579891
 20
23.912394
 30
0.0
 11
752.802112
 21
24.134615
 31
0.0
  0
LINE
  5
2CE
330
1F
100
AcDbEntity
  8
GR1-1
  6
CONTINUOUS
 62
     7
100
AcDbLine
 10
753.667497
 20
25.0
 30
0.0
 11
754.013651
 21
25.346154
 31
0.0
  0
LINE
  5
2CF
330
1F
100
AcDbEntity
  8
GR1-1
  6
CONTINUOUS
 62
     7
100
AcDbLine
 10
754.619314
 20
25.951817
 30
0.0
 11
755.8019
 21
27.134403
 31
0.0
  0
LINE
  5
2D0
330
1F
100
AcDbEntity
  8
GR1-1
  6
CONTINUOUS
 62
     7
100
AcDbLine
 10
750.510248
 20
21.913462
 30
0.0
 11
751.728189
 21
23.131403
 31
0.0
  0
LINE
  5
2D1
330
1F
100
AcDbEntity
  8
GR1-1
  6
CONTINUOUS
 62
     7
100
AcDbLine
 10
752.544535
 20
23.947749
 30
0.0
 11
752.8019
 21
24.205113
 31
0.0
  0
LINE
  5
2D2
330
1F
100
AcDbEntity
  8
GR1-1
  6
CONTINUOUS
 62
     7
100
AcDbLine
 10
753.596786
 20
25.0
 30
0.0
 11
753.94294
 21
25.346154
 31
0.0
  0
LINE
  5
2D3
330
1F
100
AcDbEntity
  8
GR1-1
  6
CONTINUOUS
 62
     7
100
AcDbLine
 10
754.583958
 20
25.987172
 30
0.0
 11
755.8019
 21
27.205113
 31
0.0
  0
LINE
  5
2D4
330
1F
100
AcDbEntity
  8
GR1-1
  6
CONTINUOUS
 62
     7
100
AcDbLine
 10
750.439537
 20
21.913462
 30
0.0
 11
751.692834
 21
23.166758
 31
0.0
  0
LINE
  5
2D5
330
1F
100
AcDbEntity
  8
GR1-1
  6
CONTINUOUS
 62
     7
100
AcDbLine
 10
752.50918
 20
23.983104
 30
0.0
 11
752.8019
 21
24.275824
 31
0.0
  0
LINE
  5
2D6
330
1F
100
AcDbEntity
  8
GR1-1
  6
CONTINUOUS
 62
     7
100
AcDbLine
 10
753.526076
 20
25.0
 30
0.0
 11
753.87223
 21
25.346154
 31
0.0
  0
LINE
  5
2D7
330
1F
100
AcDbEntity
  8
GR1-1
  6
CONTINUOUS
 62
     7
100
AcDbLine
 10
754.548603
 20
26.022527
 30
0.0
 11
755.8019
 21
27.275824
 31
0.0
  0
LINE
  5
2D8
330
1F
100
AcDbEntity
  8
GR1-1
  6
CONTINUOUS
 62
     7
100
AcDbLine
 10
750.368827
 20
21.913462
 30
0.0
 11
751.657479
 21
23.202114
 31
0.0
  0
LINE
  5
2D9
330
1F
100
AcDbEntity
  8
GR1-1
  6
CONTINUOUS
 62
     7
100
AcDbLine
 10
752.473825
 20
24.01846
 30
0.0
 11
752.8019
 21
24.346535
 31
0.0
  0
LINE
  5
2DA
330
1F
100
AcDbEntity
  8
GR1-1
  6
CONTINUOUS
 62
     7
100
AcDbLine
 10
753.455365
 20
25.0
 30
0.0
 11
753.801519
 21
25.346154
 31
0.0
  0
LINE
  5
2DB
330
1F
100
AcDbEntity
  8
GR1-1
  6
CONTINUOUS
 62
     7
100
AcDbLine
 10
754.513248
 20
26.057883
 30
0.0
 11
755.8019
 21
27.346535
 31
0.0
  0
LINE
  5
2DC
330
1F
100
AcDbEntity
  8
GR1-1
  6
CONTINUOUS
 62
     7
100
AcDbLine
 10
750.298116
 20
21.913462
 30
0.0
 11
751.622123
 21
23.237469
 31
0.0
  0
LINE
  5
2DD
330
1F
100
AcDbEntity
  8
GR1-1
  6
CONTINUOUS
 62
     7
100
AcDbLine
 10
752.438469
 20
24.053815
 30
0.0
 11
752.8019
 21
24.417245
 31
0.0
  0
LINE
  5
2DE
330
1F
100
AcDbEntity
  8
GR1-1
  6
CONTINUOUS
 62
     7
100
AcDbLine
 10
753.384654
 20
25.0
 30
0.0
 11
753.730808
 21
25.346154
 31
0.0
  0
LINE
  5
2DF
330
1F
100
AcDbEntity
  8
GR1-1
  6
CONTINUOUS
 62
     7
100
AcDbLine
 10
754.477892
 20
26.093238
 30
0.0
 11
755.8019
 21
27.417245
 31
0.0
  0
LINE
  5
2E0
330
1F
100
AcDbEntity
  8
GR1-1
  6
CONTINUOUS
 62
     7
100
AcDbLine
 10
750.227405
 20
21.913462
 30
0.0
 11
751.586768
 21
23.272824
 31
0.0
  0
LINE
  5
2E1
330
1F
100
AcDbEntity
  8
GR1-1
  6
CONTINUOUS
 62
     7
100
AcDbLine
 10
752.403114
 20
24.08917
 30
0.0
 11
752.8019
 21
24.487956
 31
0.0
  0
LINE
  5
2E2
330
1F
100
AcDbEntity
  8
GR1-1
  6
CONTINUOUS
 62
     7
100
AcDbLine
 10
753.313944
 20
25.0
 30
0.0
 11
753.660097
 21
25.346154
 31
0.0
  0
LINE
  5
2E3
330
1F
100
AcDbEntity
  8
GR1-1
  6
CONTINUOUS
 62
     7
100
AcDbLine
 10
754.442537
 20
26.128593
 30
0.0
 11
755.8019
 21
27.487956
 31
0.0
  0
LINE
  5
2E4
330
1F
100
AcDbEntity
  8
GR1-1
  6
CONTINUOUS
 62
     7
100
AcDbLine
 10
750.156695
 20
21.913462
 30
0.0
 11
751.551413
 21
23.30818
 31
0.0
  0
LINE
  5
2E5
330
1F
100
AcDbEntity
  8
GR1-1
  6
CONTINUOUS
 62
     7
100
AcDbLine
 10
752.367759
 20
24.124526
 30
0.0
 11
752.8019
 21
24.558667
 31
0.0
  0
LINE
  5
2E6
330
1F
100
AcDbEntity
  8
GR1-1
  6
CONTINUOUS
 62
     7
100
AcDbLine
 10
753.243233
 20
25.0
 30
0.0
 11
753.590836
 21
25.347603
 31
0.0
  0
LINE
  5
2E7
330
1F
100
AcDbEntity
  8
GR1-1
  6
CONTINUOUS
 62
     7
100
AcDbLine
 10
754.407182
 20
26.163949
 30
0.0
 11
755.8019
 21
27.558667
 31
0.0
  0
LINE
  5
2E8
330
1F
100
AcDbEntity
  8
GR1-1
  6
CONTINUOUS
 62
     7
100
AcDbLine
 10
750.085984
 20
21.913462
 30
0.0
 11
751.516057
 21
23.343535
 31
0.0
  0
LINE
  5
2E9
330
1F
100
AcDbEntity
  8
GR1-1
  6
CONTINUOUS
 62
     7
100
AcDbLine
 10
752.332403
 20
24.159881
 30
0.0
 11
752.8019
 21
24.629377
 31
0.0
  0
LINE
  5
2EA
330
1F
100
AcDbEntity
  8
GR1-1
  6
CONTINUOUS
 62
     7
100
AcDbLine
 10
753.172522
 20
25.0
 30
0.0
 11
753.55548
 21
25.382958
 31
0.0
  0
LINE
  5
2EB
330
1F
100
AcDbEntity
  8
GR1-1
  6
CONTINUOUS
 62
     7
100
AcDbLine
 10
754.371826
 20
26.199304
 30
0.0
 11
755.8019
 21
27.629377
 31
0.0
  0
LINE
  5
2EC
330
1F
100
AcDbEntity
  8
GR1-1
  6
CONTINUOUS
 62
     7
100
AcDbLine
 10
750.015273
 20
21.913462
 30
0.0
 11
751.480702
 21
23.37889
 31
0.0
  0
LINE
  5
2ED
330
1F
100
AcDbEntity
  8
GR1-1
  6
CONTINUOUS
 62
     7
100
AcDbLine
 10
752.297048
 20
24.195236
 30
0.0
 11
752.8019
 21
24.700088
 31
0.0
  0
LINE
  5
2EE
330
1F
100
AcDbEntity
  8
GR1-1
  6
CONTINUOUS
 62
     7
100
AcDbLine
 10
753.101812
 20
25.0
 30
0.0
 11
753.520125
 21
25.418313
 31
0.0
  0
LINE
  5
2EF
330
1F
100
AcDbEntity
  8
GR1-1
  6
CONTINUOUS
 62
     7
100
AcDbLine
 10
754.336471
 20
26.234659
 30
0.0
 11
755.8019
 21
27.700088
 31
0.0
  0
LINE
  5
2F0
330
1F
100
AcDbEntity
  8
GR1-1
  6
CONTINUOUS
 62
     7
100
AcDbLine
 10
749.944563
 20
21.913462
 30
0.0
 11
751.445347
 21
23.414246
 31
0.0
  0
LINE
  5
2F1
330
1F
100
AcDbEntity
  8
GR1-1
  6
CONTINUOUS
 62
     7
100
AcDbLine
 10
752.261693
 20
24.230592
 30
0.0
 11
752.8019
 21
24.770799
 31
0.0
  0
LINE
  5
2F2
330
1F
100
AcDbEntity
  8
GR1-1
  6
CONTINUOUS
 62
     7
100
AcDbLine
 10
753.031101
 20
25.0
 30
0.0
 11
753.48477
 21
25.453669
 31
0.0
  0
LINE
  5
2F3
330
1F
100
AcDbEntity
  8
GR1-1
  6
CONTINUOUS
 62
     7
100
AcDbLine
 10
754.301116
 20
26.270015
 30
0.0
 11
755.8019
 21
27.770799
 31
0.0
  0
LINE
  5
2F4
330
1F
100
AcDbEntity
  8
GR1-1
  6
CONTINUOUS
 62
     7
100
AcDbLine
 10
749.873852
 20
21.913462
 30
0.0
 11
751.409991
 21
23.449601
 31
0.0
  0
LINE
  5
2F5
330
1F
100
AcDbEntity
  8
GR1-1
  6
CONTINUOUS
 62
     7
100
AcDbLine
 10
752.226337
 20
24.265947
 30
0.0
 11
752.8019
 21
24.841509
 31
0.0
  0
LINE
  5
2F6
330
1F
100
AcDbEntity
  8
GR1-1
  6
CONTINUOUS
 62
     7
100
AcDbLine
 10
752.96039
 20
25.0
 30
0.0
 11
753.449414
 21
25.489024
 31
0.0
  0
LINE
  5
2F7
330
1F
100
AcDbEntity
  8
GR1-1
  6
CONTINUOUS
 62
     7
100
AcDbLine
 10
754.26576
 20
26.30537
 30
0.0
 11
755.8019
 21
27.841509
 31
0.0
  0
LINE
  5
2F8
330
1F
100
AcDbEntity
  8
GR1-1
  6
CONTINUOUS
 62
     7
100
AcDbLine
 10
749.803141
 20
21.913462
 30
0.0
 11
751.374636
 21
23.484956
 31
0.0
  0
LINE
  5
2F9
330
1F
100
AcDbEntity
  8
GR1-1
  6
CONTINUOUS
 62
     7
100
AcDbLine
 10
752.190982
 20
24.301302
 30
0.0
 11
752.8019
 21
24.91222
 31
0.0
  0
LINE
  5
2FA
330
1F
100
AcDbEntity
  8
GR1-1
  6
CONTINUOUS
 62
     7
100
AcDbLine
 10
752.88968
 20
25.0
 30
0.0
 11
753.414059
 21
25.524379
 31
0.0
  0
LINE
  5
2FB
330
1F
100
AcDbEntity
  8
GR1-1
  6
CONTINUOUS
 62
     7
100
AcDbLine
 10
754.230405
 20
26.340725
 30
0.0
 11
755.8019
 21
27.91222
 31
0.0
  0
LINE
  5
2FC
330
1F
100
AcDbEntity
  8
GR1-1
  6
CONTINUOUS
 62
     7
100
AcDbLine
 10
749.8019
 20
21.982931
 30
0.0
 11
751.339281
 21
23.520312
 31
0.0
  0
LINE
  5
2FD
330
1F
100
AcDbEntity
  8
GR1-1
  6
CONTINUOUS
 62
     7
100
AcDbLine
 10
752.155627
 20
24.336658
 30
0.0
 11
752.8019
 21
24.982931
 31
0.0
  0
LINE
  5
2FE
330
1F
100
AcDbEntity
  8
GR1-1
  6
CONTINUOUS
 62
     7
100
AcDbLine
 10
752.818969
 20
25.0
 30
0.0
 11
753.378704
 21
25.559735
 31
0.0
  0
LINE
  5
2FF
330
1F
100
AcDbEntity
  8
GR1-1
  6
CONTINUOUS
 62
     7
100
AcDbLine
 10
754.19505
 20
26.376081
 30
0.0
 11
755.73243
 21
27.913462
 31
0.0
  0
LINE
  5
300
330
1F
100
AcDbEntity
  8
GR1-1
  6
CONTINUOUS
 62
     7
100
AcDbLine
 10
749.8019
 20
22.053642
 30
0.0
 11
751.303925
 21
23.555667
 31
0.0
  0
LINE
  5
301
330
1F
100
AcDbEntity
  8
GR1-1
  6
CONTINUOUS
 62
     7
100
AcDbLine
 10
752.120271
 20
24.372013
 30
0.0
 11
753.343348
 21
25.59509
 31
0.0
  0
LINE
  5
302
330
1F
100
AcDbEntity
  8
GR1-1
  6
CONTINUOUS
 62
     7
100
AcDbLine
 10
754.159694
 20
26.411436
 30
0.0
 11
755.66172
 21
27.913462
 31
0.0
  0
LINE
  5
303
330
1F
100
AcDbEntity
  8
GR1-1
  6
CONTINUOUS
 62
     7
100
AcDbLine
 10
749.8019
 20
22.124352
 30
0.0
 11
751.26857
 21
23.591022
 31
0.0
  0
LINE
  5
304
330
1F
100
AcDbEntity
  8
GR1-1
  6
CONTINUOUS
 62
     7
100
AcDbLine
 10
752.084916
 20
24.407368
 30
0.0
 11
753.307993
 21
25.630445
 31
0.0
  0
LINE
  5
305
330
1F
100
AcDbEntity
  8
GR1-1
  6
CONTINUOUS
 62
     7
100
AcDbLine
 10
754.124339
 20
26.446791
 30
0.0
 11
755.591009
 21
27.913462
 31
0.0
  0
LINE
  5
306
330
1F
100
AcDbEntity
  8
GR1-1
  6
CONTINUOUS
 62
     7
100
AcDbLine
 10
749.8019
 20
22.195063
 30
0.0
 11
751.233214
 21
23.626378
 31
0.0
  0
LINE
  5
307
330
1F
100
AcDbEntity
  8
GR1-1
  6
CONTINUOUS
 62
     7
100
AcDbLine
 10
752.049561
 20
24.442724
 30
0.0
 11
753.272638
 21
25.665801
 31
0.0
  0
LINE
  5
308
330
1F
100
AcDbEntity
  8
GR1-1
  6
CONTINUOUS
 62
     7
100
AcDbLine
 10
754.088984
 20
26.482147
 30
0.0
 11
755.520298
 21
27.913462
 31
0.0
  0
LINE
  5
309
330
1F
100
AcDbEntity
  8
GR1-1
  6
CONTINUOUS
 62
     7
100
AcDbLine
 10
749.8019
 20
22.265774
 30
0.0
 11
751.197859
 21
23.661733
 31
0.0
  0
LINE
  5
30A
330
1F
100
AcDbEntity
  8
GR1-1
  6
CONTINUOUS
 62
     7
100
AcDbLine
 10
752.014205
 20
24.478079
 30
0.0
 11
753.237282
 21
25.701156
 31
0.0
  0
LINE
  5
30B
330
1F
100
AcDbEntity
  8
GR1-1
  6
CONTINUOUS
 62
     7
100
AcDbLine
 10
754.053628
 20
26.517502
 30
0.0
 11
755.449588
 21
27.913462
 31
0.0
  0
LINE
  5
30C
330
1F
100
AcDbEntity
  8
GR1-1
  6
CONTINUOUS
 62
     7
100
AcDbLine
 10
749.8019
 20
22.336484
 30
0.0
 11
751.162504
 21
23.697088
 31
0.0
  0
LINE
  5
30D
330
1F
100
AcDbEntity
  8
GR1-1
  6
CONTINUOUS
 62
     7
100
AcDbLine
 10
751.97885
 20
24.513434
 30
0.0
 11
753.201927
 21
25.736511
 31
0.0
  0
LINE
  5
30E
330
1F
100
AcDbEntity
  8
GR1-1
  6
CONTINUOUS
 62
     7
100
AcDbLine
 10
754.018273
 20
26.552857
 30
0.0
 11
755.378877
 21
27.913462
 31
0.0
  0
LINE
  5
30F
330
1F
100
AcDbEntity
  8
GR1-1
  6
CONTINUOUS
 62
     7
100
AcDbLine
 10
749.8019
 20
22.407195
 30
0.0
 11
751.127148
 21
23.732444
 31
0.0
  0
LINE
  5
310
330
1F
100
AcDbEntity
  8
GR1-1
  6
CONTINUOUS
 62
     7
100
AcDbLine
 10
751.943495
 20
24.54879
 30
0.0
 11
753.166572
 21
25.771867
 31
0.0
  0
LINE
  5
311
330
1F
100
AcDbEntity
  8
GR1-1
  6
CONTINUOUS
 62
     7
100
AcDbLine
 10
753.982918
 20
26.588213
 30
0.0
 11
755.308166
 21
27.913462
 31
0.0
  0
LINE
  5
312
330
1F
100
AcDbEntity
  8
GR1-1
  6
CONTINUOUS
 62
     7
100
AcDbLine
 10
749.8019
 20
22.477906
 30
0.0
 11
751.091793
 21
23.767799
 31
0.0
  0
LINE
  5
313
330
1F
100
AcDbEntity
  8
GR1-1
  6
CONTINUOUS
 62
     7
100
AcDbLine
 10
751.908139
 20
24.584145
 30
0.0
 11
753.131216
 21
25.807222
 31
0.0
  0
LINE
  5
314
330
1F
100
AcDbEntity
  8
GR1-1
  6
CONTINUOUS
 62
     7
100
AcDbLine
 10
753.947562
 20
26.623568
 30
0.0
 11
755.237456
 21
27.913462
 31
0.0
  0
LINE
  5
315
330
1F
100
AcDbEntity
  8
GR1-1
  6
CONTINUOUS
 62
     7
100
AcDbLine
 10
749.8019
 20
22.548616
 30
0.0
 11
751.056438
 21
23.803154
 31
0.0
  0
LINE
  5
316
330
1F
100
AcDbEntity
  8
GR1-1
  6
CONTINUOUS
 62
     7
100
AcDbLine
 10
751.872784
 20
24.6195
 30
0.0
 11
753.095861
 21
25.842577
 31
0.0
  0
LINE
  5
317
330
1F
100
AcDbEntity
  8
GR1-1
  6
CONTINUOUS
 62
     7
100
AcDbLine
 10
753.912207
 20
26.658923
 30
0.0
 11
755.166745
 21
27.913462
 31
0.0
  0
LINE
  5
318
330
1F
100
AcDbEntity
  8
GR1-1
  6
CONTINUOUS
 62
     7
100
AcDbLine
 10
749.8019
 20
22.619327
 30
0.0
 11
751.021082
 21
23.83851
 31
0.0
  0
LINE
  5
319
330
1F
100
AcDbEntity
  8
GR1-1
  6
CONTINUOUS
 62
     7
100
AcDbLine
 10
751.837429
 20
24.654856
 30
0.0
 11
753.060506
 21
25.877933
 31
0.0
  0
LINE
  5
31A
330
1F
100
AcDbEntity
  8
GR1-1
  6
CONTINUOUS
 62
     7
100
AcDbLine
 10
753.876852
 20
26.694279
 30
0.0
 11
755.096034
 21
27.913462
 31
0.0
  0
LINE
  5
31B
330
1F
100
AcDbEntity
  8
GR1-1
  6
CONTINUOUS
 62
     7
100
AcDbLine
 10
749.8019
 20
22.690038
 30
0.0
 11
750.985727
 21
23.873865
 31
0.0
  0
LINE
  5
31C
330
1F
100
AcDbEntity
  8
GR1-1
  6
CONTINUOUS
 62
     7
100
AcDbLine
 10
751.802073
 20
24.690211
 30
0.0
 11
753.02515
 21
25.913288
 31
0.0
  0
LINE
  5
31D
330
1F
100
AcDbEntity
  8
GR1-1
  6
CONTINUOUS
 62
     7
100
AcDbLine
 10
753.841496
 20
26.729634
 30
0.0
 11
755.025324
 21
27.913462
 31
0.0
  0
LINE
  5
31E
330
1F
100
AcDbEntity
  8
GR1-1
  6
CONTINUOUS
 62
     7
100
AcDbLine
 10
749.8019
 20
22.760748
 30
0.0
 11
750.950372
 21
23.90922
 31
0.0
  0
LINE
  5
31F
330
1F
100
AcDbEntity
  8
GR1-1
  6
CONTINUOUS
 62
     7
100
AcDbLine
 10
751.766718
 20
24.725566
 30
0.0
 11
752.989795
 21
25.948643
 31
0.0
  0
LINE
  5
320
330
1F
100
AcDbEntity
  8
GR1-1
  6
CONTINUOUS
 62
     7
100
AcDbLine
 10
753.806141
 20
26.76499
 30
0.0
 11
754.954613
 21
27.913462
 31
0.0
  0
LINE
  5
321
330
1F
100
AcDbEntity
  8
GR1-1
  6
CONTINUOUS
 62
     7
100
AcDbLine
 10
749.8019
 20
22.831459
 30
0.0
 11
750.915016
 21
23.944576
 31
0.0
  0
LINE
  5
322
330
1F
100
AcDbEntity
  8
GR1-1
  6
CONTINUOUS
 62
     7
100
AcDbLine
 10
751.731363
 20
24.760922
 30
0.0
 11
752.95444
 21
25.983999
 31
0.0
  0
LINE
  5
323
330
1F
100
AcDbEntity
  8
GR1-1
  6
CONTINUOUS
 62
     7
100
AcDbLine
 10
753.770786
 20
26.800345
 30
0.0
 11
754.883902
 21
27.913462
 31
0.0
  0
LINE
  5
324
330
1F
100
AcDbEntity
  8
GR1-1
  6
CONTINUOUS
 62
     7
100
AcDbLine
 10
749.8019
 20
22.90217
 30
0.0
 11
750.879661
 21
23.979931
 31
0.0
  0
LINE
  5
325
330
1F
100
AcDbEntity
  8
GR1-1
  6
CONTINUOUS
 62
     7
100
AcDbLine
 10
751.696007
 20
24.796277
 30
0.0
 11
752.919084
 21
26.019354
 31
0.0
  0
LINE
  5
326
330
1F
100
AcDbEntity
  8
GR1-1
  6
CONTINUOUS
 62
     7
100
AcDbLine
 10
753.73543
 20
26.8357
 30
0.0
 11
754.813192
 21
27.913462
 31
0.0
  0
LINE
  5
327
330
1F
100
AcDbEntity
  8
GR1-1
  6
CONTINUOUS
 62
     7
100
AcDbLine
 10
749.8019
 20
22.97288
 30
0.0
 11
750.844306
 21
24.015286
 31
0.0
  0
LINE
  5
328
330
1F
100
AcDbEntity
  8
GR1-1
  6
CONTINUOUS
 62
     7
100
AcDbLine
 10
751.660652
 20
24.831632
 30
0.0
 11
752.883729
 21
26.054709
 31
0.0
  0
LINE
  5
329
330
1F
100
AcDbEntity
  8
GR1-1
  6
CONTINUOUS
 62
     7
100
AcDbLine
 10
753.700075
 20
26.871056
 30
0.0
 11
754.742481
 21
27.913462
 31
0.0
  0
LINE
  5
32A
330
1F
100
AcDbEntity
  8
GR1-1
  6
CONTINUOUS
 62
     7
100
AcDbLine
 10
749.8019
 20
23.043591
 30
0.0
 11
750.80895
 21
24.050642
 31
0.0
  0
LINE
  5
32B
330
1F
100
AcDbEntity
  8
GR1-1
  6
CONTINUOUS
 62
     7
100
AcDbLine
 10
751.625297
 20
24.866988
 30
0.0
 11
752.848373
 21
26.090065
 31
0.0
  0
LINE
  5
32C
330
1F
100
AcDbEntity
  8
GR1-1
  6
CONTINUOUS
 62
     7
100
AcDbLine
 10
753.66472
 20
26.906411
 30
0.0
 11
754.67177
 21
27.913462
 31
0.0
  0
LINE
  5
32D
330
1F
100
AcDbEntity
  8
GR1-1
  6
CONTINUOUS
 62
     7
100
AcDbLine
 10
749.8019
 20
23.114302
 30
0.0
 11
750.773595
 21
24.085997
 31
0.0
  0
LINE
  5
32E
330
1F
100
AcDbEntity
  8
GR1-1
  6
CONTINUOUS
 62
     7
100
AcDbLine
 10
751.589941
 20
24.902343
 30
0.0
 11
752.813018
 21
26.12542
 31
0.0
  0
LINE
  5
32F
330
1F
100
AcDbEntity
  8
GR1-1
  6
CONTINUOUS
 62
     7
100
AcDbLine
 10
753.629364
 20
26.941766
 30
0.0
 11
754.60106
 21
27.913462
 31
0.0
  0
LINE
  5
330
330
1F
100
AcDbEntity
  8
GR1-1
  6
CONTINUOUS
 62
     7
100
AcDbLine
 10
749.8019
 20
23.185012
 30
0.0
 11
750.73824
 21
24.121352
 31
0.0
  0
LINE
  5
331
330
1F
100
AcDbEntity
  8
GR1-1
  6
CONTINUOUS
 62
     7
100
AcDbLine
 10
753.594009
 20
26.977122
 30
0.0
 11
754.530349
 21
27.913462
 31
0.0
  0
LINE
  5
332
330
1F
100
AcDbEntity
  8
GR1-1
  6
CONTINUOUS
 62
     7
100
AcDbLine
 10
749.8019
 20
23.255723
 30
0.0
 11
750.702884
 21
24.156708
 31
0.0
  0
LINE
  5
333
330
1F
100
AcDbEntity
  8
GR1-1
  6
CONTINUOUS
 62
     7
100
AcDbLine
 10
753.558654
 20
27.012477
 30
0.0
 11
754.459638
 21
27.913462
 31
0.0
  0
LINE
  5
334
330
1F
100
AcDbEntity
  8
GR1-1
  6
CONTINUOUS
 62
     7
100
AcDbLine
 10
749.8019
 20
23.326434
 30
0.0
 11
750.667529
 21
24.192063
 31
0.0
  0
LINE
  5
335
330
1F
100
AcDbEntity
  8
GR1-1
  6
CONTINUOUS
 62
     7
100
AcDbLine
 10
753.523298
 20
27.047832
 30
0.0
 11
754.388928
 21
27.913462
 31
0.0
  0
LINE
  5
336
330
1F
100
AcDbEntity
  8
GR1-1
  6
CONTINUOUS
 62
     7
100
AcDbLine
 10
749.8019
 20
23.397144
 30
0.0
 11
750.632174
 21
24.227418
 31
0.0
  0
LINE
  5
337
330
1F
100
AcDbEntity
  8
GR1-1
  6
CONTINUOUS
 62
     7
100
AcDbLine
 10
753.487943
 20
27.083188
 30
0.0
 11
754.318217
 21
27.913462
 31
0.0
  0
LINE
  5
338
330
1F
100
AcDbEntity
  8
GR1-1
  6
CONTINUOUS
 62
     7
100
AcDbLine
 10
749.8019
 20
23.467855
 30
0.0
 11
750.596818
 21
24.262774
 31
0.0
  0
LINE
  5
339
330
1F
100
AcDbEntity
  8
GR1-1
  6
CONTINUOUS
 62
     7
100
AcDbLine
 10
753.452588
 20
27.118543
 30
0.0
 11
754.247506
 21
27.913462
 31
0.0
  0
LINE
  5
33A
330
1F
100
AcDbEntity
  8
GR1-1
  6
CONTINUOUS
 62
     7
100
AcDbLine
 10
749.8019
 20
23.538566
 30
0.0
 11
750.561463
 21
24.298129
 31
0.0
  0
LINE
  5
33B
330
1F
100
AcDbEntity
  8
GR1-1
  6
CONTINUOUS
 62
     7
100
AcDbLine
 10
753.417232
 20
27.153898
 30
0.0
 11
754.176796
 21
27.913462
 31
0.0
  0
LINE
  5
33C
330
1F
100
AcDbEntity
  8
GR1-1
  6
CONTINUOUS
 62
     7
100
AcDbLine
 10
749.8019
 20
23.609276
 30
0.0
 11
750.526108
 21
24.333484
 31
0.0
  0
LINE
  5
33D
330
1F
100
AcDbEntity
  8
GR1-1
  6
CONTINUOUS
 62
     7
100
AcDbLine
 10
753.381877
 20
27.189254
 30
0.0
 11
754.106085
 21
27.913462
 31
0.0
  0
LINE
  5
33E
330
1F
100
AcDbEntity
  8
GR1-1
  6
CONTINUOUS
 62
     7
100
AcDbLine
 10
749.8019
 20
23.679987
 30
0.0
 11
750.490752
 21
24.36884
 31
0.0
  0
LINE
  5
33F
330
1F
100
AcDbEntity
  8
GR1-1
  6
CONTINUOUS
 62
     7
100
AcDbLine
 10
753.346522
 20
27.224609
 30
0.0
 11
754.035374
 21
27.913462
 31
0.0
  0
LINE
  5
340
330
1F
100
AcDbEntity
  8
GR1-1
  6
CONTINUOUS
 62
     7
100
AcDbLine
 10
749.8019
 20
23.750698
 30
0.0
 11
750.455397
 21
24.404195
 31
0.0
  0
LINE
  5
341
330
1F
100
AcDbEntity
  8
GR1-1
  6
CONTINUOUS
 62
     7
100
AcDbLine
 10
753.311166
 20
27.259964
 30
0.0
 11
753.964664
 21
27.913462
 31
0.0
  0
LINE
  5
342
330
1F
100
AcDbEntity
  8
GR1-1
  6
CONTINUOUS
 62
     7
100
AcDbLine
 10
749.8019
 20
23.821408
 30
0.0
 11
750.420042
 21
24.43955
 31
0.0
  0
LINE
  5
343
330
1F
100
AcDbEntity
  8
GR1-1
  6
CONTINUOUS
 62
     7
100
AcDbLine
 10
753.275811
 20
27.29532
 30
0.0
 11
753.893953
 21
27.913462
 31
0.0
  0
LINE
  5
344
330
1F
100
AcDbEntity
  8
GR1-1
  6
CONTINUOUS
 62
     7
100
AcDbLine
 10
749.8019
 20
23.892119
 30
0.0
 11
750.384686
 21
24.474906
 31
0.0
  0
LINE
  5
345
330
1F
100
AcDbEntity
  8
GR1-1
  6
CONTINUOUS
 62
     7
100
AcDbLine
 10
753.240456
 20
27.330675
 30
0.0
 11
753.823242
 21
27.913462
 31
0.0
  0
LINE
  5
346
330
1F
100
AcDbEntity
  8
GR1-1
  6
CONTINUOUS
 62
     7
100
AcDbLine
 10
749.8019
 20
23.96283
 30
0.0
 11
750.349331
 21
24.510261
 31
0.0
  0
LINE
  5
347
330
1F
100
AcDbEntity
  8
GR1-1
  6
CONTINUOUS
 62
     7
100
AcDbLine
 10
753.2051
 20
27.36603
 30
0.0
 11
753.752531
 21
27.913462
 31
0.0
  0
LINE
  5
348
330
1F
100
AcDbEntity
  8
GR1-1
  6
CONTINUOUS
 62
     7
100
AcDbLine
 10
749.8019
 20
24.033541
 30
0.0
 11
750.313976
 21
24.545616
 31
0.0
  0
LINE
  5
349
330
1F
100
AcDbEntity
  8
GR1-1
  6
CONTINUOUS
 62
     7
100
AcDbLine
 10
753.169745
 20
27.401386
 30
0.0
 11
753.681821
 21
27.913462
 31
0.0
  0
LINE
  5
34A
330
1F
100
AcDbEntity
  8
GR1-1
  6
CONTINUOUS
 62
     7
100
AcDbLine
 10
749.8019
 20
24.104251
 30
0.0
 11
750.27862
 21
24.580972
 31
0.0
  0
LINE
  5
34B
330
1F
100
AcDbEntity
  8
GR1-1
  6
CONTINUOUS
 62
     7
100
AcDbLine
 10
753.13439
 20
27.436741
 30
0.0
 11
753.61111
 21
27.913462
 31
0.0
  0
LINE
  5
34C
330
1F
100
AcDbEntity
  8
GR1-1
  6
CONTINUOUS
 62
     7
100
AcDbLine
 10
749.8019
 20
24.174962
 30
0.0
 11
750.243265
 21
24.616327
 31
0.0
  0
LINE
  5
34D
330
1F
100
AcDbEntity
  8
GR1-1
  6
CONTINUOUS
 62
     7
100
AcDbLine
 10
753.099034
 20
27.472096
 30
0.0
 11
753.540399
 21
27.913462
 31
0.0
  0
LINE
  5
34E
330
1F
100
AcDbEntity
  8
GR1-1
  6
CONTINUOUS
 62
     7
100
AcDbLine
 10
749.8019
 20
24.245673
 30
0.0
 11
750.20791
 21
24.651682
 31
0.0
  0
LINE
  5
34F
330
1F
100
AcDbEntity
  8
GR1-1
  6
CONTINUOUS
 62
     7
100
AcDbLine
 10
753.063679
 20
27.507452
 30
0.0
 11
753.469689
 21
27.913462
 31
0.0
  0
LINE
  5
350
330
1F
100
AcDbEntity
  8
GR1-1
  6
CONTINUOUS
 62
     7
100
AcDbLine
 10
749.8019
 20
24.316383
 30
0.0
 11
750.172554
 21
24.687038
 31
0.0
  0
LINE
  5
351
330
1F
100
AcDbEntity
  8
GR1-1
  6
CONTINUOUS
 62
     7
100
AcDbLine
 10
753.028324
 20
27.542807
 30
0.0
 11
753.398978
 21
27.913462
 31
0.0
  0
LINE
  5
352
330
1F
100
AcDbEntity
  8
GR1-1
  6
CONTINUOUS
 62
     7
100
AcDbLine
 10
749.8019
 20
24.387094
 30
0.0
 11
750.137199
 21
24.722393
 31
0.0
  0
LINE
  5
353
330
1F
100
AcDbEntity
  8
GR1-1
  6
CONTINUOUS
 62
     7
100
AcDbLine
 10
752.992968
 20
27.578162
 30
0.0
 11
753.328267
 21
27.913462
 31
0.0
  0
LINE
  5
354
330
1F
100
AcDbEntity
  8
GR1-1
  6
CONTINUOUS
 62
     7
100
AcDbLine
 10
749.8019
 20
24.457805
 30
0.0
 11
750.101844
 21
24.757748
 31
0.0
  0
LINE
  5
355
330
1F
100
AcDbEntity
  8
GR1-1
  6
CONTINUOUS
 62
     7
100
AcDbLine
 10
752.957613
 20
27.613518
 30
0.0
 11
753.257557
 21
27.913462
 31
0.0
  0
LINE
  5
356
330
1F
100
AcDbEntity
  8
GR1-1
  6
CONTINUOUS
 62
     7
100
AcDbLine
 10
749.8019
 20
24.528515
 30
0.0
 11
750.066488
 21
24.793104
 31
0.0
  0
LINE
  5
357
330
1F
100
AcDbEntity
  8
GR1-1
  6
CONTINUOUS
 62
     7
100
AcDbLine
 10
752.922258
 20
27.648873
 30
0.0
 11
753.186846
 21
27.913462
 31
0.0
  0
LINE
  5
358
330
1F
100
AcDbEntity
  8
GR1-1
  6
CONTINUOUS
 62
     7
100
AcDbLine
 10
749.8019
 20
24.599226
 30
0.0
 11
750.031133
 21
24.828459
 31
0.0
  0
LINE
  5
359
330
1F
100
AcDbEntity
  8
GR1-1
  6
CONTINUOUS
 62
     7
100
AcDbLine
 10
752.886902
 20
27.684228
 30
0.0
 11
753.116135
 21
27.913462
 31
0.0
  0
LINE
  5
35A
330
1F
100
AcDbEntity
  8
GR1-1
  6
CONTINUOUS
 62
     7
100
AcDbLine
 10
749.8019
 20
24.669937
 30
0.0
 11
749.995778
 21
24.863814
 31
0.0
  0
LINE
  5
35B
330
1F
100
AcDbEntity
  8
GR1-1
  6
CONTINUOUS
 62
     7
100
AcDbLine
 10
752.851547
 20
27.719584
 30
0.0
 11
753.045425
 21
27.913462
 31
0.0
  0
LINE
  5
35C
330
1F
100
AcDbEntity
  8
GR1-1
  6
CONTINUOUS
 62
     7
100
AcDbLine
 10
749.8019
 20
24.740647
 30
0.0
 11
749.960422
 21
24.89917
 31
0.0
  0
LINE
  5
35D
330
1F
100
AcDbEntity
  8
GR1-1
  6
CONTINUOUS
 62
     7
100
AcDbLine
 10
752.816192
 20
27.754939
 30
0.0
 11
752.974714
 21
27.913462
 31
0.0
  0
LINE
  5
35E
330
1F
100
AcDbEntity
  8
GR1-1
  6
CONTINUOUS
 62
     7
100
AcDbLine
 10
749.8019
 20
24.811358
 30
0.0
 11
752.904003
 21
27.913462
 31
0.0
  0
LINE
  5
35F
330
1F
100
AcDbEntity
  8
GR1-1
  6
CONTINUOUS
 62
     7
100
AcDbLine
 10
749.8019
 20
24.882069
 30
0.0
 11
752.833293
 21
27.913462
 31
0.0
  0
LINE
  5
360
330
1F
100
AcDbEntity
  8
GR1-1
  6
CONTINUOUS
 62
     7
100
AcDbLine
 10
749.8019
 20
24.952779
 30
0.0
 11
752.762582
 21
27.913462
 31
0.0
  0
LINE
  5
361
330
1F
100
AcDbEntity
  8
GR1-1
  6
CONTINUOUS
 62
     7
100
AcDbLine
 10
749.8019
 20
25.02349
 30
0.0
 11
752.691871
 21
27.913462
 31
0.0
  0
LINE
  5
362
330
1F
100
AcDbEntity
  8
GR1-1
  6
CONTINUOUS
 62
     7
100
AcDbLine
 10
749.8019
 20
25.094201
 30
0.0
 11
752.621161
 21
27.913462
 31
0.0
  0
LINE
  5
363
330
1F
100
AcDbEntity
  8
GR1-1
  6
CONTINUOUS
 62
     7
100
AcDbLine
 10
749.8019
 20
25.164911
 30
0.0
 11
752.55045
 21
27.913462
 31
0.0
  0
LINE
  5
364
330
1F
100
AcDbEntity
  8
GR1-1
  6
CONTINUOUS
 62
     7
100
AcDbLine
 10
749.8019
 20
25.235622
 30
0.0
 11
752.479739
 21
27.913462
 31
0.0
  0
LINE
  5
365
330
1F
100
AcDbEntity
  8
GR1-1
  6
CONTINUOUS
 62
     7
100
AcDbLine
 10
749.8019
 20
25.306333
 30
0.0
 11
752.409029
 21
27.913462
 31
0.0
  0
LINE
  5
366
330
1F
100
AcDbEntity
  8
GR1-1
  6
CONTINUOUS
 62
     7
100
AcDbLine
 10
749.8019
 20
25.377043
 30
0.0
 11
752.338318
 21
27.913462
 31
0.0
  0
LINE
  5
367
330
1F
100
AcDbEntity
  8
GR1-1
  6
CONTINUOUS
 62
     7
100
AcDbLine
 10
749.8019
 20
25.447754
 30
0.0
 11
752.267607
 21
27.913462
 31
0.0
  0
LINE
  5
368
330
1F
100
AcDbEntity
  8
GR1-1
  6
CONTINUOUS
 62
     7
100
AcDbLine
 10
749.8019
 20
25.518465
 30
0.0
 11
752.196897
 21
27.913462
 31
0.0
  0
LINE
  5
369
330
1F
100
AcDbEntity
  8
GR1-1
  6
CONTINUOUS
 62
     7
100
AcDbLine
 10
749.8019
 20
25.589175
 30
0.0
 11
752.126186
 21
27.913462
 31
0.0
  0
LINE
  5
36A
330
1F
100
AcDbEntity
  8
GR1-1
  6
CONTINUOUS
 62
     7
100
AcDbLine
 10
749.8019
 20
25.659886
 30
0.0
 11
752.055475
 21
27.913462
 31
0.0
  0
LINE
  5
36B
330
1F
100
AcDbEntity
  8
GR1-1
  6
CONTINUOUS
 62
     7
100
AcDbLine
 10
749.8019
 20
25.730597
 30
0.0
 11
751.984765
 21
27.913462
 31
0.0
  0
LINE
  5
36C
330
1F
100
AcDbEntity
  8
GR1-1
  6
CONTINUOUS
 62
     7
100
AcDbLine
 10
749.8019
 20
25.801307
 30
0.0
 11
751.914054
 21
27.913462
 31
0.0
  0
LINE
  5
36D
330
1F
100
AcDbEntity
  8
GR1-1
  6
CONTINUOUS
 62
     7
100
AcDbLine
 10
749.8019
 20
25.872018
 30
0.0
 11
751.843343
 21
27.913462
 31
0.0
  0
LINE
  5
36E
330
1F
100
AcDbEntity
  8
GR1-1
  6
CONTINUOUS
 62
     7
100
AcDbLine
 10
749.8019
 20
25.942729
 30
0.0
 11
751.772632
 21
27.913462
 31
0.0
  0
LINE
  5
36F
330
1F
100
AcDbEntity
  8
GR1-1
  6
CONTINUOUS
 62
     7
100
AcDbLine
 10
749.8019
 20
26.013439
 30
0.0
 11
751.701922
 21
27.913462
 31
0.0
  0
LINE
  5
370
330
1F
100
AcDbEntity
  8
GR1-1
  6
CONTINUOUS
 62
     7
100
AcDbLine
 10
749.8019
 20
26.08415
 30
0.0
 11
751.631211
 21
27.913462
 31
0.0
  0
LINE
  5
371
330
1F
100
AcDbEntity
  8
GR1-1
  6
CONTINUOUS
 62
     7
100
AcDbLine
 10
749.8019
 20
26.154861
 30
0.0
 11
751.5605
 21
27.913462
 31
0.0
  0
LINE
  5
372
330
1F
100
AcDbEntity
  8
GR1-1
  6
CONTINUOUS
 62
     7
100
AcDbLine
 10
749.8019
 20
26.225572
 30
0.0
 11
751.48979
 21
27.913462
 31
0.0
  0
LINE
  5
373
330
1F
100
AcDbEntity
  8
GR1-1
  6
CONTINUOUS
 62
     7
100
AcDbLine
 10
749.8019
 20
26.296282
 30
0.0
 11
751.419079
 21
27.913462
 31
0.0
  0
LINE
  5
374
330
1F
100
AcDbEntity
  8
GR1-1
  6
CONTINUOUS
 62
     7
100
AcDbLine
 10
749.8019
 20
26.366993
 30
0.0
 11
751.348368
 21
27.913462
 31
0.0
  0
LINE
  5
375
330
1F
100
AcDbEntity
  8
GR1-1
  6
CONTINUOUS
 62
     7
100
AcDbLine
 10
749.8019
 20
26.437704
 30
0.0
 11
751.277658
 21
27.913462
 31
0.0
  0
LINE
  5
376
330
1F
100
AcDbEntity
  8
GR1-1
  6
CONTINUOUS
 62
     7
100
AcDbLine
 10
749.8019
 20
26.508414
 30
0.0
 11
751.206947
 21
27.913462
 31
0.0
  0
LINE
  5
377
330
1F
100
AcDbEntity
  8
GR1-1
  6
CONTINUOUS
 62
     7
100
AcDbLine
 10
749.8019
 20
26.579125
 30
0.0
 11
751.136236
 21
27.913462
 31
0.0
  0
LINE
  5
378
330
1F
100
AcDbEntity
  8
GR1-1
  6
CONTINUOUS
 62
     7
100
AcDbLine
 10
749.8019
 20
26.649836
 30
0.0
 11
751.065526
 21
27.913462
 31
0.0
  0
LINE
  5
379
330
1F
100
AcDbEntity
  8
GR1-1
  6
CONTINUOUS
 62
     7
100
AcDbLine
 10
749.8019
 20
26.720546
 30
0.0
 11
750.994815
 21
27.913462
 31
0.0
  0
LINE
  5
37A
330
1F
100
AcDbEntity
  8
GR1-1
  6
CONTINUOUS
 62
     7
100
AcDbLine
 10
749.8019
 20
26.791257
 30
0.0
 11
750.924104
 21
27.913462
 31
0.0
  0
LINE
  5
37B
330
1F
100
AcDbEntity
  8
GR1-1
  6
CONTINUOUS
 62
     7
100
AcDbLine
 10
749.8019
 20
26.861968
 30
0.0
 11
750.853394
 21
27.913462
 31
0.0
  0
LINE
  5
37C
330
1F
100
AcDbEntity
  8
GR1-1
  6
CONTINUOUS
 62
     7
100
AcDbLine
 10
749.8019
 20
26.932678
 30
0.0
 11
750.782683
 21
27.913462
 31
0.0
  0
LINE
  5
37D
330
1F
100
AcDbEntity
  8
GR1-1
  6
CONTINUOUS
 62
     7
100
AcDbLine
 10
749.8019
 20
27.003389
 30
0.0
 11
750.711972
 21
27.913462
 31
0.0
  0
LINE
  5
37E
330
1F
100
AcDbEntity
  8
GR1-1
  6
CONTINUOUS
 62
     7
100
AcDbLine
 10
749.8019
 20
27.0741
 30
0.0
 11
750.641262
 21
27.913462
 31
0.0
  0
LINE
  5
37F
330
1F
100
AcDbEntity
  8
GR1-1
  6
CONTINUOUS
 62
     7
100
AcDbLine
 10
749.8019
 20
27.14481
 30
0.0
 11
750.570551
 21
27.913462
 31
0.0
  0
LINE
  5
380
330
1F
100
AcDbEntity
  8
GR1-1
  6
CONTINUOUS
 62
     7
100
AcDbLine
 10
749.8019
 20
27.215521
 30
0.0
 11
750.49984
 21
27.913462
 31
0.0
  0
LINE
  5
381
330
1F
100
AcDbEntity
  8
GR1-1
  6
CONTINUOUS
 62
     7
100
AcDbLine
 10
749.8019
 20
27.286232
 30
0.0
 11
750.42913
 21
27.913462
 31
0.0
  0
LINE
  5
382
330
1F
100
AcDbEntity
  8
GR1-1
  6
CONTINUOUS
 62
     7
100
AcDbLine
 10
749.8019
 20
27.356942
 30
0.0
 11
750.358419
 21
27.913462
 31
0.0
  0
LINE
  5
383
330
1F
100
AcDbEntity
  8
GR1-1
  6
CONTINUOUS
 62
     7
100
AcDbLine
 10
749.8019
 20
27.427653
 30
0.0
 11
750.287708
 21
27.913462
 31
0.0
  0
LINE
  5
384
330
1F
100
AcDbEntity
  8
GR1-1
  6
CONTINUOUS
 62
     7
100
AcDbLine
 10
749.8019
 20
27.498364
 30
0.0
 11
750.216998
 21
27.913462
 31
0.0
  0
LINE
  5
385
330
1F
100
AcDbEntity
  8
GR1-1
  6
CONTINUOUS
 62
     7
100
AcDbLine
 10
749.8019
 20
27.569074
 30
0.0
 11
750.146287
 21
27.913462
 31
0.0
  0
LINE
  5
386
330
1F
100
AcDbEntity
  8
GR1-1
  6
CONTINUOUS
 62
     7
100
AcDbLine
 10
749.8019
 20
27.639785
 30
0.0
 11
750.075576
 21
27.913462
 31
0.0
  0
LINE
  5
387
330
1F
100
AcDbEntity
  8
GR1-1
  6
CONTINUOUS
 62
     7
100
AcDbLine
 10
749.8019
 20
27.710496
 30
0.0
 11
750.004866
 21
27.913462
 31
0.0
  0
LINE
  5
388
330
1F
100
AcDbEntity
  8
GR1-1
  6
CONTINUOUS
 62
     7
100
AcDbLine
 10
749.8019
 20
27.781206
 30
0.0
 11
749.934155
 21
27.913462
 31
0.0
  0
LINE
  5
389
330
1F
100
AcDbEntity
  8
GR1-1
  6
CONTINUOUS
 62
     7
100
AcDbLine
 10
749.8019
 20
27.851917
 30
0.0
 11
749.863444
 21
27.913462
 31
0.0
  0
LINE
  5
38A
330
1F
100
AcDbEntity
  8
GR1-1
  6
CONTINUOUS
 62
     7
100
AcDbLine
 10
750.793091
 20
21.913462
 30
0.0
 11
751.869611
 21
22.989981
 31
0.0
  0
LINE
  5
38B
330
1F
100
AcDbEntity
  8
GR1-1
  6
CONTINUOUS
 62
     7
100
AcDbLine
 10
752.685957
 20
23.806328
 30
0.0
 11
753.014245
 21
24.134615
 31
0.0
  0
LINE
  5
38C
330
1F
100
AcDbEntity
  8
GR1-1
  6
CONTINUOUS
 62
     7
100
AcDbLine
 10
753.879629
 20
25.0
 30
0.0
 11
754.225783
 21
25.346154
 31
0.0
  0
LINE
  5
38D
330
1F
100
AcDbEntity
  8
GR1-1
  6
CONTINUOUS
 62
     7
100
AcDbLine
 10
754.72538
 20
25.845751
 30
0.0
 11
755.8019
 21
26.922271
 31
0.0
  0
LINE
  5
38E
330
1F
100
AcDbEntity
  8
GR1-1
  6
CONTINUOUS
 62
     7
100
AcDbLine
 10
750.863801
 20
21.913462
 30
0.0
 11
751.904966
 21
22.954626
 31
0.0
  0
LINE
  5
38F
330
1F
100
AcDbEntity
  8
GR1-1
  6
CONTINUOUS
 62
     7
100
AcDbLine
 10
752.721312
 20
23.770972
 30
0.0
 11
753.084955
 21
24.134615
 31
0.0
  0
LINE
  5
390
330
1F
100
AcDbEntity
  8
GR1-1
  6
CONTINUOUS
 62
     7
100
AcDbLine
 10
753.95034
 20
25.0
 30
0.0
 11
754.296494
 21
25.346154
 31
0.0
  0
LINE
  5
391
330
1F
100
AcDbEntity
  8
GR1-1
  6
CONTINUOUS
 62
     7
100
AcDbLine
 10
754.760735
 20
25.810395
 30
0.0
 11
755.8019
 21
26.85156
 31
0.0
  0
LINE
  5
392
330
1F
100
AcDbEntity
  8
GR1-1
  6
CONTINUOUS
 62
     7
100
AcDbLine
 10
750.934512
 20
21.913462
 30
0.0
 11
751.940321
 21
22.919271
 31
0.0
  0
LINE
  5
393
330
1F
100
AcDbEntity
  8
GR1-1
  6
CONTINUOUS
 62
     7
100
AcDbLine
 10
752.756667
 20
23.735617
 30
0.0
 11
753.155666
 21
24.134615
 31
0.0
  0
LINE
  5
394
330
1F
100
AcDbEntity
  8
GR1-1
  6
CONTINUOUS
 62
     7
100
AcDbLine
 10
754.02105
 20
25.0
 30
0.0
 11
754.367204
 21
25.346154
 31
0.0
  0
LINE
  5
395
330
1F
100
AcDbEntity
  8
GR1-1
  6
CONTINUOUS
 62
     7
100
AcDbLine
 10
754.79609
 20
25.77504
 30
0.0
 11
755.8019
 21
26.780849
 31
0.0
  0
LINE
  5
396
330
1F
100
AcDbEntity
  8
GR1-1
  6
CONTINUOUS
 62
     7
100
AcDbLine
 10
751.005223
 20
21.913462
 30
0.0
 11
751.975677
 21
22.883915
 31
0.0
  0
LINE
  5
397
330
1F
100
AcDbEntity
  8
GR1-1
  6
CONTINUOUS
 62
     7
100
AcDbLine
 10
752.792023
 20
23.700262
 30
0.0
 11
753.226377
 21
24.134615
 31
0.0
  0
LINE
  5
398
330
1F
100
AcDbEntity
  8
GR1-1
  6
CONTINUOUS
 62
     7
100
AcDbLine
 10
754.091761
 20
25.0
 30
0.0
 11
754.437915
 21
25.346154
 31
0.0
  0
LINE
  5
399
330
1F
100
AcDbEntity
  8
GR1-1
  6
CONTINUOUS
 62
     7
100
AcDbLine
 10
754.831446
 20
25.739685
 30
0.0
 11
755.8019
 21
26.710139
 31
0.0
  0
LINE
  5
39A
330
1F
100
AcDbEntity
  8
GR1-1
  6
CONTINUOUS
 62
     7
100
AcDbLine
 10
751.075933
 20
21.913462
 30
0.0
 11
752.011032
 21
22.84856
 31
0.0
  0
LINE
  5
39B
330
1F
100
AcDbEntity
  8
GR1-1
  6
CONTINUOUS
 62
     7
100
AcDbLine
 10
754.162472
 20
25.0
 30
0.0
 11
754.508626
 21
25.346154
 31
0.0
  0
LINE
  5
39C
330
1F
100
AcDbEntity
  8
GR1-1
  6
CONTINUOUS
 62
     7
100
AcDbLine
 10
754.866801
 20
25.704329
 30
0.0
 11
755.8019
 21
26.639428
 31
0.0
  0
LINE
  5
39D
330
1F
100
AcDbEntity
  8
GR1-1
  6
CONTINUOUS
 62
     7
100
AcDbLine
 10
751.146644
 20
21.913462
 30
0.0
 11
752.046387
 21
22.813205
 31
0.0
  0
LINE
  5
39E
330
1F
100
AcDbEntity
  8
GR1-1
  6
CONTINUOUS
 62
     7
100
AcDbLine
 10
754.233183
 20
25.0
 30
0.0
 11
754.579336
 21
25.346154
 31
0.0
  0
LINE
  5
39F
330
1F
100
AcDbEntity
  8
GR1-1
  6
CONTINUOUS
 62
     7
100
AcDbLine
 10
754.902157
 20
25.668974
 30
0.0
 11
755.8019
 21
26.568717
 31
0.0
  0
LINE
  5
3A0
330
1F
100
AcDbEntity
  8
GR1-1
  6
CONTINUOUS
 62
     7
100
AcDbLine
 10
751.217355
 20
21.913462
 30
0.0
 11
752.081743
 21
22.777849
 31
0.0
  0
LINE
  5
3A1
330
1F
100
AcDbEntity
  8
GR1-1
  6
CONTINUOUS
 62
     7
100
AcDbLine
 10
754.303893
 20
25.0
 30
0.0
 11
754.650047
 21
25.346154
 31
0.0
  0
LINE
  5
3A2
330
1F
100
AcDbEntity
  8
GR1-1
  6
CONTINUOUS
 62
     7
100
AcDbLine
 10
754.937512
 20
25.633619
 30
0.0
 11
755.8019
 21
26.498007
 31
0.0
  0
LINE
  5
3A3
330
1F
100
AcDbEntity
  8
GR1-1
  6
CONTINUOUS
 62
     7
100
AcDbLine
 10
751.288065
 20
21.913462
 30
0.0
 11
752.117098
 21
22.742494
 31
0.0
  0
LINE
  5
3A4
330
1F
100
AcDbEntity
  8
GR1-1
  6
CONTINUOUS
 62
     7
100
AcDbLine
 10
754.374604
 20
25.0
 30
0.0
 11
754.720758
 21
25.346154
 31
0.0
  0
LINE
  5
3A5
330
1F
100
AcDbEntity
  8
GR1-1
  6
CONTINUOUS
 62
     7
100
AcDbLine
 10
754.972867
 20
25.598263
 30
0.0
 11
755.8019
 21
26.427296
 31
0.0
  0
LINE
  5
3A6
330
1F
100
AcDbEntity
  8
GR1-1
  6
CONTINUOUS
 62
     7
100
AcDbLine
 10
751.358776
 20
21.913462
 30
0.0
 11
752.152453
 21
22.707139
 31
0.0
  0
LINE
  5
3A7
330
1F
100
AcDbEntity
  8
GR1-1
  6
CONTINUOUS
 62
     7
100
AcDbLine
 10
754.445315
 20
25.0
 30
0.0
 11
754.791468
 21
25.346154
 31
0.0
  0
LINE
  5
3A8
330
1F
100
AcDbEntity
  8
GR1-1
  6
CONTINUOUS
 62
     7
100
AcDbLine
 10
755.008223
 20
25.562908
 30
0.0
 11
755.8019
 21
26.356585
 31
0.0
  0
LINE
  5
3A9
330
1F
100
AcDbEntity
  8
GR1-1
  6
CONTINUOUS
 62
     7
100
AcDbLine
 10
751.429487
 20
21.913462
 30
0.0
 11
752.187809
 21
22.671783
 31
0.0
  0
LINE
  5
3AA
330
1F
100
AcDbEntity
  8
GR1-1
  6
CONTINUOUS
 62
     7
100
AcDbLine
 10
754.516025
 20
25.0
 30
0.0
 11
754.862179
 21
25.346154
 31
0.0
  0
LINE
  5
3AB
330
1F
100
AcDbEntity
  8
GR1-1
  6
CONTINUOUS
 62
     7
100
AcDbLine
 10
755.043578
 20
25.527553
 30
0.0
 11
755.8019
 21
26.285875
 31
0.0
  0
LINE
  5
3AC
330
1F
100
AcDbEntity
  8
GR1-1
  6
CONTINUOUS
 62
     7
100
AcDbLine
 10
751.500197
 20
21.913462
 30
0.0
 11
752.223164
 21
22.636428
 31
0.0
  0
LINE
  5
3AD
330
1F
100
AcDbEntity
  8
GR1-1
  6
CONTINUOUS
 62
     7
100
AcDbLine
 10
754.586736
 20
25.0
 30
0.0
 11
754.93289
 21
25.346154
 31
0.0
  0
LINE
  5
3AE
330
1F
100
AcDbEntity
  8
GR1-1
  6
CONTINUOUS
 62
     7
100
AcDbLine
 10
755.078933
 20
25.492197
 30
0.0
 11
755.8019
 21
26.215164
 31
0.0
  0
LINE
  5
3AF
330
1F
100
AcDbEntity
  8
GR1-1
  6
CONTINUOUS
 62
     7
100
AcDbLine
 10
751.570908
 20
21.913462
 30
0.0
 11
752.258519
 21
22.601073
 31
0.0
  0
LINE
  5
3B0
330
1F
100
AcDbEntity
  8
GR1-1
  6
CONTINUOUS
 62
     7
100
AcDbLine
 10
754.657447
 20
25.0
 30
0.0
 11
755.0036
 21
25.346154
 31
0.0
  0
LINE
  5
3B1
330
1F
100
AcDbEntity
  8
GR1-1
  6
CONTINUOUS
 62
     7
100
AcDbLine
 10
755.114289
 20
25.456842
 30
0.0
 11
755.8019
 21
26.144453
 31
0.0
  0
LINE
  5
3B2
330
1F
100
AcDbEntity
  8
GR1-1
  6
CONTINUOUS
 62
     7
100
AcDbLine
 10
751.641619
 20
21.913462
 30
0.0
 11
752.293875
 21
22.565717
 31
0.0
  0
LINE
  5
3B3
330
1F
100
AcDbEntity
  8
GR1-1
  6
CONTINUOUS
 62
     7
100
AcDbLine
 10
754.728157
 20
25.0
 30
0.0
 11
755.074311
 21
25.346154
 31
0.0
  0
LINE
  5
3B4
330
1F
100
AcDbEntity
  8
GR1-1
  6
CONTINUOUS
 62
     7
100
AcDbLine
 10
755.149644
 20
25.421487
 30
0.0
 11
755.8019
 21
26.073743
 31
0.0
  0
LINE
  5
3B5
330
1F
100
AcDbEntity
  8
GR1-1
  6
CONTINUOUS
 62
     7
100
AcDbLine
 10
751.712329
 20
21.913462
 30
0.0
 11
752.32923
 21
22.530362
 31
0.0
  0
LINE
  5
3B6
330
1F
100
AcDbEntity
  8
GR1-1
  6
CONTINUOUS
 62
     7
100
AcDbLine
 10
754.798868
 20
25.0
 30
0.0
 11
755.145022
 21
25.346154
 31
0.0
  0
LINE
  5
3B7
330
1F
100
AcDbEntity
  8
GR1-1
  6
CONTINUOUS
 62
     7
100
AcDbLine
 10
755.184999
 20
25.386131
 30
0.0
 11
755.8019
 21
26.003032
 31
0.0
  0
LINE
  5
3B8
330
1F
100
AcDbEntity
  8
GR1-1
  6
CONTINUOUS
 62
     7
100
AcDbLine
 10
751.78304
 20
21.913462
 30
0.0
 11
752.364585
 21
22.495007
 31
0.0
  0
LINE
  5
3B9
330
1F
100
AcDbEntity
  8
GR1-1
  6
CONTINUOUS
 62
     7
100
AcDbLine
 10
754.869579
 20
25.0
 30
0.0
 11
755.215732
 21
25.346154
 31
0.0
  0
LINE
  5
3BA
330
1F
100
AcDbEntity
  8
GR1-1
  6
CONTINUOUS
 62
     7
100
AcDbLine
 10
755.220355
 20
25.350776
 30
0.0
 11
755.8019
 21
25.932321
 31
0.0
  0
LINE
  5
3BB
330
1F
100
AcDbEntity
  8
GR1-1
  6
CONTINUOUS
 62
     7
100
AcDbLine
 10
751.853751
 20
21.913462
 30
0.0
 11
752.399941
 21
22.459651
 31
0.0
  0
LINE
  5
3BC
330
1F
100
AcDbEntity
  8
GR1-1
  6
CONTINUOUS
 62
     7
100
AcDbLine
 10
754.940289
 20
25.0
 30
0.0
 11
755.8019
 21
25.86161
 31
0.0
  0
LINE
  5
3BD
330
1F
100
AcDbEntity
  8
GR1-1
  6
CONTINUOUS
 62
     7
100
AcDbLine
 10
751.924461
 20
21.913462
 30
0.0
 11
752.435296
 21
22.424296
 31
0.0
  0
LINE
  5
3BE
330
1F
100
AcDbEntity
  8
GR1-1
  6
CONTINUOUS
 62
     7
100
AcDbLine
 10
755.011
 20
25.0
 30
0.0
 11
755.8019
 21
25.7909
 31
0.0
  0
LINE
  5
3BF
330
1F
100
AcDbEntity
  8
GR1-1
  6
CONTINUOUS
 62
     7
100
AcDbLine
 10
751.995172
 20
21.913462
 30
0.0
 11
752.470651
 21
22.388941
 31
0.0
  0
LINE
  5
3C0
330
1F
100
AcDbEntity
  8
GR1-1
  6
CONTINUOUS
 62
     7
100
AcDbLine
 10
755.081711
 20
25.0
 30
0.0
 11
755.8019
 21
25.720189
 31
0.0
  0
LINE
  5
3C1
330
1F
100
AcDbEntity
  8
GR1-1
  6
CONTINUOUS
 62
     7
100
AcDbLine
 10
752.065883
 20
21.913462
 30
0.0
 11
752.506007
 21
22.353585
 31
0.0
  0
LINE
  5
3C2
330
1F
100
AcDbEntity
  8
GR1-1
  6
CONTINUOUS
 62
     7
100
AcDbLine
 10
755.152421
 20
25.0
 30
0.0
 11
755.8019
 21
25.649478
 31
0.0
  0
LINE
  5
3C3
330
1F
100
AcDbEntity
  8
GR1-1
  6
CONTINUOUS
 62
     7
100
AcDbLine
 10
752.136594
 20
21.913462
 30
0.0
 11
752.541362
 21
22.31823
 31
0.0
  0
LINE
  5
3C4
330
1F
100
AcDbEntity
  8
GR1-1
  6
CONTINUOUS
 62
     7
100
AcDbLine
 10
755.223132
 20
25.0
 30
0.0
 11
755.8019
 21
25.578768
 31
0.0
  0
LINE
  5
3C5
330
1F
100
AcDbEntity
  8
GR1-1
  6
CONTINUOUS
 62
     7
100
AcDbLine
 10
752.207304
 20
21.913462
 30
0.0
 11
752.576717
 21
22.282875
 31
0.0
  0
LINE
  5
3C6
330
1F
100
AcDbEntity
  8
GR1-1
  6
CONTINUOUS
 62
     7
100
AcDbLine
 10
755.224977
 20
24.931134
 30
0.0
 11
755.8019
 21
25.508057
 31
0.0
  0
LINE
  5
3C7
330
1F
100
AcDbEntity
  8
GR1-1
  6
CONTINUOUS
 62
     7
100
AcDbLine
 10
752.278015
 20
21.913462
 30
0.0
 11
752.612073
 21
22.247519
 31
0.0
  0
LINE
  5
3C8
330
1F
100
AcDbEntity
  8
GR1-1
  6
CONTINUOUS
 62
     7
100
AcDbLine
 10
755.224977
 20
24.860423
 30
0.0
 11
755.8019
 21
25.437346
 31
0.0
  0
LINE
  5
3C9
330
1F
100
AcDbEntity
  8
GR1-1
  6
CONTINUOUS
 62
     7
100
AcDbLine
 10
752.348726
 20
21.913462
 30
0.0
 11
752.647428
 21
22.212164
 31
0.0
  0
LINE
  5
3CA
330
1F
100
AcDbEntity
  8
GR1-1
  6
CONTINUOUS
 62
     7
100
AcDbLine
 10
755.224977
 20
24.789713
 30
0.0
 11
755.8019
 21
25.366636
 31
0.0
  0
LINE
  5
3CB
330
1F
100
AcDbEntity
  8
GR1-1
  6
CONTINUOUS
 62
     7
100
AcDbLine
 10
752.419436
 20
21.913462
 30
0.0
 11
752.682783
 21
22.176809
 31
0.0
  0
LINE
  5
3CC
330
1F
100
AcDbEntity
  8
GR1-1
  6
CONTINUOUS
 62
     7
100
AcDbLine
 10
755.224977
 20
24.719002
 30
0.0
 11
755.8019
 21
25.295925
 31
0.0
  0
LINE
  5
3CD
330
1F
100
AcDbEntity
  8
GR1-1
  6
CONTINUOUS
 62
     7
100
AcDbLine
 10
752.490147
 20
21.913462
 30
0.0
 11
752.718139
 21
22.141453
 31
0.0
  0
LINE
  5
3CE
330
1F
100
AcDbEntity
  8
GR1-1
  6
CONTINUOUS
 62
     7
100
AcDbLine
 10
755.224977
 20
24.648291
 30
0.0
 11
755.8019
 21
25.225214
 31
0.0
  0
LINE
  5
3CF
330
1F
100
AcDbEntity
  8
GR1-1
  6
CONTINUOUS
 62
     7
100
AcDbLine
 10
752.560858
 20
21.913462
 30
0.0
 11
752.753494
 21
22.106098
 31
0.0
  0
LINE
  5
3D0
330
1F
100
AcDbEntity
  8
GR1-1
  6
CONTINUOUS
 62
     7
100
AcDbLine
 10
755.224977
 20
24.577581
 30
0.0
 11
755.8019
 21
25.154504
 31
0.0
  0
LINE
  5
3D1
330
1F
100
AcDbEntity
  8
GR1-1
  6
CONTINUOUS
 62
     7
100
AcDbLine
 10
752.631568
 20
21.913462
 30
0.0
 11
752.788849
 21
22.070743
 31
0.0
  0
LINE
  5
3D2
330
1F
100
AcDbEntity
  8
GR1-1
  6
CONTINUOUS
 62
     7
100
AcDbLine
 10
755.224977
 20
24.50687
 30
0.0
 11
755.8019
 21
25.083793
 31
0.0
  0
LINE
  5
3D3
330
1F
100
AcDbEntity
  8
GR1-1
  6
CONTINUOUS
 62
     7
100
AcDbLine
 10
752.702279
 20
21.913462
 30
0.0
 11
754.359592
 21
23.570775
 31
0.0
  0
LINE
  5
3D4
330
1F
100
AcDbEntity
  8
GR1-1
  6
CONTINUOUS
 62
     7
100
AcDbLine
 10
755.224977
 20
24.436159
 30
0.0
 11
755.8019
 21
25.013082
 31
0.0
  0
LINE
  5
3D5
330
1F
100
AcDbEntity
  8
GR1-1
  6
CONTINUOUS
 62
     7
100
AcDbLine
 10
752.77299
 20
21.913462
 30
0.0
 11
754.359592
 21
23.500064
 31
0.0
  0
LINE
  5
3D6
330
1F
100
AcDbEntity
  8
GR1-1
  6
CONTINUOUS
 62
     7
100
AcDbLine
 10
755.224977
 20
24.365449
 30
0.0
 11
755.8019
 21
24.942372
 31
0.0
  0
LINE
  5
3D7
330
1F
100
AcDbEntity
  8
GR1-1
  6
CONTINUOUS
 62
     7
100
AcDbLine
 10
752.8437
 20
21.913462
 30
0.0
 11
754.359592
 21
23.429353
 31
0.0
  0
LINE
  5
3D8
330
1F
100
AcDbEntity
  8
GR1-1
  6
CONTINUOUS
 62
     7
100
AcDbLine
 10
755.224977
 20
24.294738
 30
0.0
 11
755.8019
 21
24.871661
 31
0.0
  0
LINE
  5
3D9
330
1F
100
AcDbEntity
  8
GR1-1
  6
CONTINUOUS
 62
     7
100
AcDbLine
 10
752.914411
 20
21.913462
 30
0.0
 11
754.359592
 21
23.358643
 31
0.0
  0
LINE
  5
3DA
330
1F
100
AcDbEntity
  8
GR1-1
  6
CONTINUOUS
 62
     7
100
AcDbLine
 10
755.224977
 20
24.224027
 30
0.0
 11
755.8019
 21
24.80095
 31
0.0
  0
LINE
  5
3DB
330
1F
100
AcDbEntity
  8
GR1-1
  6
CONTINUOUS
 62
     7
100
AcDbLine
 10
752.985122
 20
21.913462
 30
0.0
 11
754.359592
 21
23.287932
 31
0.0
  0
LINE
  5
3DC
330
1F
100
AcDbEntity
  8
GR1-1
  6
CONTINUOUS
 62
     7
100
AcDbLine
 10
755.224977
 20
24.153317
 30
0.0
 11
755.8019
 21
24.73024
 31
0.0
  0
LINE
  5
3DD
330
1F
100
AcDbEntity
  8
GR1-1
  6
CONTINUOUS
 62
     7
100
AcDbLine
 10
753.055832
 20
21.913462
 30
0.0
 11
754.359592
 21
23.217221
 31
0.0
  0
LINE
  5
3DE
330
1F
100
AcDbEntity
  8
GR1-1
  6
CONTINUOUS
 62
     7
100
AcDbLine
 10
755.224977
 20
24.082606
 30
0.0
 11
755.8019
 21
24.659529
 31
0.0
  0
LINE
  5
3DF
330
1F
100
AcDbEntity
  8
GR1-1
  6
CONTINUOUS
 62
     7
100
AcDbLine
 10
753.126543
 20
21.913462
 30
0.0
 11
754.359592
 21
23.146511
 31
0.0
  0
LINE
  5
3E0
330
1F
100
AcDbEntity
  8
GR1-1
  6
CONTINUOUS
 62
     7
100
AcDbLine
 10
755.224977
 20
24.011895
 30
0.0
 11
755.8019
 21
24.588818
 31
0.0
  0
LINE
  5
3E1
330
1F
100
AcDbEntity
  8
GR1-1
  6
CONTINUOUS
 62
     7
100
AcDbLine
 10
753.197254
 20
21.913462
 30
0.0
 11
754.359592
 21
23.0758
 31
0.0
  0
LINE
  5
3E2
330
1F
100
AcDbEntity
  8
GR1-1
  6
CONTINUOUS
 62
     7
100
AcDbLine
 10
755.224977
 20
23.941185
 30
0.0
 11
755.8019
 21
24.518108
 31
0.0
  0
LINE
  5
3E3
330
1F
100
AcDbEntity
  8
GR1-1
  6
CONTINUOUS
 62
     7
100
AcDbLine
 10
753.267964
 20
21.913462
 30
0.0
 11
754.359592
 21
23.005089
 31
0.0
  0
LINE
  5
3E4
330
1F
100
AcDbEntity
  8
GR1-1
  6
CONTINUOUS
 62
     7
100
AcDbLine
 10
755.224977
 20
23.870474
 30
0.0
 11
755.8019
 21
24.447397
 31
0.0
  0
LINE
  5
3E5
330
1F
100
AcDbEntity
  8
GR1-1
  6
CONTINUOUS
 62
     7
100
AcDbLine
 10
753.338675
 20
21.913462
 30
0.0
 11
754.405983
 21
22.980769
 31
0.0
  0
LINE
  5
3E6
330
1F
100
AcDbEntity
  8
GR1-1
  6
CONTINUOUS
 62
     7
100
AcDbLine
 10
755.224977
 20
23.799763
 30
0.0
 11
755.8019
 21
24.376686
 31
0.0
  0
LINE
  5
3E7
330
1F
100
AcDbEntity
  8
GR1-1
  6
CONTINUOUS
 62
     7
100
AcDbLine
 10
753.409386
 20
21.913462
 30
0.0
 11
754.476693
 21
22.980769
 31
0.0
  0
LINE
  5
3E8
330
1F
100
AcDbEntity
  8
GR1-1
  6
CONTINUOUS
 62
     7
100
AcDbLine
 10
755.224977
 20
23.729052
 30
0.0
 11
755.8019
 21
24.305976
 31
0.0
  0
LINE
  5
3E9
330
1F
100
AcDbEntity
  8
GR1-1
  6
CONTINUOUS
 62
     7
100
AcDbLine
 10
753.480096
 20
21.913462
 30
0.0
 11
754.547404
 21
22.980769
 31
0.0
  0
LINE
  5
3EA
330
1F
100
AcDbEntity
  8
GR1-1
  6
CONTINUOUS
 62
     7
100
AcDbLine
 10
755.224977
 20
23.658342
 30
0.0
 11
755.8019
 21
24.235265
 31
0.0
  0
LINE
  5
3EB
330
1F
100
AcDbEntity
  8
GR1-1
  6
CONTINUOUS
 62
     7
100
AcDbLine
 10
753.550807
 20
21.913462
 30
0.0
 11
754.618115
 21
22.980769
 31
0.0
  0
LINE
  5
3EC
330
1F
100
AcDbEntity
  8
GR1-1
  6
CONTINUOUS
 62
     7
100
AcDbLine
 10
755.224977
 20
23.587631
 30
0.0
 11
755.8019
 21
24.164554
 31
0.0
  0
LINE
  5
3ED
330
1F
100
AcDbEntity
  8
GR1-1
  6
CONTINUOUS
 62
     7
100
AcDbLine
 10
753.621518
 20
21.913462
 30
0.0
 11
754.688825
 21
22.980769
 31
0.0
  0
LINE
  5
3EE
330
1F
100
AcDbEntity
  8
GR1-1
  6
CONTINUOUS
 62
     7
100
AcDbLine
 10
755.224977
 20
23.51692
 30
0.0
 11
755.8019
 21
24.093844
 31
0.0
  0
LINE
  5
3EF
330
1F
100
AcDbEntity
  8
GR1-1
  6
CONTINUOUS
 62
     7
100
AcDbLine
 10
753.692228
 20
21.913462
 30
0.0
 11
754.759536
 21
22.980769
 31
0.0
  0
LINE
  5
3F0
330
1F
100
AcDbEntity
  8
GR1-1
  6
CONTINUOUS
 62
     7
100
AcDbLine
 10
755.224977
 20
23.44621
 30
0.0
 11
755.8019
 21
24.023133
 31
0.0
  0
LINE
  5
3F1
330
1F
100
AcDbEntity
  8
GR1-1
  6
CONTINUOUS
 62
     7
100
AcDbLine
 10
753.762939
 20
21.913462
 30
0.0
 11
754.830247
 21
22.980769
 31
0.0
  0
LINE
  5
3F2
330
1F
100
AcDbEntity
  8
GR1-1
  6
CONTINUOUS
 62
     7
100
AcDbLine
 10
755.224977
 20
23.375499
 30
0.0
 11
755.8019
 21
23.952422
 31
0.0
  0
LINE
  5
3F3
330
1F
100
AcDbEntity
  8
GR1-1
  6
CONTINUOUS
 62
     7
100
AcDbLine
 10
753.83365
 20
21.913462
 30
0.0
 11
754.900958
 21
22.980769
 31
0.0
  0
LINE
  5
3F4
330
1F
100
AcDbEntity
  8
GR1-1
  6
CONTINUOUS
 62
     7
100
AcDbLine
 10
755.224977
 20
23.304788
 30
0.0
 11
755.8019
 21
23.881712
 31
0.0
  0
LINE
  5
3F5
330
1F
100
AcDbEntity
  8
GR1-1
  6
CONTINUOUS
 62
     7
100
AcDbLine
 10
753.90436
 20
21.913462
 30
0.0
 11
754.971668
 21
22.980769
 31
0.0
  0
LINE
  5
3F6
330
1F
100
AcDbEntity
  8
GR1-1
  6
CONTINUOUS
 62
     7
100
AcDbLine
 10
755.224977
 20
23.234078
 30
0.0
 11
755.8019
 21
23.811001
 31
0.0
  0
LINE
  5
3F7
330
1F
100
AcDbEntity
  8
GR1-1
  6
CONTINUOUS
 62
     7
100
AcDbLine
 10
753.975071
 20
21.913462
 30
0.0
 11
755.042379
 21
22.980769
 31
0.0
  0
LINE
  5
3F8
330
1F
100
AcDbEntity
  8
GR1-1
  6
CONTINUOUS
 62
     7
100
AcDbLine
 10
755.224977
 20
23.163367
 30
0.0
 11
755.8019
 21
23.74029
 31
0.0
  0
LINE
  5
3F9
330
1F
100
AcDbEntity
  8
GR1-1
  6
CONTINUOUS
 62
     7
100
AcDbLine
 10
754.045782
 20
21.913462
 30
0.0
 11
755.11309
 21
22.980769
 31
0.0
  0
LINE
  5
3FA
330
1F
100
AcDbEntity
  8
GR1-1
  6
CONTINUOUS
 62
     7
100
AcDbLine
 10
755.224977
 20
23.092656
 30
0.0
 11
755.8019
 21
23.669579
 31
0.0
  0
LINE
  5
3FB
330
1F
100
AcDbEntity
  8
GR1-1
  6
CONTINUOUS
 62
     7
100
AcDbLine
 10
754.116493
 20
21.913462
 30
0.0
 11
755.1838
 21
22.980769
 31
0.0
  0
LINE
  5
3FC
330
1F
100
AcDbEntity
  8
GR1-1
  6
CONTINUOUS
 62
     7
100
AcDbLine
 10
755.224977
 20
23.021946
 30
0.0
 11
755.8019
 21
23.598869
 31
0.0
  0
LINE
  5
3FD
330
1F
100
AcDbEntity
  8
GR1-1
  6
CONTINUOUS
 62
     7
100
AcDbLine
 10
754.187203
 20
21.913462
 30
0.0
 11
755.8019
 21
23.528158
 31
0.0
  0
LINE
  5
3FE
330
1F
100
AcDbEntity
  8
GR1-1
  6
CONTINUOUS
 62
     7
100
AcDbLine
 10
754.257914
 20
21.913462
 30
0.0
 11
755.8019
 21
23.457447
 31
0.0
  0
LINE
  5
3FF
330
1F
100
AcDbEntity
  8
GR1-1
  6
CONTINUOUS
 62
     7
100
AcDbLine
 10
754.328625
 20
21.913462
 30
0.0
 11
755.8019
 21
23.386737
 31
0.0
  0
LINE
  5
400
330
1F
100
AcDbEntity
  8
GR1-1
  6
CONTINUOUS
 62
     7
100
AcDbLine
 10
754.399335
 20
21.913462
 30
0.0
 11
755.8019
 21
23.316026
 31
0.0
  0
LINE
  5
401
330
1F
100
AcDbEntity
  8
GR1-1
  6
CONTINUOUS
 62
     7
100
AcDbLine
 10
754.470046
 20
21.913462
 30
0.0
 11
755.8019
 21
23.245315
 31
0.0
  0
LINE
  5
402
330
1F
100
AcDbEntity
  8
GR1-1
  6
CONTINUOUS
 62
     7
100
AcDbLine
 10
754.540757
 20
21.913462
 30
0.0
 11
755.8019
 21
23.174605
 31
0.0
  0
LINE
  5
403
330
1F
100
AcDbEntity
  8
GR1-1
  6
CONTINUOUS
 62
     7
100
AcDbLine
 10
754.611467
 20
21.913462
 30
0.0
 11
755.8019
 21
23.103894
 31
0.0
  0
LINE
  5
404
330
1F
100
AcDbEntity
  8
GR1-1
  6
CONTINUOUS
 62
     7
100
AcDbLine
 10
754.682178
 20
21.913462
 30
0.0
 11
755.8019
 21
23.033183
 31
0.0
  0
LINE
  5
405
330
1F
100
AcDbEntity
  8
GR1-1
  6
CONTINUOUS
 62
     7
100
AcDbLine
 10
754.752889
 20
21.913462
 30
0.0
 11
755.8019
 21
22.962473
 31
0.0
  0
LINE
  5
406
330
1F
100
AcDbEntity
  8
GR1-1
  6
CONTINUOUS
 62
     7
100
AcDbLine
 10
754.823599
 20
21.913462
 30
0.0
 11
755.8019
 21
22.891762
 31
0.0
  0
LINE
  5
407
330
1F
100
AcDbEntity
  8
GR1-1
  6
CONTINUOUS
 62
     7
100
AcDbLine
 10
754.89431
 20
21.913462
 30
0.0
 11
755.8019
 21
22.821051
 31
0.0
  0
LINE
  5
408
330
1F
100
AcDbEntity
  8
GR1-1
  6
CONTINUOUS
 62
     7
100
AcDbLine
 10
754.965021
 20
21.913462
 30
0.0
 11
755.8019
 21
22.750341
 31
0.0
  0
LINE
  5
409
330
1F
100
AcDbEntity
  8
GR1-1
  6
CONTINUOUS
 62
     7
100
AcDbLine
 10
755.035731
 20
21.913462
 30
0.0
 11
755.8019
 21
22.67963
 31
0.0
  0
LINE
  5
40A
330
1F
100
AcDbEntity
  8
GR1-1
  6
CONTINUOUS
 62
     7
100
AcDbLine
 10
755.106442
 20
21.913462
 30
0.0
 11
755.8019
 21
22.608919
 31
0.0
  0
LINE
  5
40B
330
1F
100
AcDbEntity
  8
GR1-1
  6
CONTINUOUS
 62
     7
100
AcDbLine
 10
755.177153
 20
21.913462
 30
0.0
 11
755.8019
 21
22.538209
 31
0.0
  0
LINE
  5
40C
330
1F
100
AcDbEntity
  8
GR1-1
  6
CONTINUOUS
 62
     7
100
AcDbLine
 10
755.247863
 20
21.913462
 30
0.0
 11
755.8019
 21
22.467498
 31
0.0
  0
LINE
  5
40D
330
1F
100
AcDbEntity
  8
GR1-1
  6
CONTINUOUS
 62
     7
100
AcDbLine
 10
755.318574
 20
21.913462
 30
0.0
 11
755.8019
 21
22.396787
 31
0.0
  0
LINE
  5
40E
330
1F
100
AcDbEntity
  8
GR1-1
  6
CONTINUOUS
 62
     7
100
AcDbLine
 10
755.389285
 20
21.913462
 30
0.0
 11
755.8019
 21
22.326077
 31
0.0
  0
LINE
  5
40F
330
1F
100
AcDbEntity
  8
GR1-1
  6
CONTINUOUS
 62
     7
100
AcDbLine
 10
755.459995
 20
21.913462
 30
0.0
 11
755.8019
 21
22.255366
 31
0.0
  0
LINE
  5
410
330
1F
100
AcDbEntity
  8
GR1-1
  6
CONTINUOUS
 62
     7
100
AcDbLine
 10
755.530706
 20
21.913462
 30
0.0
 11
755.8019
 21
22.184655
 31
0.0
  0
LINE
  5
411
330
1F
100
AcDbEntity
  8
GR1-1
  6
CONTINUOUS
 62
     7
100
AcDbLine
 10
755.601417
 20
21.913462
 30
0.0
 11
755.8019
 21
22.113945
 31
0.0
  0
LINE
  5
412
330
1F
100
AcDbEntity
  8
GR1-1
  6
CONTINUOUS
 62
     7
100
AcDbLine
 10
755.672127
 20
21.913462
 30
0.0
 11
755.8019
 21
22.043234
 31
0.0
  0
LINE
  5
413
330
1F
100
AcDbEntity
  8
GR1-1
  6
CONTINUOUS
 62
     7
100
AcDbLine
 10
755.742838
 20
21.913462
 30
0.0
 11
755.8019
 21
21.972523
 31
0.0
  0
LINE
  5
414
330
1F
100
AcDbEntity
  8
GR1-1
  6
CONTINUOUS
 62
    66
100
AcDbLine
 10
233.012586
 20
277.357746
 30
0.0
 11
231.714921
 21
290.833502
 31
0.0
  0
ARC
  5
415
330
1F
100
AcDbEntity
  8
GR1-1
  6
CONTINUOUS
 62
    66
100
AcDbCircle
 10
881.500359
 20
352.594936
 30
0.0
 40
652.8376718259088
100
AcDbArc
 50
186.617837
 51
190.295978
  0
ARC
  5
416
330
1F
100
AcDbEntity
  8
LAYERGROUP-1
  6
CONTINUOUS
 62
    66
100
AcDbCircle
 10
494.981231
 20
200.09387
 30
0.0
 40
31.5
100
AcDbArc
 50
358.78327
 51
360.0
  0
ENDSEC
  0
SECTION
  2
OBJECTS
  0
DICTIONARY
  5
C
330
0
100
AcDbDictionary
  3
ACAD_GROUP
350
D
  3
ACAD_LAYOUT
350
1A
  3
ACAD_MLINESTYLE
350
17
  3
ACAD_PLOTSETTINGS
350
19
  3
ACDBHEADERROUNDTRIPXREC
350
417
  0
DICTIONARY
  5
D
102
{ACAD_REACTORS
330
C
102
}
330
C
100
AcDbDictionary
  0
DICTIONARY
  5
1A
102
{ACAD_REACTORS
330
C
102
}
330
C
100
AcDbDictionary
  0
DICTIONARY
  5
17
102
{ACAD_REACTORS
330
C
102
}
330
C
100
AcDbDictionary
  3
STANDARD
350
18
  0
DICTIONARY
  5
19
102
{ACAD_REACTORS
330
C
102
}
330
C
100
AcDbDictionary
  0
DICTIONARY
  5
417
102
{ACAD_REACTORS
330
C
102
}
330
C
100
AcDbDictionary
  3
CEPSNTYPE
350
420
  3
DIMSTYLEDATA
350
436
  3
FINGERPRINTGUID
350
421
  3
HYPERLINKBASE
350
41A
  3
INSUNITS
350
41F
  3
LAYOUTDICT
350
41C
  3
LWETCUNION
350
41E
  3
PLOTSETDICT
350
41D
  3
PSVPSCALE
350
423
  3
PUCSBASE
350
426
  3
PUCSORGBACK
350
42C
  3
PUCSORGBOTTOM
350
428
  3
PUCSORGFRONT
350
42B
  3
PUCSORGLEFT
350
429
  3
PUCSORGRIGHT
350
42A
  3
PUCSORGTOP
350
427
  3
PUCSORTHOREF
350
424
  3
PUCSORTHOVIEW
350
425
  3
STYLESHEET
350
41B
  3
TSTACKALIGN
350
418
  3
TSTACKSIZE
350
419
  3
UCSBASE
350
42F
  3
UCSORGBACK
350
435
  3
UCSORGBOTTOM
350
431
  3
UCSORGFRONT
350
434
  3
UCSORGLEFT
350
432
  3
UCSORGRIGHT
350
433
  3
UCSORGTOP
350
430
  3
UCSORTHOREF
350
42D
  3
UCSORTHOVIEW
350
42E
  3
VERSIONGUID
350
422
  0
MLINESTYLE
  5
18
102
{ACAD_REACTORS
330
17
102
}
330
17
100
AcDbMlineStyle
  2
Standard
 70
     0
  3

 62
   256
 51
90.0
 52
90.0
 71
     2
 49
0.5
 62
   256
  6
BYLAYER
 49
-0.5
 62
   256
  6
BYLAYER
  0
XRECORD
  5
420
102
{ACAD_REACTORS
330
417
102
}
330
417
100
AcDbXrecord
 90
        0
  0
XRECORD
  5
436
102
{ACAD_REACTORS
330
417
102
}
330
417
100
AcDbXrecord
1000
DSTYLE
1002
{
1070
   179
 70
     2
1070
   171
 70
     3
1070
   143
 40
0.03937
1070
   274
 70
     3
1070
    41
 40
4.0
1070
   343
340
41
1070
   344
340
47
1070
   141
 40
2.5
1070
   176
 70
     7
1070
   177
 70
     7
1070
   178
 70
     7
1070
   271
 70
     2
1070
    46
 40
6.0
1070
    43
 40
10.0
1070
    44
 40
1.0
1070
    42
 40
1.0
1070
   147
 40
1.0
1070
   341
340
41
1070
   173
 70
     1
1070
    77
 70
     1
1070
   272
 70
     2
1070
    73
 70
     0
1070
   172
 70
     1
1070
    74
 70
     0
1070
   283
 70
     0
1070
   340
340
3F
1070
   140
 40
4.0
1070
   284
 70
     8
1070
    78
 70
     8
1002
}
  0
XRECORD
  5
421
102
{ACAD_REACTORS
330
417
102
}
330
417
100
AcDbXrecord
  1
{2D39D188-B399-4813-B375-C7A89118A9DF}
  0
XRECORD
  5
41A
102
{ACAD_REACTORS
330
417
102
}
330
417
100
AcDbXrecord
  1

  0
XRECORD
  5
41F
102
{ACAD_REACTORS
330
417
102
}
330
417
100
AcDbXrecord
 90
        1
  0
XRECORD
  5
41C
102
{ACAD_REACTORS
330
417
102
}
330
417
100
AcDbXrecord
340
1A
  0
XRECORD
  5
41E
102
{ACAD_REACTORS
330
417
102
}
330
417
100
AcDbXrecord
 90
    10781
  0
XRECORD
  5
41D
102
{ACAD_REACTORS
330
417
102
}
330
417
100
AcDbXrecord
340
19
  0
XRECORD
  5
423
102
{ACAD_REACTORS
330
417
102
}
330
417
100
AcDbXrecord
 40
0.0
  0
XRECORD
  5
426
102
{ACAD_REACTORS
330
417
102
}
330
417
100
AcDbXrecord
340
0
  0
XRECORD
  5
42C
102
{ACAD_REACTORS
330
417
102
}
330
417
100
AcDbXrecord
 10
0.0
 20
0.0
 30
0.0
  0
XRECORD
  5
428
102
{ACAD_REACTORS
330
417
102
}
330
417
100
AcDbXrecord
 10
0.0
 20
0.0
 30
0.0
  0
XRECORD
  5
42B
102
{ACAD_REACTORS
330
417
102
}
330
417
100
AcDbXrecord
 10
0.0
 20
0.0
 30
0.0
  0
XRECORD
  5
429
102
{ACAD_REACTORS
330
417
102
}
330
417
100
AcDbXrecord
 10
0.0
 20
0.0
 30
0.0
  0
XRECORD
  5
42A
102
{ACAD_REACTORS
330
417
102
}
330
417
100
AcDbXrecord
 10
0.0
 20
0.0
 30
0.0
  0
XRECORD
  5
427
102
{ACAD_REACTORS
330
417
102
}
330
417
100
AcDbXrecord
 10
0.0
 20
0.0
 30
0.0
  0
XRECORD
  5
424
102
{ACAD_REACTORS
330
417
102
}
330
417
100
AcDbXrecord
340
0
  0
XRECORD
  5
425
102
{ACAD_REACTORS
330
417
102
}
330
417
100
AcDbXrecord
 70
     0
  0
XRECORD
  5
41B
102
{ACAD_REACTORS
330
417
102
}
330
417
100
AcDbXrecord
  1

  0
XRECORD
  5
418
102
{ACAD_REACTORS
330
417
102
}
330
417
100
AcDbXrecord
 90
        1
  0
XRECORD
  5
419
102
{ACAD_REACTORS
330
417
102
}
330
417
100
AcDbXrecord
 90
       70
  0
XRECORD
  5
42F
102
{ACAD_REACTORS
330
417
102
}
330
417
100
AcDbXrecord
340
0
  0
XRECORD
  5
435
102
{ACAD_REACTORS
330
417
102
}
330
417
100
AcDbXrecord
 10
0.0
 20
0.0
 30
0.0
  0
XRECORD
  5
431
102
{ACAD_REACTORS
330
417
102
}
330
417
100
AcDbXrecord
 10
0.0
 20
0.0
 30
0.0
  0
XRECORD
  5
434
102
{ACAD_REACTORS
330
417
102
}
330
417
100
AcDbXrecord
 10
0.0
 20
0.0
 30
0.0
  0
XRECORD
  5
432
102
{ACAD_REACTORS
330
417
102
}
330
417
100
AcDbXrecord
 10
0.0
 20
0.0
 30
0.0
  0
XRECORD
  5
433
102
{ACAD_REACTORS
330
417
102
}
330
417
100
AcDbXrecord
 10
0.0
 20
0.0
 30
0.0
  0
XRECORD
  5
430
102
{ACAD_REACTORS
330
417
102
}
330
417
100
AcDbXrecord
 10
0.0
 20
0.0
 30
0.0
  0
XRECORD
  5
42D
102
{ACAD_REACTORS
330
417
102
}
330
417
100
AcDbXrecord
340
0
  0
XRECORD
  5
42E
102
{ACAD_REACTORS
330
417
102
}
330
417
100
AcDbXrecord
 70
     0
  0
XRECORD
  5
422
102
{ACAD_REACTORS
330
417
102
}
330
417
100
AcDbXrecord
  1
{FAEB1C32-E019-11D5-929B-00C0DF256EC4}
  0
ENDSEC
  0
EOF
