  0
SECTION
  2
HEADER
  9
$ACADVER
  1
AC1014
  9
$ACADMAINTVER
 70
     9
  9
$DWGCODEPAGE
  3
ANSI_932
  9
$INSBASE
 10
0.0
 20
0.0
 30
0.0
  9
$EXTMIN
 10
0.0
 20
0.0
 30
0.0
  9
$EXTMAX
 10
841.0
 20
594.0
 30
0.0
  9
$LIMMIN
 10
0.0
 20
0.0
  9
$LIMMAX
 10
841.0
 20
594.0
  9
$ORTHOMODE
 70
     0
  9
$REGENMODE
 70
     1
  9
$FILLMODE
 70
     1
  9
$QTEXTMODE
 70
     0
  9
$MIRRTEXT
 70
     1
  9
$DRAGMODE
 70
     2
  9
$LTSCALE
 40
1.0
  9
$OSMODE
 70
    37
  9
$ATTMODE
 70
     1
  9
$TEXTSIZE
 40
0.2
  9
$TRACEWID
 40
0.05
  9
$TEXTSTYLE
  7
STYLE1
  9
$CLAYER
  8
0
  9
$CELTYPE
  6
BYLAYER
  9
$CECOLOR
 62
   256
  9
$CELTSCALE
 40
1.0
  9
$DELOBJ
 70
     1
  9
$DISPSILH
 70
     0
  9
$DIMSCALE
 40
1.0
  9
$DIMASZ
 40
4.0
  9
$DIMEXO
 40
1.0
  9
$DIMDLI
 40
10.0
  9
$DIMRND
 40
0.0
  9
$DIMDLE
 40
6.0
  9
$DIMEXE
 40
1.0
  9
$DIMTP
 40
0.0
  9
$DIMTM
 40
0.0
  9
$DIMTXT
 40
4.0
  9
$DIMCEN
 40
2.5
  9
$DIMTSZ
 40
0.0
  9
$DIMTOL
 70
     0
  9
$DIMLIM
 70
     0
  9
$DIMTIH
 70
     0
  9
$DIMTOH
 70
     0
  9
$DIMSE1
 70
     0
  9
$DIMSE2
 70
     0
  9
$DIMTAD
 70
     1
  9
$DIMZIN
 70
     8
  9
$DIMBLK
  1

  9
$DIMASO
 70
     1
  9
$DIMSHO
 70
     1
  9
$DIMPOST
  1

  9
$DIMAPOST
  1

  9
$DIMALT
 70
     0
  9
$DIMALTD
 70
     3
  9
$DIMALTF
 40
0.03937
  9
$DIMLFAC
 40
1.0
  9
$DIMTOFL
 70
     1
  9
$DIMTVP
 40
0.0
  9
$DIMTIX
 70
     0
  9
$DIMSOXD
 70
     0
  9
$DIMSAH
 70
     1
  9
$DIMBLK1
  1
FXTIP_ARROW_S
  9
$DIMBLK2
  1
FXTIP_ARROW_E
  9
$DIMSTYLE
  2
FXDIMINFO
  9
$DIMCLRD
 70
     7
  9
$DIMCLRE
 70
     7
  9
$DIMCLRT
 70
     7
  9
$DIMTFAC
 40
1.0
  9
$DIMGAP
 40
1.0
  9
$DIMJUST
 70
     0
  9
$DIMSD1
 70
     0
  9
$DIMSD2
 70
     0
  9
$DIMTOLJ
 70
     0
  9
$DIMTZIN
 70
     8
  9
$DIMALTZ
 70
     0
  9
$DIMALTTZ
 70
     0
  9
$DIMFIT
 70
     3
  9
$DIMUPT
 70
     0
  9
$DIMUNIT
 70
     2
  9
$DIMDEC
 70
     2
  9
$DIMTDEC
 70
     2
  9
$DIMALTU
 70
     2
  9
$DIMALTTD
 70
     3
  9
$DIMTXSTY
  7
STYLE1
  9
$DIMAUNIT
 70
     0
  9
$LUNITS
 70
     2
  9
$LUPREC
 70
     4
  9
$SKETCHINC
 40
0.1
  9
$FILLETRAD
 40
0.5
  9
$AUNITS
 70
     0
  9
$AUPREC
 70
     0
  9
$MENU
  1
.
  9
$ELEVATION
 40
0.0
  9
$PELEVATION
 40
0.0
  9
$THICKNESS
 40
0.0
  9
$LIMCHECK
 70
     0
  9
$CHAMFERA
 40
0.5
  9
$CHAMFERB
 40
0.5
  9
$CHAMFERC
 40
1.0
  9
$CHAMFERD
 40
0.0
  9
$SKPOLY
 70
     0
  9
$TDCREATE
 40
2455308.670960313
  9
$TDUPDATE
 40
2455308.670960324
  9
$TDINDWG
 40
0.0000000116
  9
$TDUSRTIMER
 40
0.0000000116
  9
$USRTIMER
 70
     1
  9
$ANGBASE
 50
0.0
  9
$ANGDIR
 70
     0
  9
$PDMODE
 70
     0
  9
$PDSIZE
 40
0.0
  9
$PLINEWID
 40
0.0
  9
$COORDS
 70
     1
  9
$SPLFRAME
 70
     0
  9
$SPLINETYPE
 70
     6
  9
$SPLINESEGS
 70
     8
  9
$ATTDIA
 70
     0
  9
$ATTREQ
 70
     1
  9
$HANDLING
 70
     1
  9
$HANDSEED
  5
595
  9
$SURFTAB1
 70
     6
  9
$SURFTAB2
 70
     6
  9
$SURFTYPE
 70
     6
  9
$SURFU
 70
     6
  9
$SURFV
 70
     6
  9
$UCSNAME
  2

  9
$UCSORG
 10
0.0
 20
0.0
 30
0.0
  9
$UCSXDIR
 10
1.0
 20
0.0
 30
0.0
  9
$UCSYDIR
 10
0.0
 20
1.0
 30
0.0
  9
$PUCSNAME
  2

  9
$PUCSORG
 10
0.0
 20
0.0
 30
0.0
  9
$PUCSXDIR
 10
1.0
 20
0.0
 30
0.0
  9
$PUCSYDIR
 10
0.0
 20
1.0
 30
0.0
  9
$USERI1
 70
     0
  9
$USERI2
 70
     0
  9
$USERI3
 70
     0
  9
$USERI4
 70
     0
  9
$USERI5
 70
     0
  9
$USERR1
 40
0.0
  9
$USERR2
 40
0.0
  9
$USERR3
 40
0.0
  9
$USERR4
 40
0.0
  9
$USERR5
 40
0.0
  9
$WORLDVIEW
 70
     1
  9
$SHADEDGE
 70
     3
  9
$SHADEDIF
 70
    70
  9
$TILEMODE
 70
     1
  9
$MAXACTVP
 70
    64
  9
$PINSBASE
 10
0.0
 20
0.0
 30
0.0
  9
$PLIMCHECK
 70
     0
  9
$PEXTMIN
 10
1.000000E+20
 20
1.000000E+20
 30
1.000000E+20
  9
$PEXTMAX
 10
-1.000000E+20
 20
-1.000000E+20
 30
-1.000000E+20
  9
$PLIMMIN
 10
0.0
 20
0.0
  9
$PLIMMAX
 10
12.0
 20
9.0
  9
$UNITMODE
 70
     0
  9
$VISRETAIN
 70
     1
  9
$PLINEGEN
 70
     0
  9
$PSLTSCALE
 70
     1
  9
$TREEDEPTH
 70
  3020
  9
$PICKSTYLE
 70
     1
  9
$CMLSTYLE
  2
STANDARD
  9
$CMLJUST
 70
     0
  9
$CMLSCALE
 40
1.0
  9
$PROXYGRAPHICS
 70
     1
  9
$MEASUREMENT
 70
     0
  0
ENDSEC
  0
SECTION
  2
CLASSES
  0
CLASS
  1
ACDBDICTIONARYWDFLT
  2
AcDbDictionaryWithDefault
  3
ObjectDBX Classes
 90
        0
280
     0
281
     0
  0
CLASS
  1
XRECORD
  2
AcDbXrecord
  3
AutoCAD 2000
 90
        0
280
     0
281
     0
  0
CLASS
  1
LWPOLYLINE
  2
AcDbPolyline
  3
AutoCAD 2000
 90
        0
280
     0
281
     1
  0
CLASS
  1
HATCH
  2
AcDbHatch
  3
AutoCAD 2000
 90
        0
280
     0
281
     1
  0
CLASS
  1
ACDBPLACEHOLDER
  2
AcDbPlaceHolder
  3
ObjectDBX Classes
 90
        0
280
     0
281
     0
  0
CLASS
  1
LAYOUT
  2
AcDbLayout
  3
ObjectDBX Classes
 90
        0
280
     0
281
     0
  0
ENDSEC
  0
SECTION
  2
TABLES
  0
TABLE
  2
VPORT
  5
8
330
0
100
AcDbSymbolTable
 70
     1
  0
VPORT
  5
29
330
8
100
AcDbSymbolTableRecord
100
AcDbViewportTableRecord
  2
*ACTIVE
 70
     0
 10
0.0
 20
0.0
 11
1.0
 21
1.0
 12
420.5
 22
297.0
 13
0.0
 23
0.0
 14
0.5
 24
0.5
 15
0.5
 25
0.5
 16
0.0
 26
0.0
 36
1.0
 17
0.0
 27
0.0
 37
0.0
 40
594.0
 41
1.415825
 42
50.0
 43
0.0
 44
0.0
 50
0.0
 51
0.0
 71
     0
 72
   100
 73
     1
 74
     3
 75
     0
 76
     0
 77
     0
 78
     0
  0
ENDTAB
  0
TABLE
  2
LTYPE
  5
5
330
0
100
AcDbSymbolTable
 70
     4
  0
LTYPE
  5
14
330
5
100
AcDbSymbolTableRecord
100
AcDbLinetypeTableRecord
  2
BYBLOCK
 70
     0
  3

 72
    65
 73
     0
 40
0.0
  0
LTYPE
  5
15
330
5
100
AcDbSymbolTableRecord
100
AcDbLinetypeTableRecord
  2
BYLAYER
 70
     0
  3

 72
    65
 73
     0
 40
0.0
  0
LTYPE
  5
16
330
5
100
AcDbSymbolTableRecord
100
AcDbLinetypeTableRecord
  2
CONTINUOUS
 70
     0
  3
--------------------
 72
    65
 73
     0
 40
0.0
  0
LTYPE
  5
2A
330
5
100
AcDbSymbolTableRecord
100
AcDbLinetypeTableRecord
  2
CENTER
 70
     0
  3
Center ____ _ ____ _ ____ _ ____ _ ____ _ ____
 72
    65
 73
     4
 40
13.0
 49
10.0
 74
     0
 49
-1.0
 74
     0
 49
1.0
 74
     0
 49
-1.0
 74
     0
  0
LTYPE
  5
2C
330
5
100
AcDbSymbolTableRecord
100
AcDbLinetypeTableRecord
  2
DASHED
 70
     0
  3
Dashed __ __ __ __ __ __ __ __ __ __ __ __ __ _
 72
    65
 73
     2
 40
4.0
 49
3.0
 74
     0
 49
-1.0
 74
     0
  0
ENDTAB
  0
TABLE
  2
LAYER
  5
2
330
0
100
AcDbSymbolTable
 70
    21
  0
LAYER
  5
10
330
2
100
AcDbSymbolTableRecord
100
AcDbLayerTableRecord
  2
0
 70
     0
 62
     7
  6
CONTINUOUS
  0
LAYER
  5
2D
330
2
100
AcDbSymbolTableRecord
100
AcDbLayerTableRecord
  2
LAYERGROUP-1
 70
     0
 62
     3
  6
CONTINUOUS
  0
LAYER
  5
3D
330
2
100
AcDbSymbolTableRecord
100
AcDbLayerTableRecord
  2
}}ﾊﾊGG血CCТ
 70
     0
 62
     3
  6
CONTINUOUS
  0
LAYER
  5
A9
330
2
100
AcDbSymbolTableRecord
100
AcDbLayerTableRecord
  2
GR1-1
 70
     0
 62
     7
  6
CONTINUOUS
  0
LAYER
  5
2C0
330
2
100
AcDbSymbolTableRecord
100
AcDbLayerTableRecord
  2
1-1
 70
     0
 62
     7
  6
CONTINUOUS
  0
LAYER
  5
411
330
2
100
AcDbSymbolTableRecord
100
AcDbLayerTableRecord
  2
0-1
 70
     0
 62
     7
  6
CONTINUOUS
  0
ENDTAB
  0
TABLE
  2
STYLE
  5
3
330
0
100
AcDbSymbolTable
 70
     4
  0
STYLE
  5
11
330
3
100
AcDbSymbolTableRecord
100
AcDbTextStyleTableRecord
  2
STANDARD
 70
     0
 40
0.0
 41
1.0
 50
0.0
 71
     0
 42
0.2
  3
txt
  4

  0
STYLE
  5
3F
330
3
100
AcDbSymbolTableRecord
100
AcDbTextStyleTableRecord
  2
STYLE1
 70
     0
 40
0.0
 41
1.0
 50
0.0
 71
     0
 42
0.2
  3
MONOTXT.SHX
  4
extfont.shx
  0
STYLE
  5
40
330
3
100
AcDbSymbolTableRecord
100
AcDbTextStyleTableRecord
  2
FX_VECTOR
 70
     0
 40
0.0
 41
1.0
 50
0.0
 71
     0
 42
0.2
  3
MONOTXT.SHX
  4
BIGFONT.SHX
  0
ENDTAB
  0
TABLE
  2
VIEW
  5
6
330
0
100
AcDbSymbolTable
 70
     0
  0
ENDTAB
  0
TABLE
  2
UCS
  5
7
330
0
100
AcDbSymbolTable
 70
     0
  0
ENDTAB
  0
TABLE
  2
APPID
  5
9
330
0
100
AcDbSymbolTable
 70
     1
  0
APPID
  5
12
330
9
100
AcDbSymbolTableRecord
100
AcDbRegAppTableRecord
  2
ACAD
 70
     0
  0
ENDTAB
  0
TABLE
  2
DIMSTYLE
  5
A
330
0
100
AcDbSymbolTable
 70
     2
  0
DIMSTYLE
105
27
330
A
100
AcDbSymbolTableRecord
100
AcDbDimStyleTableRecord
  2
STANDARD
 70
     0
  3

  4

  5

  6

  7

 40
1.0
 41
0.18
 42
0.0625
 43
0.38
 44
0.18
 45
0.0
 46
0.0
 47
0.0
 48
0.0
140
0.18
141
0.09
142
0.0
143
25.4
144
1.0
145
0.0
146
1.0
147
0.09
 71
     0
 72
     0
 73
     1
 74
     1
 75
     0
 76
     0
 77
     0
 78
     0
170
     0
171
     2
172
     0
173
     0
174
     0
175
     0
176
     0
177
     0
178
     0
270
     2
271
     4
272
     4
273
     2
274
     2
340
11
275
     0
280
     0
281
     0
282
     0
283
     1
284
     0
285
     0
286
     0
287
     3
288
     0
  0
DIMSTYLE
105
A7
330
A
100
AcDbSymbolTableRecord
100
AcDbDimStyleTableRecord
  2
FXDIMINFO
 70
     0
  3

  4

  5

  6
FXTIP_ARROW_S
  7
FXTIP_ARROW_E
 40
1.0
 41
4.0
 42
1.0
 43
10.0
 44
1.0
 45
0.0
 46
6.0
 47
0.0
 48
0.0
140
4.0
141
2.5
142
0.0
143
0.03937
144
1.0
145
0.0
146
1.0
147
1.0
 71
     0
 72
     0
 73
     0
 74
     0
 75
     0
 76
     0
 77
     1
 78
     8
170
     0
171
     3
172
     1
173
     1
174
     0
175
     0
176
     7
177
     7
178
     7
179
     2
270
     2
271
     2
272
     2
273
     2
274
     3
340
3F
275
     0
280
     0
281
     0
282
     0
283
     0
284
     8
285
     0
286
     0
287
     3
288
     0
  0
ENDTAB
  0
TABLE
  2
BLOCK_RECORD
  5
1
330
0
100
AcDbSymbolTable
 70
    19
  0
BLOCK_RECORD
  5
1F
330
1
100
AcDbSymbolTableRecord
100
AcDbBlockTableRecord
  2
*MODEL_SPACE
  0
BLOCK_RECORD
  5
1B
330
1
100
AcDbSymbolTableRecord
100
AcDbBlockTableRecord
  2
*PAPER_SPACE
  0
BLOCK_RECORD
  5
41
330
1
100
AcDbSymbolTableRecord
100
AcDbBlockTableRecord
  2
FXTIP_ARROW_S
  0
BLOCK_RECORD
  5
47
330
1
100
AcDbSymbolTableRecord
100
AcDbBlockTableRecord
  2
FXTIP_ARROW_E
  0
BLOCK_RECORD
  5
4D
330
1
100
AcDbSymbolTableRecord
100
AcDbBlockTableRecord
  2
FXTIP_BLACKDOT_S
  0
BLOCK_RECORD
  5
53
330
1
100
AcDbSymbolTableRecord
100
AcDbBlockTableRecord
  2
FXTIP_BLACKDOT_E
  0
BLOCK_RECORD
  5
59
330
1
100
AcDbSymbolTableRecord
100
AcDbBlockTableRecord
  2
FXTIP_TRIANGLE_S
  0
BLOCK_RECORD
  5
60
330
1
100
AcDbSymbolTableRecord
100
AcDbBlockTableRecord
  2
FXTIP_TRIANGLE_E
  0
BLOCK_RECORD
  5
67
330
1
100
AcDbSymbolTableRecord
100
AcDbBlockTableRecord
  2
FXTIP_ARCHITECT_S
  0
BLOCK_RECORD
  5
6D
330
1
100
AcDbSymbolTableRecord
100
AcDbBlockTableRecord
  2
FXTIP_ARCHITECT_E
  0
BLOCK_RECORD
  5
73
330
1
100
AcDbSymbolTableRecord
100
AcDbBlockTableRecord
  2
FXTIP_CIVIL_S
  0
BLOCK_RECORD
  5
79
330
1
100
AcDbSymbolTableRecord
100
AcDbBlockTableRecord
  2
FXTIP_CIVIL_E
  0
BLOCK_RECORD
  5
7F
330
1
100
AcDbSymbolTableRecord
100
AcDbBlockTableRecord
  2
FXTIP_WHITEDOT_S
  0
BLOCK_RECORD
  5
84
330
1
100
AcDbSymbolTableRecord
100
AcDbBlockTableRecord
  2
FXTIP_WHITEDOT_E
  0
BLOCK_RECORD
  5
89
330
1
100
AcDbSymbolTableRecord
100
AcDbBlockTableRecord
  2
FXTIP_UPARROW_S
  0
BLOCK_RECORD
  5
8E
330
1
100
AcDbSymbolTableRecord
100
AcDbBlockTableRecord
  2
FXTIP_UPARROW_E
  0
BLOCK_RECORD
  5
93
330
1
100
AcDbSymbolTableRecord
100
AcDbBlockTableRecord
  2
FXTIP_DOWNARROW_S
  0
BLOCK_RECORD
  5
98
330
1
100
AcDbSymbolTableRecord
100
AcDbBlockTableRecord
  2
FXTIP_DOWNARROW_E
  0
BLOCK_RECORD
  5
9D
330
1
100
AcDbSymbolTableRecord
100
AcDbBlockTableRecord
  2
FXTIP_BLACKTRIANGLE_S
  0
BLOCK_RECORD
  5
A2
330
1
100
AcDbSymbolTableRecord
100
AcDbBlockTableRecord
  2
FXTIP_BLACKTRIANGLE_E
  0
ENDTAB
  0
ENDSEC
  0
SECTION
  2
BLOCKS
  0
BLOCK
  5
20
330
1F
100
AcDbEntity
  8
0
100
AcDbBlockBegin
  2
*MODEL_SPACE
 70
     0
 71
     0
 10
0.0
 20
0.0
 30
0.0
  3
*MODEL_SPACE
  1

  0
ENDBLK
  5
21
330
1F
100
AcDbEntity
  8
0
100
AcDbBlockEnd
  0
BLOCK
  5
1C
330
1B
100
AcDbEntity
 67
     1
  8
0
100
AcDbBlockBegin
  2
*PAPER_SPACE
 70
     0
 71
     0
 10
0.0
 20
0.0
 30
0.0
  3
*PAPER_SPACE
  1

  0
ENDBLK
  5
1D
330
1B
100
AcDbEntity
 67
     1
  8
0
100
AcDbBlockEnd
  0
BLOCK
  5
42
330
41
100
AcDbEntity
  8
0
100
AcDbBlockBegin
  2
FXTIP_ARROW_S
 70
     0
 71
     0
 10
0.0
 20
0.0
 30
0.0
  3
FXTIP_ARROW_S
  1

  0
LINE
  5
44
330
41
100
AcDbEntity
  8
0
  6
CONTINUOUS
 62
     0
100
AcDbLine
 10
0.0
 20
0.0
 30
0.0
 11
-1.0
 21
0.0
 31
0.0
  0
LINE
  5
45
330
41
100
AcDbEntity
  8
0
  6
CONTINUOUS
 62
     0
100
AcDbLine
 10
0.0
 20
0.0
 30
0.0
 11
-0.965926
 21
-0.258819
 31
0.0
  0
LINE
  5
46
330
41
100
AcDbEntity
  8
0
  6
CONTINUOUS
 62
     0
100
AcDbLine
 10
0.0
 20
0.0
 30
0.0
 11
-0.965926
 21
0.258819
 31
0.0
  0
ENDBLK
  5
43
330
41
100
AcDbEntity
  8
0
100
AcDbBlockEnd
  0
BLOCK
  5
48
330
47
100
AcDbEntity
  8
0
100
AcDbBlockBegin
  2
FXTIP_ARROW_E
 70
     0
 71
     0
 10
0.0
 20
0.0
 30
0.0
  3
FXTIP_ARROW_E
  1

  0
LINE
  5
4A
330
47
100
AcDbEntity
  8
0
  6
CONTINUOUS
 62
     0
100
AcDbLine
 10
0.0
 20
0.0
 30
0.0
 11
-1.0
 21
0.0
 31
0.0
  0
LINE
  5
4B
330
47
100
AcDbEntity
  8
0
  6
CONTINUOUS
 62
     0
100
AcDbLine
 10
0.0
 20
0.0
 30
0.0
 11
-0.965926
 21
0.258819
 31
0.0
  0
LINE
  5
4C
330
47
100
AcDbEntity
  8
0
  6
CONTINUOUS
 62
     0
100
AcDbLine
 10
0.0
 20
0.0
 30
0.0
 11
-0.965926
 21
-0.258819
 31
0.0
  0
ENDBLK
  5
49
330
47
100
AcDbEntity
  8
0
100
AcDbBlockEnd
  0
BLOCK
  5
4E
330
4D
100
AcDbEntity
  8
0
100
AcDbBlockBegin
  2
FXTIP_BLACKDOT_S
 70
     0
 71
     0
 10
0.0
 20
0.0
 30
0.0
  3
FXTIP_BLACKDOT_S
  1

  0
LINE
  5
50
330
4D
100
AcDbEntity
  8
0
  6
CONTINUOUS
 62
     0
100
AcDbLine
 10
0.0
 20
0.0
 30
0.0
 11
-1.0
 21
0.0
 31
0.0
  0
LWPOLYLINE
  5
51
330
4D
100
AcDbEntity
  8
0
  6
CONTINUOUS
 62
     0
100
AcDbPolyline
 90
        2
 70
     1
 10
-0.25
 20
0.0
 40
0.5
 41
0.5
 42
1.0
 10
0.25
 20
0.0
 40
0.5
 41
0.5
 42
1.0
  0
CIRCLE
  5
52
330
4D
100
AcDbEntity
  8
0
  6
CONTINUOUS
 62
     0
100
AcDbCircle
 10
0.0
 20
0.0
 30
0.0
 40
0.5
  0
ENDBLK
  5
4F
330
4D
100
AcDbEntity
  8
0
100
AcDbBlockEnd
  0
BLOCK
  5
54
330
53
100
AcDbEntity
  8
0
100
AcDbBlockBegin
  2
FXTIP_BLACKDOT_E
 70
     0
 71
     0
 10
0.0
 20
0.0
 30
0.0
  3
FXTIP_BLACKDOT_E
  1

  0
LINE
  5
56
330
53
100
AcDbEntity
  8
0
  6
CONTINUOUS
 62
     0
100
AcDbLine
 10
0.0
 20
0.0
 30
0.0
 11
-1.0
 21
0.0
 31
0.0
  0
LWPOLYLINE
  5
57
330
53
100
AcDbEntity
  8
0
  6
CONTINUOUS
 62
     0
100
AcDbPolyline
 90
        2
 70
     1
 10
-0.25
 20
0.0
 40
0.5
 41
0.5
 42
1.0
 10
0.25
 20
0.0
 40
0.5
 41
0.5
 42
1.0
  0
CIRCLE
  5
58
330
53
100
AcDbEntity
  8
0
  6
CONTINUOUS
 62
     0
100
AcDbCircle
 10
0.0
 20
0.0
 30
0.0
 40
0.5
  0
ENDBLK
  5
55
330
53
100
AcDbEntity
  8
0
100
AcDbBlockEnd
  0
BLOCK
  5
5A
330
59
100
AcDbEntity
  8
0
100
AcDbBlockBegin
  2
FXTIP_TRIANGLE_S
 70
     0
 71
     0
 10
0.0
 20
0.0
 30
0.0
  3
FXTIP_TRIANGLE_S
  1

  0
LINE
  5
5C
330
59
100
AcDbEntity
  8
0
  6
CONTINUOUS
 62
     0
100
AcDbLine
 10
0.0
 20
0.0
 30
0.0
 11
-1.0
 21
0.0
 31
0.0
  0
LINE
  5
5D
330
59
100
AcDbEntity
  8
0
  6
CONTINUOUS
 62
     0
100
AcDbLine
 10
0.0
 20
0.0
 30
0.0
 11
-0.965926
 21
-0.258819
 31
0.0
  0
LINE
  5
5E
330
59
100
AcDbEntity
  8
0
  6
CONTINUOUS
 62
     0
100
AcDbLine
 10
0.0
 20
0.0
 30
0.0
 11
-0.965926
 21
0.258819
 31
0.0
  0
LINE
  5
5F
330
59
100
AcDbEntity
  8
0
  6
CONTINUOUS
 62
     0
100
AcDbLine
 10
-0.965926
 20
-0.258819
 30
0.0
 11
-0.965926
 21
0.258819
 31
0.0
  0
ENDBLK
  5
5B
330
59
100
AcDbEntity
  8
0
100
AcDbBlockEnd
  0
BLOCK
  5
61
330
60
100
AcDbEntity
  8
0
100
AcDbBlockBegin
  2
FXTIP_TRIANGLE_E
 70
     0
 71
     0
 10
0.0
 20
0.0
 30
0.0
  3
FXTIP_TRIANGLE_E
  1

  0
LINE
  5
63
330
60
100
AcDbEntity
  8
0
  6
CONTINUOUS
 62
     0
100
AcDbLine
 10
0.0
 20
0.0
 30
0.0
 11
-1.0
 21
0.0
 31
0.0
  0
LINE
  5
64
330
60
100
AcDbEntity
  8
0
  6
CONTINUOUS
 62
     0
100
AcDbLine
 10
0.0
 20
0.0
 30
0.0
 11
-0.965926
 21
0.258819
 31
0.0
  0
LINE
  5
65
330
60
100
AcDbEntity
  8
0
  6
CONTINUOUS
 62
     0
100
AcDbLine
 10
0.0
 20
0.0
 30
0.0
 11
-0.965926
 21
-0.258819
 31
0.0
  0
LINE
  5
66
330
60
100
AcDbEntity
  8
0
  6
CONTINUOUS
 62
     0
100
AcDbLine
 10
-0.965926
 20
0.258819
 30
0.0
 11
-0.965926
 21
-0.258819
 31
0.0
  0
ENDBLK
  5
62
330
60
100
AcDbEntity
  8
0
100
AcDbBlockEnd
  0
BLOCK
  5
68
330
67
100
AcDbEntity
  8
0
100
AcDbBlockBegin
  2
FXTIP_ARCHITECT_S
 70
     0
 71
     0
 10
0.0
 20
0.0
 30
0.0
  3
FXTIP_ARCHITECT_S
  1

  0
LINE
  5
6A
330
67
100
AcDbEntity
  8
0
  6
CONTINUOUS
 62
     0
100
AcDbLine
 10
0.0
 20
0.0
 30
0.0
 11
-1.0
 21
0.0
 31
0.0
  0
LINE
  5
6B
330
67
100
AcDbEntity
  8
0
  6
CONTINUOUS
 62
     0
100
AcDbLine
 10
0.0
 20
0.0
 30
0.0
 11
-0.707107
 21
-0.707107
 31
0.0
  0
LINE
  5
6C
330
67
100
AcDbEntity
  8
0
  6
CONTINUOUS
 62
     0
100
AcDbLine
 10
0.0
 20
0.0
 30
0.0
 11
0.707107
 21
0.707107
 31
0.0
  0
ENDBLK
  5
69
330
67
100
AcDbEntity
  8
0
100
AcDbBlockEnd
  0
BLOCK
  5
6E
330
6D
100
AcDbEntity
  8
0
100
AcDbBlockBegin
  2
FXTIP_ARCHITECT_E
 70
     0
 71
     0
 10
0.0
 20
0.0
 30
0.0
  3
FXTIP_ARCHITECT_E
  1

  0
LINE
  5
70
330
6D
100
AcDbEntity
  8
0
  6
CONTINUOUS
 62
     0
100
AcDbLine
 10
0.0
 20
0.0
 30
0.0
 11
-1.0
 21
0.0
 31
0.0
  0
LINE
  5
71
330
6D
100
AcDbEntity
  8
0
  6
CONTINUOUS
 62
     0
100
AcDbLine
 10
0.0
 20
0.0
 30
0.0
 11
0.707107
 21
0.707107
 31
0.0
  0
LINE
  5
72
330
6D
100
AcDbEntity
  8
0
  6
CONTINUOUS
 62
     0
100
AcDbLine
 10
0.0
 20
0.0
 30
0.0
 11
-0.707107
 21
-0.707107
 31
0.0
  0
ENDBLK
  5
6F
330
6D
100
AcDbEntity
  8
0
100
AcDbBlockEnd
  0
BLOCK
  5
74
330
73
100
AcDbEntity
  8
0
100
AcDbBlockBegin
  2
FXTIP_CIVIL_S
 70
     0
 71
     0
 10
0.0
 20
0.0
 30
0.0
  3
FXTIP_CIVIL_S
  1

  0
LINE
  5
76
330
73
100
AcDbEntity
  8
0
  6
CONTINUOUS
 62
     0
100
AcDbLine
 10
0.0
 20
0.0
 30
0.0
 11
-1.0
 21
0.0
 31
0.0
  0
LINE
  5
77
330
73
100
AcDbEntity
  8
0
  6
CONTINUOUS
 62
     0
100
AcDbLine
 10
0.0
 20
-0.0625
 30
0.0
 11
-1.0
 21
-0.0625
 31
0.0
  0
LINE
  5
78
330
73
100
AcDbEntity
  8
0
  6
CONTINUOUS
 62
     0
100
AcDbLine
 10
0.0
 20
-0.125
 30
0.0
 11
-1.0
 21
-0.125
 31
0.0
  0
ENDBLK
  5
75
330
73
100
AcDbEntity
  8
0
100
AcDbBlockEnd
  0
BLOCK
  5
7A
330
79
100
AcDbEntity
  8
0
100
AcDbBlockBegin
  2
FXTIP_CIVIL_E
 70
     0
 71
     0
 10
0.0
 20
0.0
 30
0.0
  3
FXTIP_CIVIL_E
  1

  0
LINE
  5
7C
330
79
100
AcDbEntity
  8
0
  6
CONTINUOUS
 62
     0
100
AcDbLine
 10
0.0
 20
0.0
 30
0.0
 11
-1.0
 21
0.0
 31
0.0
  0
LINE
  5
7D
330
79
100
AcDbEntity
  8
0
  6
CONTINUOUS
 62
     0
100
AcDbLine
 10
0.0
 20
0.0625
 30
0.0
 11
-1.0
 21
0.0625
 31
0.0
  0
LINE
  5
7E
330
79
100
AcDbEntity
  8
0
  6
CONTINUOUS
 62
     0
100
AcDbLine
 10
0.0
 20
0.125
 30
0.0
 11
-1.0
 21
0.125
 31
0.0
  0
ENDBLK
  5
7B
330
79
100
AcDbEntity
  8
0
100
AcDbBlockEnd
  0
BLOCK
  5
80
330
7F
100
AcDbEntity
  8
0
100
AcDbBlockBegin
  2
FXTIP_WHITEDOT_S
 70
     0
 71
     0
 10
0.0
 20
0.0
 30
0.0
  3
FXTIP_WHITEDOT_S
  1

  0
LINE
  5
82
330
7F
100
AcDbEntity
  8
0
  6
CONTINUOUS
 62
     0
100
AcDbLine
 10
0.0
 20
0.0
 30
0.0
 11
-1.0
 21
0.0
 31
0.0
  0
CIRCLE
  5
83
330
7F
100
AcDbEntity
  8
0
  6
CONTINUOUS
 62
     0
100
AcDbCircle
 10
0.0
 20
0.0
 30
0.0
 40
0.5
  0
ENDBLK
  5
81
330
7F
100
AcDbEntity
  8
0
100
AcDbBlockEnd
  0
BLOCK
  5
85
330
84
100
AcDbEntity
  8
0
100
AcDbBlockBegin
  2
FXTIP_WHITEDOT_E
 70
     0
 71
     0
 10
0.0
 20
0.0
 30
0.0
  3
FXTIP_WHITEDOT_E
  1

  0
LINE
  5
87
330
84
100
AcDbEntity
  8
0
  6
CONTINUOUS
 62
     0
100
AcDbLine
 10
0.0
 20
0.0
 30
0.0
 11
-1.0
 21
0.0
 31
0.0
  0
CIRCLE
  5
88
330
84
100
AcDbEntity
  8
0
  6
CONTINUOUS
 62
     0
100
AcDbCircle
 10
0.0
 20
0.0
 30
0.0
 40
0.5
  0
ENDBLK
  5
86
330
84
100
AcDbEntity
  8
0
100
AcDbBlockEnd
  0
BLOCK
  5
8A
330
89
100
AcDbEntity
  8
0
100
AcDbBlockBegin
  2
FXTIP_UPARROW_S
 70
     0
 71
     0
 10
0.0
 20
0.0
 30
0.0
  3
FXTIP_UPARROW_S
  1

  0
LINE
  5
8C
330
89
100
AcDbEntity
  8
0
  6
CONTINUOUS
 62
     0
100
AcDbLine
 10
0.0
 20
0.0
 30
0.0
 11
-1.0
 21
0.0
 31
0.0
  0
LINE
  5
8D
330
89
100
AcDbEntity
  8
0
  6
CONTINUOUS
 62
     0
100
AcDbLine
 10
0.0
 20
0.0
 30
0.0
 11
-0.965926
 21
-0.258819
 31
0.0
  0
ENDBLK
  5
8B
330
89
100
AcDbEntity
  8
0
100
AcDbBlockEnd
  0
BLOCK
  5
8F
330
8E
100
AcDbEntity
  8
0
100
AcDbBlockBegin
  2
FXTIP_UPARROW_E
 70
     0
 71
     0
 10
0.0
 20
0.0
 30
0.0
  3
FXTIP_UPARROW_E
  1

  0
LINE
  5
91
330
8E
100
AcDbEntity
  8
0
  6
CONTINUOUS
 62
     0
100
AcDbLine
 10
0.0
 20
0.0
 30
0.0
 11
-1.0
 21
0.0
 31
0.0
  0
LINE
  5
92
330
8E
100
AcDbEntity
  8
0
  6
CONTINUOUS
 62
     0
100
AcDbLine
 10
0.0
 20
0.0
 30
0.0
 11
-0.965926
 21
0.258819
 31
0.0
  0
ENDBLK
  5
90
330
8E
100
AcDbEntity
  8
0
100
AcDbBlockEnd
  0
BLOCK
  5
94
330
93
100
AcDbEntity
  8
0
100
AcDbBlockBegin
  2
FXTIP_DOWNARROW_S
 70
     0
 71
     0
 10
0.0
 20
0.0
 30
0.0
  3
FXTIP_DOWNARROW_S
  1

  0
LINE
  5
96
330
93
100
AcDbEntity
  8
0
  6
CONTINUOUS
 62
     0
100
AcDbLine
 10
0.0
 20
0.0
 30
0.0
 11
-1.0
 21
0.0
 31
0.0
  0
LINE
  5
97
330
93
100
AcDbEntity
  8
0
  6
CONTINUOUS
 62
     0
100
AcDbLine
 10
0.0
 20
0.0
 30
0.0
 11
-0.965926
 21
0.258819
 31
0.0
  0
ENDBLK
  5
95
330
93
100
AcDbEntity
  8
0
100
AcDbBlockEnd
  0
BLOCK
  5
99
330
98
100
AcDbEntity
  8
0
100
AcDbBlockBegin
  2
FXTIP_DOWNARROW_E
 70
     0
 71
     0
 10
0.0
 20
0.0
 30
0.0
  3
FXTIP_DOWNARROW_E
  1

  0
LINE
  5
9B
330
98
100
AcDbEntity
  8
0
  6
CONTINUOUS
 62
     0
100
AcDbLine
 10
0.0
 20
0.0
 30
0.0
 11
-1.0
 21
0.0
 31
0.0
  0
LINE
  5
9C
330
98
100
AcDbEntity
  8
0
  6
CONTINUOUS
 62
     0
100
AcDbLine
 10
0.0
 20
0.0
 30
0.0
 11
-0.965926
 21
-0.258819
 31
0.0
  0
ENDBLK
  5
9A
330
98
100
AcDbEntity
  8
0
100
AcDbBlockEnd
  0
BLOCK
  5
9E
330
9D
100
AcDbEntity
  8
0
100
AcDbBlockBegin
  2
FXTIP_BLACKTRIANGLE_S
 70
     0
 71
     0
 10
0.0
 20
0.0
 30
0.0
  3
FXTIP_BLACKTRIANGLE_S
  1

  0
LINE
  5
A0
330
9D
100
AcDbEntity
  8
0
  6
CONTINUOUS
 62
     0
100
AcDbLine
 10
0.0
 20
0.0
 30
0.0
 11
-1.0
 21
0.0
 31
0.0
  0
SOLID
  5
A1
330
9D
100
AcDbEntity
  8
0
  6
CONTINUOUS
 62
     0
100
AcDbTrace
 10
0.0
 20
0.0
 30
0.0
 11
-0.965926
 21
-0.258819
 31
0.0
 12
-0.965926
 22
0.258819
 32
0.0
 13
-0.965926
 23
0.258819
 33
0.0
  0
ENDBLK
  5
9F
330
9D
100
AcDbEntity
  8
0
100
AcDbBlockEnd
  0
BLOCK
  5
A3
330
A2
100
AcDbEntity
  8
0
100
AcDbBlockBegin
  2
FXTIP_BLACKTRIANGLE_E
 70
     0
 71
     0
 10
0.0
 20
0.0
 30
0.0
  3
FXTIP_BLACKTRIANGLE_E
  1

  0
LINE
  5
A5
330
A2
100
AcDbEntity
  8
0
  6
CONTINUOUS
 62
     0
100
AcDbLine
 10
0.0
 20
0.0
 30
0.0
 11
-1.0
 21
0.0
 31
0.0
  0
SOLID
  5
A6
330
A2
100
AcDbEntity
  8
0
  6
CONTINUOUS
 62
     0
100
AcDbTrace
 10
0.0
 20
0.0
 30
0.0
 11
-0.965926
 21
0.258819
 31
0.0
 12
-0.965926
 22
-0.258819
 32
0.0
 13
-0.965926
 23
-0.258819
 33
0.0
  0
ENDBLK
  5
A4
330
A2
100
AcDbEntity
  8
0
100
AcDbBlockEnd
  0
ENDSEC
  0
SECTION
  2
ENTITIES
  0
TEXT
  5
A8
330
1F
100
AcDbEntity
  8
}}ﾊﾊGG血CCТ
  6
CONTINUOUS
 62
     7
100
AcDbText
 10
566.214722
 20
21.961985
 30
0.0
 40
6.0
  1
ＷＫ－２００　ＲＢ　ＳＲ
 41
0.788732
  7
FX_VECTOR
 72
     5
 11
614.214722
 21
21.961985
 31
0.0
100
AcDbText
  0
LINE
  5
AA
330
1F
100
AcDbEntity
  8
GR1-1
  6
CONTINUOUS
 62
     3
100
AcDbLine
 10
194.419701
 20
254.288515
 30
0.0
 11
194.419701
 21
301.288515
 31
0.0
  0
LINE
  5
AB
330
1F
100
AcDbEntity
  8
GR1-1
  6
CONTINUOUS
 62
     3
100
AcDbLine
 10
202.419701
 20
309.288515
 30
0.0
 11
289.419701
 21
309.288515
 31
0.0
  0
LINE
  5
AC
330
1F
100
AcDbEntity
  8
GR1-1
  6
CONTINUOUS
 62
     3
100
AcDbLine
 10
297.419701
 20
301.288515
 30
0.0
 11
297.419701
 21
254.288515
 31
0.0
  0
LINE
  5
AD
330
1F
100
AcDbEntity
  8
GR1-1
  6
CONTINUOUS
 62
     3
100
AcDbLine
 10
297.419701
 20
271.288515
 30
0.0
 11
316.126446
 21
271.288515
 31
0.0
  0
LINE
  5
AE
330
1F
100
AcDbEntity
  8
GR1-1
  6
CONTINUOUS
 62
     3
100
AcDbLine
 10
319.125418
 20
268.367046
 30
0.0
 11
320.267456
 21
224.754392
 31
0.0
  0
ARC
  5
AF
330
1F
100
AcDbEntity
  8
GR1-1
  6
CONTINUOUS
 62
     3
100
AcDbCircle
 10
332.263344
 20
225.068515
 30
0.0
 40
12.0
100
AcDbArc
 50
181.5
 51
270.0
  0
LINE
  5
B0
330
1F
100
AcDbEntity
  8
GR1-1
  6
CONTINUOUS
 62
     3
100
AcDbLine
 10
332.263344
 20
213.068515
 30
0.0
 11
338.419701
 21
213.068515
 31
0.0
  0
LINE
  5
B1
330
1F
100
AcDbEntity
  8
GR1-1
  6
CONTINUOUS
 62
     3
100
AcDbLine
 10
338.419701
 20
213.068515
 30
0.0
 11
339.919701
 21
214.818515
 31
0.0
  0
LINE
  5
B2
330
1F
100
AcDbEntity
  8
GR1-1
  6
CONTINUOUS
 62
     3
100
AcDbLine
 10
339.919701
 20
214.818515
 30
0.0
 11
368.251546
 21
214.818515
 31
0.0
  0
ARC
  5
B3
330
1F
100
AcDbEntity
  8
GR1-1
  6
CONTINUOUS
 62
     3
100
AcDbCircle
 10
365.919701
 20
218.068515
 30
0.0
 40
4.0
100
AcDbArc
 50
-54.340912
 51
54.340912
  0
LINE
  5
B4
330
1F
100
AcDbEntity
  8
GR1-1
  6
CONTINUOUS
 62
     3
100
AcDbLine
 10
368.251546
 20
221.318515
 30
0.0
 11
339.919701
 21
221.318515
 31
0.0
  0
LINE
  5
B5
330
1F
100
AcDbEntity
  8
GR1-1
  6
CONTINUOUS
 62
     3
100
AcDbLine
 10
339.919701
 20
221.318515
 30
0.0
 11
338.419701
 21
223.068515
 31
0.0
  0
LINE
  5
B6
330
1F
100
AcDbEntity
  8
GR1-1
  6
CONTINUOUS
 62
     3
100
AcDbLine
 10
338.419701
 20
223.068515
 30
0.0
 11
333.237501
 21
223.068515
 31
0.0
  0
LINE
  5
B7
330
1F
100
AcDbEntity
  8
GR1-1
  6
CONTINUOUS
 62
     3
100
AcDbLine
 10
330.238529
 20
225.989985
 30
0.0
 11
329.121991
 21
268.628816
 31
0.0
  0
ARC
  5
B8
330
1F
100
AcDbEntity
  8
GR1-1
  6
CONTINUOUS
 62
     3
100
AcDbCircle
 10
316.126446
 20
268.288515
 30
0.0
 40
13.0
100
AcDbArc
 50
1.5
 51
90.0
  0
LINE
  5
B9
330
1F
100
AcDbEntity
  8
GR1-1
  6
CONTINUOUS
 62
     3
100
AcDbLine
 10
316.126446
 20
281.288515
 30
0.0
 11
297.419701
 21
281.288515
 31
0.0
  0
ARC
  5
BA
330
1F
100
AcDbEntity
  8
GR1-1
  6
CONTINUOUS
 62
     3
100
AcDbCircle
 10
284.259796
 20
287.288515
 30
0.0
 40
8.0
100
AcDbArc
 50
15.2369
 51
90.0
  0
LINE
  5
BB
330
1F
100
AcDbEntity
  8
GR1-1
  6
CONTINUOUS
 62
     3
100
AcDbLine
 10
284.259796
 20
295.288515
 30
0.0
 11
207.579607
 21
295.288515
 31
0.0
  0
ARC
  5
BC
330
1F
100
AcDbEntity
  8
GR1-1
  6
CONTINUOUS
 62
     3
100
AcDbCircle
 10
207.579607
 20
287.288515
 30
0.0
 40
8.0
100
AcDbArc
 50
90.0
 51
164.7631
  0
ARC
  5
BD
330
1F
100
AcDbEntity
  8
GR1-1
  6
CONTINUOUS
 62
     3
100
AcDbCircle
 10
337.120626
 20
250.141841
 30
0.0
 40
142.761159772185
100
AcDbArc
 50
164.042227
 51
204.910106
  0
LINE
  5
BE
330
1F
100
AcDbEntity
  8
GR1-1
  6
CONTINUOUS
 62
     3
100
AcDbLine
 10
213.119701
 20
147.288515
 30
0.0
 11
210.619701
 21
147.288515
 31
0.0
  0
LINE
  5
BF
330
1F
100
AcDbEntity
  8
GR1-1
  6
CONTINUOUS
 62
     3
100
AcDbLine
 10
210.119701
 20
147.788515
 30
0.0
 11
210.119701
 21
170.788515
 31
0.0
  0
LINE
  5
C0
330
1F
100
AcDbEntity
  8
GR1-1
  6
CONTINUOUS
 62
     3
100
AcDbLine
 10
210.119701
 20
170.288515
 30
0.0
 11
209.137221
 21
171.990221
 31
0.0
  0
LINE
  5
C1
330
1F
100
AcDbEntity
  8
GR1-1
  6
CONTINUOUS
 62
     3
100
AcDbLine
 10
209.137221
 20
171.990221
 30
0.0
 11
203.102182
 21
171.990221
 31
0.0
  0
LINE
  5
C2
330
1F
100
AcDbEntity
  8
GR1-1
  6
CONTINUOUS
 62
     3
100
AcDbLine
 10
203.102182
 20
171.990221
 30
0.0
 11
202.119701
 21
170.288515
 31
0.0
  0
LINE
  5
C3
330
1F
100
AcDbEntity
  8
GR1-1
  6
CONTINUOUS
 62
     3
100
AcDbLine
 10
202.119701
 20
170.288515
 30
0.0
 11
202.119701
 21
148.288515
 31
0.0
  0
LINE
  5
C4
330
1F
100
AcDbEntity
  8
GR1-1
  6
CONTINUOUS
 62
     3
100
AcDbLine
 10
202.119701
 20
148.288515
 30
0.0
 11
203.102182
 21
146.586809
 31
0.0
  0
LINE
  5
C5
330
1F
100
AcDbEntity
  8
GR1-1
  6
CONTINUOUS
 62
     3
100
AcDbLine
 10
203.102182
 20
146.586809
 30
0.0
 11
209.137221
 21
146.586809
 31
0.0
  0
LINE
  5
C6
330
1F
100
AcDbEntity
  8
GR1-1
  6
CONTINUOUS
 62
     3
100
AcDbLine
 10
209.137221
 20
146.586809
 30
0.0
 11
210.119701
 21
148.288515
 31
0.0
  0
ARC
  5
C7
330
1F
100
AcDbEntity
  8
GR1-1
  6
CONTINUOUS
 62
     3
100
AcDbCircle
 10
210.619701
 20
147.788515
 30
0.0
 40
0.5
100
AcDbArc
 50
180.0
 51
270.0
  0
ARC
  5
C8
330
1F
100
AcDbEntity
  8
GR1-1
  6
CONTINUOUS
 62
     3
100
AcDbCircle
 10
204.496891
 20
149.762236
 30
0.0
 40
5.622810046529507
100
AcDbArc
 50
-34.384247
 51
34.384247
  0
LINE
  5
C9
330
1F
100
AcDbEntity
  8
GR1-1
  6
CONTINUOUS
 62
     3
100
AcDbLine
 10
209.137221
 20
152.937662
 30
0.0
 11
203.102182
 21
152.937662
 31
0.0
  0
ARC
  5
CA
330
1F
100
AcDbEntity
  8
GR1-1
  6
CONTINUOUS
 62
     3
100
AcDbCircle
 10
207.742511
 20
149.762236
 30
0.0
 40
5.622810046529507
100
AcDbArc
 50
145.615753
 51
214.384247
  0
LINE
  5
CB
330
1F
100
AcDbEntity
  8
GR1-1
  6
CONTINUOUS
 62
     3
100
AcDbLine
 10
202.119701
 20
152.286707
 30
0.0
 11
200.919701
 21
152.286707
 31
0.0
  0
LINE
  5
CC
330
1F
100
AcDbEntity
  8
GR1-1
  6
CONTINUOUS
 62
     3
100
AcDbLine
 10
200.919701
 20
152.286707
 30
0.0
 11
199.919701
 21
153.286707
 31
0.0
  0
LINE
  5
CD
330
1F
100
AcDbEntity
  8
GR1-1
  6
CONTINUOUS
 62
     3
100
AcDbLine
 10
199.919701
 20
153.286707
 30
0.0
 11
199.919701
 21
165.286707
 31
0.0
  0
LINE
  5
CE
330
1F
100
AcDbEntity
  8
GR1-1
  6
CONTINUOUS
 62
     3
100
AcDbLine
 10
199.919701
 20
165.286707
 30
0.0
 11
200.919701
 21
166.286707
 31
0.0
  0
LINE
  5
CF
330
1F
100
AcDbEntity
  8
GR1-1
  6
CONTINUOUS
 62
     3
100
AcDbLine
 10
200.919701
 20
166.286707
 30
0.0
 11
202.119701
 21
166.286707
 31
0.0
  0
LINE
  5
D0
330
1F
100
AcDbEntity
  8
GR1-1
  6
CONTINUOUS
 62
     3
100
AcDbLine
 10
203.102182
 20
165.639368
 30
0.0
 11
209.137221
 21
165.639368
 31
0.0
  0
ARC
  5
D1
330
1F
100
AcDbEntity
  8
GR1-1
  6
CONTINUOUS
 62
     3
100
AcDbCircle
 10
204.496891
 20
168.814795
 30
0.0
 40
5.622810046529507
100
AcDbArc
 50
-34.384247
 51
34.384247
  0
LINE
  5
D2
330
1F
100
AcDbEntity
  8
GR1-1
  6
CONTINUOUS
 62
     3
100
AcDbLine
 10
210.619701
 20
171.288515
 30
0.0
 11
213.119701
 21
171.288515
 31
0.0
  0
ARC
  5
D3
330
1F
100
AcDbEntity
  8
GR1-1
  6
CONTINUOUS
 62
     3
100
AcDbCircle
 10
213.119701
 20
170.788515
 30
0.0
 40
0.5
100
AcDbArc
 50
77.856994
 51
90.0
  0
ARC
  5
D4
330
1F
100
AcDbEntity
  8
GR1-1
  6
CONTINUOUS
 62
     3
100
AcDbCircle
 10
210.619701
 20
170.788515
 30
0.0
 40
0.5
100
AcDbArc
 50
90.0
 51
180.0
  0
LINE
  5
D5
330
1F
100
AcDbEntity
  8
GR1-1
  6
CONTINUOUS
 62
     3
100
AcDbLine
 10
213.619701
 20
167.140541
 30
0.0
 11
213.619701
 21
138.788515
 31
0.0
  0
LINE
  5
D6
330
1F
100
AcDbEntity
  8
GR1-1
  6
CONTINUOUS
 62
     3
100
AcDbLine
 10
213.619701
 20
138.788515
 30
0.0
 11
217.419701
 21
138.788515
 31
0.0
  0
LINE
  5
D7
330
1F
100
AcDbEntity
  8
GR1-1
  6
CONTINUOUS
 62
     3
100
AcDbLine
 10
217.419701
 20
138.788515
 30
0.0
 11
217.419701
 21
295.288515
 31
0.0
  0
ARC
  5
D8
330
1F
100
AcDbEntity
  8
GR1-1
  6
CONTINUOUS
 62
     3
100
AcDbCircle
 10
337.120626
 20
250.141841
 30
0.0
 40
138.961159772185
100
AcDbArc
 50
161.148183
 51
204.898239
  0
ARC
  5
D9
330
1F
100
AcDbEntity
  8
GR1-1
  6
CONTINUOUS
 62
     3
100
AcDbCircle
 10
207.742511
 20
168.814795
 30
0.0
 40
5.622810046529507
100
AcDbArc
 50
145.615753
 51
214.384247
  0
ARC
  5
DA
330
1F
100
AcDbEntity
  8
GR1-1
  6
CONTINUOUS
 62
     3
100
AcDbCircle
 10
223.137221
 20
159.288515
 30
0.0
 40
21.01751962775467
100
AcDbArc
 50
162.412046
 51
197.587954
  0
ARC
  5
DB
330
1F
100
AcDbEntity
  8
GR1-1
  6
CONTINUOUS
 62
     3
100
AcDbCircle
 10
189.102182
 20
159.288515
 30
0.0
 40
21.01751962775467
100
AcDbArc
 50
-17.587954
 51
17.587954
  0
ARC
  5
DC
330
1F
100
AcDbEntity
  8
GR1-1
  6
CONTINUOUS
 62
     3
100
AcDbCircle
 10
152.592302
 20
163.403191
 30
0.0
 40
61.14173070542847
100
AcDbArc
 50
3.504447
 51
25.797363
  0
ARC
  5
DD
330
1F
100
AcDbEntity
  8
GR1-1
  6
CONTINUOUS
 62
     3
100
AcDbCircle
 10
152.592302
 20
163.403191
 30
0.0
 40
64.94173070542847
100
AcDbArc
 50
3.504447
 51
25.770838
  0
LINE
  5
DE
330
1F
100
AcDbEntity
  8
GR1-1
  6
CONTINUOUS
 62
     3
100
AcDbLine
 10
274.419701
 20
138.788515
 30
0.0
 11
274.419701
 21
295.288515
 31
0.0
  0
LINE
  5
DF
330
1F
100
AcDbEntity
  8
GR1-1
  6
CONTINUOUS
 62
     3
100
AcDbLine
 10
270.169701
 20
283.588515
 30
0.0
 11
262.919701
 21
281.588515
 31
0.0
  0
LINE
  5
E0
330
1F
100
AcDbEntity
  8
GR1-1
  6
CONTINUOUS
 62
     3
100
AcDbLine
 10
262.919701
 20
281.588515
 30
0.0
 11
262.919701
 21
257.888515
 31
0.0
  0
LINE
  5
E1
330
1F
100
AcDbEntity
  8
GR1-1
  6
CONTINUOUS
 62
     3
100
AcDbLine
 10
262.919701
 20
257.888515
 30
0.0
 11
256.409696
 21
257.888515
 31
0.0
  0
ARC
  5
E2
330
1F
100
AcDbEntity
  8
GR1-1
  6
CONTINUOUS
 62
     3
100
AcDbCircle
 10
260.919701
 20
262.688515
 30
0.0
 40
2.0
100
AcDbArc
 50
0.0
 51
90.0
  0
LINE
  5
E3
330
1F
100
AcDbEntity
  8
GR1-1
  6
CONTINUOUS
 62
     3
100
AcDbLine
 10
260.919701
 20
264.688515
 30
0.0
 11
258.919701
 21
264.688515
 31
0.0
  0
LINE
  5
E4
330
1F
100
AcDbEntity
  8
GR1-1
  6
CONTINUOUS
 62
     3
100
AcDbLine
 10
258.919701
 20
264.688515
 30
0.0
 11
257.919701
 21
265.688515
 31
0.0
  0
LINE
  5
E5
330
1F
100
AcDbEntity
  8
GR1-1
  6
CONTINUOUS
 62
     3
100
AcDbLine
 10
257.919701
 20
265.688515
 30
0.0
 11
253.919701
 21
265.688515
 31
0.0
  0
LINE
  5
E6
330
1F
100
AcDbEntity
  8
GR1-1
  6
CONTINUOUS
 62
     3
100
AcDbLine
 10
253.919701
 20
265.688515
 30
0.0
 11
252.919701
 21
264.688515
 31
0.0
  0
LINE
  5
E7
330
1F
100
AcDbEntity
  8
GR1-1
  6
CONTINUOUS
 62
     3
100
AcDbLine
 10
252.919701
 20
264.688515
 30
0.0
 11
248.919701
 21
264.688515
 31
0.0
  0
LINE
  5
E8
330
1F
100
AcDbEntity
  8
GR1-1
  6
CONTINUOUS
 62
     3
100
AcDbLine
 10
248.919701
 20
264.688515
 30
0.0
 11
247.919701
 21
265.688515
 31
0.0
  0
LINE
  5
E9
330
1F
100
AcDbEntity
  8
GR1-1
  6
CONTINUOUS
 62
     3
100
AcDbLine
 10
247.919701
 20
265.688515
 30
0.0
 11
243.919701
 21
265.688515
 31
0.0
  0
LINE
  5
EA
330
1F
100
AcDbEntity
  8
GR1-1
  6
CONTINUOUS
 62
     3
100
AcDbLine
 10
243.919701
 20
265.688515
 30
0.0
 11
242.919701
 21
264.688515
 31
0.0
  0
LINE
  5
EB
330
1F
100
AcDbEntity
  8
GR1-1
  6
CONTINUOUS
 62
     3
100
AcDbLine
 10
242.919701
 20
264.688515
 30
0.0
 11
238.919701
 21
264.688515
 31
0.0
  0
LINE
  5
EC
330
1F
100
AcDbEntity
  8
GR1-1
  6
CONTINUOUS
 62
     3
100
AcDbLine
 10
238.919701
 20
264.688515
 30
0.0
 11
237.919701
 21
265.688515
 31
0.0
  0
LINE
  5
ED
330
1F
100
AcDbEntity
  8
GR1-1
  6
CONTINUOUS
 62
     3
100
AcDbLine
 10
237.919701
 20
265.688515
 30
0.0
 11
233.919701
 21
265.688515
 31
0.0
  0
LINE
  5
EE
330
1F
100
AcDbEntity
  8
GR1-1
  6
CONTINUOUS
 62
     3
100
AcDbLine
 10
233.919701
 20
265.688515
 30
0.0
 11
232.919701
 21
264.688515
 31
0.0
  0
LINE
  5
EF
330
1F
100
AcDbEntity
  8
GR1-1
  6
CONTINUOUS
 62
     3
100
AcDbLine
 10
232.919701
 20
264.688515
 30
0.0
 11
230.919701
 21
264.688515
 31
0.0
  0
ARC
  5
F0
330
1F
100
AcDbEntity
  8
GR1-1
  6
CONTINUOUS
 62
     3
100
AcDbCircle
 10
230.919701
 20
262.688515
 30
0.0
 40
2.0
100
AcDbArc
 50
90.0
 51
180.0
  0
LINE
  5
F1
330
1F
100
AcDbEntity
  8
GR1-1
  6
CONTINUOUS
 62
     3
100
AcDbLine
 10
228.919701
 20
257.888515
 30
0.0
 11
235.429706
 21
257.888515
 31
0.0
  0
LINE
  5
F2
330
1F
100
AcDbEntity
  8
GR1-1
  6
CONTINUOUS
 62
     3
100
AcDbLine
 10
228.919701
 20
257.888515
 30
0.0
 11
228.919701
 21
281.588515
 31
0.0
  0
LINE
  5
F3
330
1F
100
AcDbEntity
  8
GR1-1
  6
CONTINUOUS
 62
     3
100
AcDbLine
 10
228.919701
 20
281.588515
 30
0.0
 11
221.669701
 21
283.588515
 31
0.0
  0
ARC
  5
F4
330
1F
100
AcDbEntity
  8
GR1-1
  6
CONTINUOUS
 62
     3
100
AcDbCircle
 10
221.669701
 20
283.088515
 30
0.0
 40
0.5
100
AcDbArc
 50
90.0
 51
180.0
  0
LINE
  5
F5
330
1F
100
AcDbEntity
  8
GR1-1
  6
CONTINUOUS
 62
     3
100
AcDbLine
 10
221.169701
 20
283.088515
 30
0.0
 11
221.169701
 21
279.588515
 31
0.0
  0
LINE
  5
F6
330
1F
100
AcDbEntity
  8
GR1-1
  6
CONTINUOUS
 62
     3
100
AcDbLine
 10
221.169701
 20
279.588515
 30
0.0
 11
227.08765
 21
279.588515
 31
0.0
  0
LINE
  5
F7
330
1F
100
AcDbEntity
  8
GR1-1
  6
CONTINUOUS
 62
     3
100
AcDbLine
 10
228.819701
 20
279.588515
 30
0.0
 11
228.919701
 21
279.588515
 31
0.0
  0
ARC
  5
F8
330
1F
100
AcDbEntity
  8
GR1-1
  6
CONTINUOUS
 62
     3
100
AcDbCircle
 10
228.819701
 20
278.588515
 30
0.0
 40
1.0
100
AcDbArc
 50
90.0
 51
135.572996
  0
LINE
  5
F9
330
1F
100
AcDbEntity
  8
GR1-1
  6
CONTINUOUS
 62
     3
100
AcDbLine
 10
228.919701
 20
279.288515
 30
0.0
 11
217.419701
 21
279.288515
 31
0.0
  0
LINE
  5
FA
330
1F
100
AcDbEntity
  8
GR1-1
  6
CONTINUOUS
 62
     3
100
AcDbLine
 10
217.419701
 20
281.288515
 30
0.0
 11
221.169701
 21
281.288515
 31
0.0
  0
LINE
  5
FB
330
1F
100
AcDbEntity
  8
GR1-1
  6
CONTINUOUS
 62
     3
100
AcDbLine
 10
228.819701
 20
280.588515
 30
0.0
 11
263.019701
 21
280.588515
 31
0.0
  0
LINE
  5
FC
330
1F
100
AcDbEntity
  8
GR1-1
  6
CONTINUOUS
 62
     3
100
AcDbLine
 10
263.019701
 20
279.588515
 30
0.0
 11
262.919701
 21
279.588515
 31
0.0
  0
LINE
  5
FD
330
1F
100
AcDbEntity
  8
GR1-1
  6
CONTINUOUS
 62
     3
100
AcDbLine
 10
262.919701
 20
279.288515
 30
0.0
 11
274.419701
 21
279.288515
 31
0.0
  0
LINE
  5
FE
330
1F
100
AcDbEntity
  8
GR1-1
  6
CONTINUOUS
 62
     3
100
AcDbLine
 10
274.419701
 20
281.288515
 30
0.0
 11
270.669701
 21
281.288515
 31
0.0
  0
LINE
  5
FF
330
1F
100
AcDbEntity
  8
GR1-1
  6
CONTINUOUS
 62
     3
100
AcDbLine
 10
270.669701
 20
279.588515
 30
0.0
 11
264.751752
 21
279.588515
 31
0.0
  0
ARC
  5
100
330
1F
100
AcDbEntity
  8
GR1-1
  6
CONTINUOUS
 62
     3
100
AcDbCircle
 10
263.019701
 20
278.588515
 30
0.0
 40
2.0
100
AcDbArc
 50
20.487315
 51
90.0
  0
ARC
  5
101
330
1F
100
AcDbEntity
  8
GR1-1
  6
CONTINUOUS
 62
     3
100
AcDbCircle
 10
263.019701
 20
278.588515
 30
0.0
 40
1.0
100
AcDbArc
 50
44.427004
 51
90.0
  0
LINE
  5
102
330
1F
100
AcDbEntity
  8
GR1-1
  6
CONTINUOUS
 62
     3
100
AcDbLine
 10
262.919701
 20
273.288515
 30
0.0
 11
274.419701
 21
273.288515
 31
0.0
  0
LINE
  5
103
330
1F
100
AcDbEntity
  8
GR1-1
  6
CONTINUOUS
 62
     3
100
AcDbLine
 10
274.419701
 20
271.288515
 30
0.0
 11
266.219701
 21
271.288515
 31
0.0
  0
LINE
  5
104
330
1F
100
AcDbEntity
  8
GR1-1
  6
CONTINUOUS
 62
     3
100
AcDbLine
 10
266.219701
 20
271.288515
 30
0.0
 11
265.330812
 21
273.288515
 31
0.0
  0
LINE
  5
105
330
1F
100
AcDbEntity
  8
GR1-1
  6
CONTINUOUS
 62
     3
100
AcDbLine
 10
262.919701
 20
271.988515
 30
0.0
 11
228.919701
 21
271.988515
 31
0.0
  0
LINE
  5
106
330
1F
100
AcDbEntity
  8
GR1-1
  6
CONTINUOUS
 62
     3
100
AcDbLine
 10
228.919701
 20
273.288515
 30
0.0
 11
217.419701
 21
273.288515
 31
0.0
  0
LINE
  5
107
330
1F
100
AcDbEntity
  8
GR1-1
  6
CONTINUOUS
 62
     3
100
AcDbLine
 10
217.419701
 20
271.288515
 30
0.0
 11
225.969701
 21
271.288515
 31
0.0
  0
LINE
  5
108
330
1F
100
AcDbEntity
  8
GR1-1
  6
CONTINUOUS
 62
     3
100
AcDbLine
 10
225.969701
 20
271.288515
 30
0.0
 11
228.414146
 21
273.288515
 31
0.0
  0
ARC
  5
109
330
1F
100
AcDbEntity
  8
GR1-1
  6
CONTINUOUS
 62
     3
100
AcDbCircle
 10
228.819701
 20
278.588515
 30
0.0
 40
2.0
100
AcDbArc
 50
90.0
 51
159.512685
  0
ARC
  5
10A
330
1F
100
AcDbEntity
  8
GR1-1
  6
CONTINUOUS
 62
     3
100
AcDbCircle
 10
245.919701
 20
277.582265
 30
0.0
 40
4.806249999999985
100
AcDbArc
 50
38.717988
 51
141.282012
  0
LINE
  5
10B
330
1F
100
AcDbEntity
  8
GR1-1
  6
CONTINUOUS
 62
     3
100
AcDbLine
 10
270.669701
 20
279.588515
 30
0.0
 11
270.669701
 21
283.088515
 31
0.0
  0
ARC
  5
10C
330
1F
100
AcDbEntity
  8
GR1-1
  6
CONTINUOUS
 62
     3
100
AcDbCircle
 10
270.169701
 20
283.088515
 30
0.0
 40
0.5
100
AcDbArc
 50
0.0
 51
90.0
  0
ARC
  5
10D
330
1F
100
AcDbEntity
  8
GR1-1
  6
CONTINUOUS
 62
     3
100
AcDbCircle
 10
289.419701
 20
301.288515
 30
0.0
 40
8.0
100
AcDbArc
 50
0.0
 51
90.0
  0
ARC
  5
10E
330
1F
100
AcDbEntity
  8
GR1-1
  6
CONTINUOUS
 62
     3
100
AcDbCircle
 10
316.126446
 20
268.288515
 30
0.0
 40
3.0
100
AcDbArc
 50
1.5
 51
90.0
  0
ARC
  5
10F
330
1F
100
AcDbEntity
  8
GR1-1
  6
CONTINUOUS
 62
     3
100
AcDbCircle
 10
333.237501
 20
226.068515
 30
0.0
 40
3.0
100
AcDbArc
 50
181.5
 51
270.0
  0
ARC
  5
110
330
1F
100
AcDbEntity
  8
GR1-1
  6
CONTINUOUS
 62
     3
100
AcDbCircle
 10
339.2471
 20
163.403191
 30
0.0
 40
61.14173070542847
100
AcDbArc
 50
154.202637
 51
176.495553
  0
LINE
  5
111
330
1F
100
AcDbEntity
  8
GR1-1
  6
CONTINUOUS
 62
     3
100
AcDbLine
 10
278.219701
 20
167.140541
 30
0.0
 11
278.219701
 21
138.788515
 31
0.0
  0
LINE
  5
112
330
1F
100
AcDbEntity
  8
GR1-1
  6
CONTINUOUS
 62
     3
100
AcDbLine
 10
278.219701
 20
138.788515
 30
0.0
 11
274.419701
 21
138.788515
 31
0.0
  0
LINE
  5
113
330
1F
100
AcDbEntity
  8
GR1-1
  6
CONTINUOUS
 62
     3
100
AcDbLine
 10
278.219701
 20
146.286707
 30
0.0
 11
281.219701
 21
146.286707
 31
0.0
  0
LINE
  5
114
330
1F
100
AcDbEntity
  8
GR1-1
  6
CONTINUOUS
 62
     3
100
AcDbLine
 10
281.219701
 20
146.286707
 30
0.0
 11
282.719701
 21
149.286707
 31
0.0
  0
LINE
  5
115
330
1F
100
AcDbEntity
  8
GR1-1
  6
CONTINUOUS
 62
     3
100
AcDbLine
 10
282.719701
 20
149.286707
 30
0.0
 11
282.719701
 21
169.286707
 31
0.0
  0
LINE
  5
116
330
1F
100
AcDbEntity
  8
GR1-1
  6
CONTINUOUS
 62
     3
100
AcDbLine
 10
282.719701
 20
169.286707
 30
0.0
 11
281.219701
 21
172.286707
 31
0.0
  0
LINE
  5
117
330
1F
100
AcDbEntity
  8
GR1-1
  6
CONTINUOUS
 62
     3
100
AcDbLine
 10
281.219701
 20
172.286707
 30
0.0
 11
278.754172
 21
172.286707
 31
0.0
  0
ARC
  5
118
330
1F
100
AcDbEntity
  8
GR1-1
  6
CONTINUOUS
 62
     3
100
AcDbCircle
 10
154.718777
 20
250.141841
 30
0.0
 40
142.761159772185
100
AcDbArc
 50
-24.910106
 51
15.957773
  0
ARC
  5
119
330
1F
100
AcDbEntity
  8
GR1-1
  6
CONTINUOUS
 62
     3
100
AcDbCircle
 10
202.419701
 20
301.288515
 30
0.0
 40
8.0
100
AcDbArc
 50
90.0
 51
180.0
  0
ARC
  5
11A
330
1F
100
AcDbEntity
  8
GR1-1
  6
CONTINUOUS
 62
     3
100
AcDbCircle
 10
339.2471
 20
163.403191
 30
0.0
 40
64.94173070542847
100
AcDbArc
 50
154.229162
 51
176.495553
  0
ARC
  5
11B
330
1F
100
AcDbEntity
  8
GR1-1
  6
CONTINUOUS
 62
     3
100
AcDbCircle
 10
154.718777
 20
250.141841
 30
0.0
 40
138.961159772185
100
AcDbArc
 50
-24.898239
 51
18.851817
  0
ARC
  5
11C
330
1F
100
AcDbEntity
  8
GR1-1
  6
CONTINUOUS
 62
     3
100
AcDbCircle
 10
213.119701
 20
147.788515
 30
0.0
 40
0.5
100
AcDbArc
 50
270.0
 51
360.0
  0
ARC
  5
11D
330
1F
100
AcDbEntity
  8
GR1-1
  6
CONTINUOUS
 62
     3
100
AcDbCircle
 10
621.88278
 20
291.425253
 30
0.0
 40
4.0
100
AcDbArc
 50
74.97561
 51
160.5
  0
LINE
  5
11E
330
1F
100
AcDbEntity
  8
GR1-1
  6
CONTINUOUS
 62
     3
100
AcDbLine
 10
622.919701
 20
295.288515
 30
0.0
 11
622.919701
 21
302.288515
 31
0.0
  0
ARC
  5
11F
330
1F
100
AcDbEntity
  8
GR1-1
  6
CONTINUOUS
 62
     3
100
AcDbCircle
 10
615.919701
 20
302.288515
 30
0.0
 40
7.0
100
AcDbArc
 50
0.0
 51
90.0
  0
LINE
  5
120
330
1F
100
AcDbEntity
  8
GR1-1
  6
CONTINUOUS
 62
     3
100
AcDbLine
 10
615.919701
 20
309.288515
 30
0.0
 11
574.206474
 21
309.288515
 31
0.0
  0
ARC
  5
121
330
1F
100
AcDbEntity
  8
GR1-1
  6
CONTINUOUS
 62
     3
100
AcDbCircle
 10
574.206474
 20
297.288515
 30
0.0
 40
12.0
100
AcDbArc
 50
90.0
 51
119.744881
  0
LINE
  5
122
330
1F
100
AcDbEntity
  8
GR1-1
  6
CONTINUOUS
 62
     3
100
AcDbLine
 10
568.252807
 20
307.707433
 30
0.0
 11
565.769701
 21
306.288515
 31
0.0
  0
LINE
  5
123
330
1F
100
AcDbEntity
  8
GR1-1
  6
CONTINUOUS
 62
     3
100
AcDbLine
 10
565.769701
 20
306.288515
 30
0.0
 11
526.069701
 21
306.288515
 31
0.0
  0
LINE
  5
124
330
1F
100
AcDbEntity
  8
GR1-1
  6
CONTINUOUS
 62
     3
100
AcDbLine
 10
526.069701
 20
306.288515
 30
0.0
 11
523.586595
 21
307.707433
 31
0.0
  0
ARC
  5
125
330
1F
100
AcDbEntity
  8
GR1-1
  6
CONTINUOUS
 62
     3
100
AcDbCircle
 10
517.632928
 20
297.288515
 30
0.0
 40
12.0
100
AcDbArc
 50
60.255119
 51
90.0
  0
LINE
  5
126
330
1F
100
AcDbEntity
  8
GR1-1
  6
CONTINUOUS
 62
     3
100
AcDbLine
 10
517.632928
 20
309.288515
 30
0.0
 11
475.919701
 21
309.288515
 31
0.0
  0
ARC
  5
127
330
1F
100
AcDbEntity
  8
GR1-1
  6
CONTINUOUS
 62
     3
100
AcDbCircle
 10
475.919701
 20
302.288515
 30
0.0
 40
7.0
100
AcDbArc
 50
90.0
 51
180.0
  0
LINE
  5
128
330
1F
100
AcDbEntity
  8
GR1-1
  6
CONTINUOUS
 62
     3
100
AcDbLine
 10
468.919701
 20
302.288515
 30
0.0
 11
468.919701
 21
295.288515
 31
0.0
  0
ARC
  5
129
330
1F
100
AcDbEntity
  8
GR1-1
  6
CONTINUOUS
 62
     3
100
AcDbCircle
 10
469.956622
 20
291.425253
 30
0.0
 40
4.0
100
AcDbArc
 50
19.5
 51
105.02439
  0
ARC
  5
12A
330
1F
100
AcDbEntity
  8
GR1-1
  6
CONTINUOUS
 62
     3
100
AcDbCircle
 10
989.575344
 20
452.354464
 30
0.0
 40
539.9718142667731
100
AcDbArc
 50
197.191111
 51
201.518889
  0
LINE
  5
12B
330
1F
100
AcDbEntity
  8
GR1-1
  6
CONTINUOUS
 62
     3
100
AcDbLine
 10
487.241352
 20
254.288515
 30
0.0
 11
498.953136
 21
221.318515
 31
0.0
  0
ARC
  5
12C
330
1F
100
AcDbEntity
  8
GR1-1
  6
CONTINUOUS
 62
     3
100
AcDbCircle
 10
501.413962
 20
218.068515
 30
0.0
 40
4.5
100
AcDbArc
 50
133.761743
 51
226.238257
  0
LINE
  5
12D
330
1F
100
AcDbEntity
  8
GR1-1
  6
CONTINUOUS
 62
     3
100
AcDbLine
 10
498.301487
 20
214.818515
 30
0.0
 11
509.526437
 21
214.818515
 31
0.0
  0
ARC
  5
12E
330
1F
100
AcDbEntity
  8
GR1-1
  6
CONTINUOUS
 62
     3
100
AcDbCircle
 10
506.413962
 20
218.068515
 30
0.0
 40
4.5
100
AcDbArc
 50
-46.238257
 51
46.238257
  0
LINE
  5
12F
330
1F
100
AcDbEntity
  8
GR1-1
  6
CONTINUOUS
 62
     3
100
AcDbLine
 10
509.526437
 20
221.318515
 30
0.0
 11
498.301487
 21
221.318515
 31
0.0
  0
ARC
  5
130
330
1F
100
AcDbEntity
  8
GR1-1
  6
CONTINUOUS
 62
     3
100
AcDbCircle
 10
29.896508
 20
49.425305
 30
0.0
 40
501.1319594513729
100
AcDbArc
 50
20.114454
 51
24.129533
  0
ARC
  5
131
330
1F
100
AcDbEntity
  8
GR1-1
  6
CONTINUOUS
 62
     3
100
AcDbCircle
 10
1061.942894
 20
49.425305
 30
0.0
 40
501.1319594513729
100
AcDbArc
 50
155.870467
 51
164.980976
  0
LINE
  5
132
330
1F
100
AcDbEntity
  8
GR1-1
  6
CONTINUOUS
 62
     3
100
AcDbLine
 10
569.466165
 20
155.388273
 30
0.0
 11
604.598051
 21
254.288515
 31
0.0
  0
ARC
  5
133
330
1F
100
AcDbEntity
  8
GR1-1
  6
CONTINUOUS
 62
     3
100
AcDbCircle
 10
102.264058
 20
452.354464
 30
0.0
 40
539.9718142667731
100
AcDbArc
 50
338.481111
 51
342.808889
  0
LINE
  5
134
330
1F
100
AcDbEntity
  8
GR1-1
  6
CONTINUOUS
 62
     3
100
AcDbLine
 10
577.119701
 20
278.038515
 30
0.0
 11
576.024439
 21
279.038515
 31
0.0
  0
LINE
  5
135
330
1F
100
AcDbEntity
  8
GR1-1
  6
CONTINUOUS
 62
     3
100
AcDbLine
 10
576.024439
 20
279.038515
 30
0.0
 11
574.626423
 21
279.038515
 31
0.0
  0
LINE
  5
136
330
1F
100
AcDbEntity
  8
GR1-1
  6
CONTINUOUS
 62
     3
100
AcDbLine
 10
572.477139
 20
280.459431
 30
0.0
 11
576.819701
 21
277.588515
 31
0.0
  0
LINE
  5
137
330
1F
100
AcDbEntity
  8
GR1-1
  6
CONTINUOUS
 62
     3
100
AcDbLine
 10
576.819701
 20
277.588515
 30
0.0
 11
576.819701
 21
274.988515
 31
0.0
  0
LINE
  5
138
330
1F
100
AcDbEntity
  8
GR1-1
  6
CONTINUOUS
 62
     3
100
AcDbLine
 10
576.819701
 20
274.988515
 30
0.0
 11
572.769927
 21
272.311165
 31
0.0
  0
ARC
  5
139
330
1F
100
AcDbEntity
  8
GR1-1
  6
CONTINUOUS
 62
     3
100
AcDbCircle
 10
569.719701
 20
276.288515
 30
0.0
 40
5.0
100
AcDbArc
 50
-48.5
 51
131.5
  0
LINE
  5
13A
330
1F
100
AcDbEntity
  8
GR1-1
  6
CONTINUOUS
 62
     3
100
AcDbLine
 10
566.406601
 20
280.033294
 30
0.0
 11
500.600862
 21
221.813294
 31
0.0
  0
ARC
  5
13B
330
1F
100
AcDbEntity
  8
GR1-1
  6
CONTINUOUS
 62
     3
100
AcDbCircle
 10
503.913962
 20
218.068515
 30
0.0
 40
5.000000000000014
100
AcDbArc
 50
220.541602
 51
319.458398
  0
LINE
  5
13C
330
1F
100
AcDbEntity
  8
GR1-1
  6
CONTINUOUS
 62
     3
100
AcDbLine
 10
510.885154
 20
217.560143
 30
0.0
 11
573.032801
 21
272.543737
 31
0.0
  0
ARC
  5
13D
330
1F
100
AcDbEntity
  8
GR1-1
  6
CONTINUOUS
 62
     3
100
AcDbCircle
 10
569.719701
 20
276.288515
 30
0.0
 40
5.2
100
AcDbArc
 50
295.557631
 51
319.411497
  0
LINE
  5
13E
330
1F
100
AcDbEntity
  8
GR1-1
  6
CONTINUOUS
 62
     3
100
AcDbLine
 10
571.469701
 20
271.160823
 30
0.0
 11
571.469701
 21
268.379818
 31
0.0
  0
ARC
  5
13F
330
1F
100
AcDbEntity
  8
GR1-1
  6
CONTINUOUS
 62
     3
100
AcDbCircle
 10
569.719701
 20
276.288515
 30
0.0
 40
8.1
100
AcDbArc
 50
259.618064
 51
282.4771
  0
LINE
  5
140
330
1F
100
AcDbEntity
  8
GR1-1
  6
CONTINUOUS
 62
     3
100
AcDbLine
 10
576.139029
 20
274.538515
 30
0.0
 11
577.628399
 21
274.538515
 31
0.0
  0
ARC
  5
141
330
1F
100
AcDbEntity
  8
GR1-1
  6
CONTINUOUS
 62
     3
100
AcDbCircle
 10
569.719701
 20
276.288515
 30
0.0
 40
8.1
100
AcDbArc
 50
-12.4771
 51
102.4771
  0
LINE
  5
142
330
1F
100
AcDbEntity
  8
GR1-1
  6
CONTINUOUS
 62
     3
100
AcDbLine
 10
567.969701
 20
284.197213
 30
0.0
 11
567.969701
 21
281.185198
 31
0.0
  0
ARC
  5
143
330
1F
100
AcDbEntity
  8
GR1-1
  6
CONTINUOUS
 62
     3
100
AcDbCircle
 10
569.719701
 20
276.288515
 30
0.0
 40
5.2
100
AcDbArc
 50
109.666118
 51
147.442369
  0
LINE
  5
144
330
1F
100
AcDbEntity
  8
GR1-1
  6
CONTINUOUS
 62
     3
100
AcDbLine
 10
564.151914
 20
278.038515
 30
0.0
 11
561.811003
 21
278.038515
 31
0.0
  0
ARC
  5
145
330
1F
100
AcDbEntity
  8
GR1-1
  6
CONTINUOUS
 62
     3
100
AcDbCircle
 10
569.719701
 20
276.288515
 30
0.0
 40
8.1
100
AcDbArc
 50
167.5229
 51
183.381936
  0
ARC
  5
146
330
1F
100
AcDbEntity
  8
GR1-1
  6
CONTINUOUS
 62
     3
100
AcDbCircle
 10
573.119701
 20
276.288515
 30
0.0
 40
4.0
100
AcDbArc
 50
-25.94448
 51
43.432537
  0
ARC
  5
147
330
1F
100
AcDbEntity
  8
GR1-1
  6
CONTINUOUS
 62
     3
100
AcDbCircle
 10
574.867618
 20
276.288515
 30
0.0
 40
2.85208333333304
100
AcDbArc
 50
-37.849289
 51
37.849289
  0
LINE
  5
148
330
1F
100
AcDbEntity
  8
GR1-1
  6
CONTINUOUS
 62
     3
100
AcDbLine
 10
519.23295
 20
281.288515
 30
0.0
 11
525.006453
 21
281.288515
 31
0.0
  0
LINE
  5
149
330
1F
100
AcDbEntity
  8
GR1-1
  6
CONTINUOUS
 62
     3
100
AcDbLine
 10
525.006453
 20
281.288515
 30
0.0
 11
527.893204
 21
276.288515
 31
0.0
  0
LINE
  5
14A
330
1F
100
AcDbEntity
  8
GR1-1
  6
CONTINUOUS
 62
     3
100
AcDbLine
 10
527.893204
 20
276.288515
 30
0.0
 11
525.006453
 21
271.288515
 31
0.0
  0
LINE
  5
14B
330
1F
100
AcDbEntity
  8
GR1-1
  6
CONTINUOUS
 62
     3
100
AcDbLine
 10
525.006453
 20
271.288515
 30
0.0
 11
519.23295
 21
271.288515
 31
0.0
  0
LINE
  5
14C
330
1F
100
AcDbEntity
  8
GR1-1
  6
CONTINUOUS
 62
     3
100
AcDbLine
 10
519.23295
 20
271.288515
 30
0.0
 11
516.346199
 21
276.288515
 31
0.0
  0
LINE
  5
14D
330
1F
100
AcDbEntity
  8
GR1-1
  6
CONTINUOUS
 62
     3
100
AcDbLine
 10
516.346199
 20
276.288515
 30
0.0
 11
519.23295
 21
281.288515
 31
0.0
  0
CIRCLE
  5
14E
330
1F
100
AcDbEntity
  8
GR1-1
  6
CONTINUOUS
 62
     3
100
AcDbCircle
 10
545.919701
 20
159.288515
 30
0.0
 40
12.99819119171332
  0
ARC
  5
14F
330
1F
100
AcDbEntity
  8
GR1-1
  6
CONTINUOUS
 62
     3
100
AcDbCircle
 10
545.919701
 20
163.788515
 30
0.0
 40
25.0
100
AcDbArc
 50
199.633948
 51
340.366052
  0
LINE
  5
150
330
1F
100
AcDbEntity
  8
GR1-1
  6
CONTINUOUS
 62
     3
100
AcDbLine
 10
522.373238
 20
155.388273
 30
0.0
 11
501.700167
 21
213.585312
 31
0.0
  0
ARC
  5
151
330
1F
100
AcDbEntity
  8
GR1-1
  6
CONTINUOUS
 62
     3
100
AcDbCircle
 10
503.913962
 20
218.068515
 30
0.0
 40
5.000000000000014
100
AcDbArc
 50
40.541602
 51
139.458398
  0
ARC
  5
152
330
1F
100
AcDbEntity
  8
GR1-1
  6
CONTINUOUS
 62
     3
100
AcDbCircle
 10
29.896508
 20
49.425305
 30
0.0
 40
501.1319594513729
100
AcDbArc
 50
15.019024
 51
19.060918
  0
LINE
  5
153
330
1F
100
AcDbEntity
  8
GR1-1
  6
CONTINUOUS
 62
     3
100
AcDbLine
 10
510.913962
 20
345.288515
 30
0.0
 11
510.913962
 21
365.316379
 31
0.0
  0
ARC
  5
154
330
1F
100
AcDbEntity
  8
GR1-1
  6
CONTINUOUS
 62
     3
100
AcDbCircle
 10
504.913962
 20
365.316379
 30
0.0
 40
6.0
100
AcDbArc
 50
0.0
 51
38.942441
  0
ARC
  5
155
330
1F
100
AcDbEntity
  8
GR1-1
  6
CONTINUOUS
 62
     3
100
AcDbCircle
 10
511.913962
 20
370.973234
 30
0.0
 40
3.0
100
AcDbArc
 50
180.0
 51
218.942441
  0
LINE
  5
156
330
1F
100
AcDbEntity
  8
GR1-1
  6
CONTINUOUS
 62
     3
100
AcDbLine
 10
508.913962
 20
370.973234
 30
0.0
 11
508.913962
 21
371.864944
 31
0.0
  0
LINE
  5
157
330
1F
100
AcDbEntity
  8
GR1-1
  6
CONTINUOUS
 62
     3
100
AcDbLine
 10
514.328777
 20
377.836339
 30
0.0
 11
557.190886
 21
378.958723
 31
0.0
  0
ARC
  5
158
330
1F
100
AcDbEntity
  8
GR1-1
  6
CONTINUOUS
 62
     3
100
AcDbCircle
 10
556.719701
 20
396.952555
 30
0.0
 40
18.0
100
AcDbArc
 50
271.5
 51
360.0
  0
LINE
  5
159
330
1F
100
AcDbEntity
  8
GR1-1
  6
CONTINUOUS
 62
     3
100
AcDbLine
 10
574.719701
 20
396.952555
 30
0.0
 11
574.719701
 21
421.867193
 31
0.0
  0
ARC
  5
15A
330
1F
100
AcDbEntity
  8
GR1-1
  6
CONTINUOUS
 62
     3
100
AcDbCircle
 10
560.819701
 20
430.788515
 30
0.0
 40
16.0
100
AcDbArc
 50
333.50843
 51
344.231997
  0
LINE
  5
15B
330
1F
100
AcDbEntity
  8
GR1-1
  6
CONTINUOUS
 62
     3
100
AcDbLine
 10
577.996049
 20
425.109404
 30
0.0
 11
590.880759
 21
414.297849
 31
0.0
  0
ARC
  5
15C
330
1F
100
AcDbEntity
  8
GR1-1
  6
CONTINUOUS
 62
     3
100
AcDbCircle
 10
600.522573
 20
425.788515
 30
0.0
 40
15.0
100
AcDbArc
 50
230.0
 51
270.0
  0
LINE
  5
15D
330
1F
100
AcDbEntity
  8
GR1-1
  6
CONTINUOUS
 62
     3
100
AcDbLine
 10
600.522573
 20
410.788515
 30
0.0
 11
607.919701
 21
410.788515
 31
0.0
  0
ARC
  5
15E
330
1F
100
AcDbEntity
  8
GR1-1
  6
CONTINUOUS
 62
     3
100
AcDbCircle
 10
607.919701
 20
425.788515
 30
0.0
 40
15.0
100
AcDbArc
 50
270.0
 51
360.0
  0
LINE
  5
15F
330
1F
100
AcDbEntity
  8
GR1-1
  6
CONTINUOUS
 62
     3
100
AcDbLine
 10
622.919701
 20
425.788515
 30
0.0
 11
622.919701
 21
498.788515
 31
0.0
  0
ARC
  5
160
330
1F
100
AcDbEntity
  8
GR1-1
  6
CONTINUOUS
 62
     3
100
AcDbCircle
 10
607.919701
 20
498.788515
 30
0.0
 40
15.0
100
AcDbArc
 50
0.0
 51
90.0
  0
LINE
  5
161
330
1F
100
AcDbEntity
  8
GR1-1
  6
CONTINUOUS
 62
     3
100
AcDbLine
 10
607.919701
 20
513.788515
 30
0.0
 11
600.522573
 21
513.788515
 31
0.0
  0
ARC
  5
162
330
1F
100
AcDbEntity
  8
GR1-1
  6
CONTINUOUS
 62
     3
100
AcDbCircle
 10
600.522573
 20
498.788515
 30
0.0
 40
15.0
100
AcDbArc
 50
90.0
 51
130.0
  0
LINE
  5
163
330
1F
100
AcDbEntity
  8
GR1-1
  6
CONTINUOUS
 62
     3
100
AcDbLine
 10
590.880759
 20
510.279182
 30
0.0
 11
577.996049
 21
499.467627
 31
0.0
  0
ARC
  5
164
330
1F
100
AcDbEntity
  8
GR1-1
  6
CONTINUOUS
 62
     3
100
AcDbCircle
 10
572.719701
 20
495.988515
 30
0.0
 40
1.5
100
AcDbArc
 50
34.433621
 51
90.0
  0
LINE
  5
165
330
1F
100
AcDbEntity
  8
GR1-1
  6
CONTINUOUS
 62
     3
100
AcDbLine
 10
572.719701
 20
497.488515
 30
0.0
 11
566.719701
 21
497.488515
 31
0.0
  0
ARC
  5
166
330
1F
100
AcDbEntity
  8
GR1-1
  6
CONTINUOUS
 62
     3
100
AcDbCircle
 10
566.719701
 20
495.988515
 30
0.0
 40
1.5
100
AcDbArc
 50
90.0
 51
180.0
  0
ARC
  5
167
330
1F
100
AcDbEntity
  8
GR1-1
  6
CONTINUOUS
 62
     3
100
AcDbCircle
 10
565.140297
 20
514.788515
 30
0.0
 40
20.0
100
AcDbArc
 50
270.0
 51
310.0
  0
LINE
  5
168
330
1F
100
AcDbEntity
  8
GR1-1
  6
CONTINUOUS
 62
     3
100
AcDbLine
 10
571.963785
 20
495.988515
 30
0.0
 11
563.719701
 21
495.988515
 31
0.0
  0
LINE
  5
169
330
1F
100
AcDbEntity
  8
GR1-1
  6
CONTINUOUS
 62
     3
100
AcDbLine
 10
563.719701
 20
495.988515
 30
0.0
 11
563.719701
 21
494.788515
 31
0.0
  0
LINE
  5
16A
330
1F
100
AcDbEntity
  8
GR1-1
  6
CONTINUOUS
 62
     3
100
AcDbLine
 10
565.140297
 20
494.788515
 30
0.0
 11
526.699106
 21
494.788515
 31
0.0
  0
LINE
  5
16B
330
1F
100
AcDbEntity
  8
GR1-1
  6
CONTINUOUS
 62
     3
100
AcDbLine
 10
527.119701
 20
494.788515
 30
0.0
 11
527.893204
 21
495.235097
 31
0.0
  0
LINE
  5
16C
330
1F
100
AcDbEntity
  8
GR1-1
  6
CONTINUOUS
 62
     3
100
AcDbLine
 10
527.893203
 20
495.235097
 30
0.0
 11
527.893204
 21
497.941933
 31
0.0
  0
ARC
  5
16D
330
1F
100
AcDbEntity
  8
GR1-1
  6
CONTINUOUS
 62
     3
100
AcDbCircle
 10
526.449828
 20
495.832693
 30
0.0
 40
2.555822748422663
100
AcDbArc
 50
55.615753
 51
124.384247
  0
ARC
  5
16E
330
1F
100
AcDbEntity
  8
GR1-1
  6
CONTINUOUS
 62
     3
100
AcDbCircle
 10
522.119701
 20
488.835097
 30
0.0
 40
9.553418012614543
100
AcDbArc
 50
72.412046
 51
107.587954
  0
LINE
  5
16F
330
1F
100
AcDbEntity
  8
GR1-1
  6
CONTINUOUS
 62
     3
100
AcDbLine
 10
519.23295
 20
497.941933
 30
0.0
 11
519.23295
 21
496.234365
 31
0.0
  0
ARC
  5
170
330
1F
100
AcDbEntity
  8
GR1-1
  6
CONTINUOUS
 62
     3
100
AcDbCircle
 10
517.789574
 20
495.832693
 30
0.0
 40
2.555822748422663
100
AcDbArc
 50
55.615753
 51
124.384247
  0
LINE
  5
171
330
1F
100
AcDbEntity
  8
GR1-1
  6
CONTINUOUS
 62
     3
100
AcDbLine
 10
516.346199
 20
497.941933
 30
0.0
 11
517.119701
 21
498.388515
 31
0.0
  0
LINE
  5
172
330
1F
100
AcDbEntity
  8
GR1-1
  6
CONTINUOUS
 62
     3
100
AcDbLine
 10
517.119701
 20
498.388515
 30
0.0
 11
517.119701
 21
499.138515
 31
0.0
  0
LINE
  5
173
330
1F
100
AcDbEntity
  8
GR1-1
  6
CONTINUOUS
 62
     3
100
AcDbLine
 10
517.869701
 20
499.888515
 30
0.0
 11
526.369701
 21
499.888515
 31
0.0
  0
LINE
  5
174
330
1F
100
AcDbEntity
  8
GR1-1
  6
CONTINUOUS
 62
     3
100
AcDbLine
 10
527.119701
 20
499.138515
 30
0.0
 11
527.119701
 21
498.388515
 31
0.0
  0
LINE
  5
175
330
1F
100
AcDbEntity
  8
GR1-1
  6
CONTINUOUS
 62
     3
100
AcDbLine
 10
527.119701
 20
498.388515
 30
0.0
 11
527.893203
 21
497.941934
 31
0.0
  0
ARC
  5
176
330
1F
100
AcDbEntity
  8
GR1-1
  6
CONTINUOUS
 62
     3
100
AcDbCircle
 10
526.369701
 20
499.138515
 30
0.0
 40
0.75
100
AcDbArc
 50
0.0
 51
90.0
  0
LINE
  5
177
330
1F
100
AcDbEntity
  8
GR1-1
  6
CONTINUOUS
 62
     3
100
AcDbLine
 10
525.006453
 20
497.941933
 30
0.0
 11
525.006453
 21
495.235097
 31
0.0
  0
ARC
  5
178
330
1F
100
AcDbEntity
  8
GR1-1
  6
CONTINUOUS
 62
     3
100
AcDbCircle
 10
526.449828
 20
497.344338
 30
0.0
 40
2.555822748422663
100
AcDbArc
 50
235.615753
 51
304.384247
  0
ARC
  5
179
330
1F
100
AcDbEntity
  8
GR1-1
  6
CONTINUOUS
 62
     3
100
AcDbCircle
 10
522.119701
 20
504.341933
 30
0.0
 40
9.553418012614543
100
AcDbArc
 50
281.280147
 51
287.587954
  0
ARC
  5
17A
330
1F
100
AcDbEntity
  8
GR1-1
  6
CONTINUOUS
 62
     3
100
AcDbCircle
 10
517.869701
 20
499.138515
 30
0.0
 40
0.75
100
AcDbArc
 50
90.0
 51
180.0
  0
LINE
  5
17B
330
1F
100
AcDbEntity
  8
GR1-1
  6
CONTINUOUS
 62
     3
100
AcDbLine
 10
516.346199
 20
497.941933
 30
0.0
 11
516.346199
 21
497.67661
 31
0.0
  0
ARC
  5
17C
330
1F
100
AcDbEntity
  8
GR1-1
  6
CONTINUOUS
 62
     3
100
AcDbCircle
 10
526.699106
 20
514.788515
 30
0.0
 40
20.0
100
AcDbArc
 50
230.0
 51
270.0
  0
LINE
  5
17D
330
1F
100
AcDbEntity
  8
GR1-1
  6
CONTINUOUS
 62
     3
100
AcDbLine
 10
533.919701
 20
495.288515
 30
0.0
 11
533.919701
 21
497.788515
 31
0.0
  0
LINE
  5
17E
330
1F
100
AcDbEntity
  8
GR1-1
  6
CONTINUOUS
 62
     3
100
AcDbLine
 10
534.419701
 20
498.288515
 30
0.0
 11
557.419701
 21
498.288515
 31
0.0
  0
LINE
  5
17F
330
1F
100
AcDbEntity
  8
GR1-1
  6
CONTINUOUS
 62
     3
100
AcDbLine
 10
556.919701
 20
498.588515
 30
0.0
 11
556.919701
 21
505.988515
 31
0.0
  0
ARC
  5
180
330
1F
100
AcDbEntity
  8
GR1-1
  6
CONTINUOUS
 62
     3
100
AcDbCircle
 10
556.619701
 20
505.988515
 30
0.0
 40
0.3
100
AcDbArc
 50
0.0
 51
90.0
  0
LINE
  5
181
330
1F
100
AcDbEntity
  8
GR1-1
  6
CONTINUOUS
 62
     3
100
AcDbLine
 10
556.619701
 20
506.288515
 30
0.0
 11
535.219701
 21
506.288515
 31
0.0
  0
ARC
  5
182
330
1F
100
AcDbEntity
  8
GR1-1
  6
CONTINUOUS
 62
     3
100
AcDbCircle
 10
535.219701
 20
505.988515
 30
0.0
 40
0.3
100
AcDbArc
 50
90.0
 51
180.0
  0
LINE
  5
183
330
1F
100
AcDbEntity
  8
GR1-1
  6
CONTINUOUS
 62
     3
100
AcDbLine
 10
534.919701
 20
505.988515
 30
0.0
 11
534.919701
 21
498.588515
 31
0.0
  0
ARC
  5
184
330
1F
100
AcDbEntity
  8
GR1-1
  6
CONTINUOUS
 62
     3
100
AcDbCircle
 10
535.219701
 20
498.588515
 30
0.0
 40
0.3
100
AcDbArc
 50
180.0
 51
270.0
  0
ARC
  5
185
330
1F
100
AcDbEntity
  8
GR1-1
  6
CONTINUOUS
 62
     3
100
AcDbCircle
 10
534.419701
 20
497.788515
 30
0.0
 40
0.5
100
AcDbArc
 50
90.0
 51
180.0
  0
ARC
  5
186
330
1F
100
AcDbEntity
  8
GR1-1
  6
CONTINUOUS
 62
     3
100
AcDbCircle
 10
540.419701
 20
514.174465
 30
0.0
 40
15.88594976734669
100
AcDbArc
 50
249.743842
 51
290.256158
  0
LINE
  5
187
330
1F
100
AcDbEntity
  8
GR1-1
  6
CONTINUOUS
 62
     3
100
AcDbLine
 10
545.919701
 20
499.270996
 30
0.0
 11
545.919701
 21
505.306035
 31
0.0
  0
ARC
  5
188
330
1F
100
AcDbEntity
  8
GR1-1
  6
CONTINUOUS
 62
     3
100
AcDbCircle
 10
540.419701
 20
490.402566
 30
0.0
 40
15.88594976734669
100
AcDbArc
 50
69.743842
 51
110.256158
  0
LINE
  5
189
330
1F
100
AcDbEntity
  8
GR1-1
  6
CONTINUOUS
 62
     3
100
AcDbLine
 10
538.917892
 20
506.288515
 30
0.0
 11
538.917892
 21
507.888515
 31
0.0
  0
LINE
  5
18A
330
1F
100
AcDbEntity
  8
GR1-1
  6
CONTINUOUS
 62
     3
100
AcDbLine
 10
538.917892
 20
507.888515
 30
0.0
 11
539.917892
 21
508.888515
 31
0.0
  0
LINE
  5
18B
330
1F
100
AcDbEntity
  8
GR1-1
  6
CONTINUOUS
 62
     3
100
AcDbLine
 10
539.917892
 20
508.888515
 30
0.0
 11
551.917892
 21
508.888515
 31
0.0
  0
LINE
  5
18C
330
1F
100
AcDbEntity
  8
GR1-1
  6
CONTINUOUS
 62
     3
100
AcDbLine
 10
551.917892
 20
508.888515
 30
0.0
 11
552.917892
 21
507.888515
 31
0.0
  0
LINE
  5
18D
330
1F
100
AcDbEntity
  8
GR1-1
  6
CONTINUOUS
 62
     3
100
AcDbLine
 10
552.917892
 20
507.888515
 30
0.0
 11
552.917892
 21
506.288515
 31
0.0
  0
ARC
  5
18E
330
1F
100
AcDbEntity
  8
GR1-1
  6
CONTINUOUS
 62
     3
100
AcDbCircle
 10
551.419701
 20
490.402566
 30
0.0
 40
15.88594976734669
100
AcDbArc
 50
69.743842
 51
110.256158
  0
ARC
  5
18F
330
1F
100
AcDbEntity
  8
GR1-1
  6
CONTINUOUS
 62
     3
100
AcDbCircle
 10
551.419701
 20
514.174465
 30
0.0
 40
15.88594976734669
100
AcDbArc
 50
249.743842
 51
290.256158
  0
ARC
  5
190
330
1F
100
AcDbEntity
  8
GR1-1
  6
CONTINUOUS
 62
     3
100
AcDbCircle
 10
556.619701
 20
498.588515
 30
0.0
 40
0.3
100
AcDbArc
 50
270.0
 51
360.0
  0
LINE
  5
191
330
1F
100
AcDbEntity
  8
GR1-1
  6
CONTINUOUS
 62
     3
100
AcDbLine
 10
557.919701
 20
497.788515
 30
0.0
 11
557.919701
 21
495.288515
 31
0.0
  0
ARC
  5
192
330
1F
100
AcDbEntity
  8
GR1-1
  6
CONTINUOUS
 62
     3
100
AcDbCircle
 10
557.419701
 20
495.288515
 30
0.0
 40
0.5
100
AcDbArc
 50
270.0
 51
360.0
  0
ARC
  5
193
330
1F
100
AcDbEntity
  8
GR1-1
  6
CONTINUOUS
 62
     3
100
AcDbCircle
 10
557.419701
 20
497.788515
 30
0.0
 40
0.5
100
AcDbArc
 50
0.0
 51
90.0
  0
ARC
  5
194
330
1F
100
AcDbEntity
  8
GR1-1
  6
CONTINUOUS
 62
     3
100
AcDbCircle
 10
534.419701
 20
495.288515
 30
0.0
 40
0.5
100
AcDbArc
 50
180.0
 51
270.0
  0
LINE
  5
195
330
1F
100
AcDbEntity
  8
GR1-1
  6
CONTINUOUS
 62
     3
100
AcDbLine
 10
513.843354
 20
499.467627
 30
0.0
 11
500.958644
 21
510.279182
 31
0.0
  0
ARC
  5
196
330
1F
100
AcDbEntity
  8
GR1-1
  6
CONTINUOUS
 62
     3
100
AcDbCircle
 10
491.316829
 20
498.788515
 30
0.0
 40
15.0
100
AcDbArc
 50
50.0
 51
90.0
  0
LINE
  5
197
330
1F
100
AcDbEntity
  8
GR1-1
  6
CONTINUOUS
 62
     3
100
AcDbLine
 10
491.316829
 20
513.788515
 30
0.0
 11
483.919701
 21
513.788515
 31
0.0
  0
ARC
  5
198
330
1F
100
AcDbEntity
  8
GR1-1
  6
CONTINUOUS
 62
     3
100
AcDbCircle
 10
483.919701
 20
498.788515
 30
0.0
 40
15.0
100
AcDbArc
 50
90.0
 51
180.0
  0
LINE
  5
199
330
1F
100
AcDbEntity
  8
GR1-1
  6
CONTINUOUS
 62
     3
100
AcDbLine
 10
468.919701
 20
498.788515
 30
0.0
 11
468.919701
 21
425.788515
 31
0.0
  0
ARC
  5
19A
330
1F
100
AcDbEntity
  8
GR1-1
  6
CONTINUOUS
 62
     3
100
AcDbCircle
 10
483.919701
 20
425.788515
 30
0.0
 40
15.0
100
AcDbArc
 50
180.0
 51
270.0
  0
LINE
  5
19B
330
1F
100
AcDbEntity
  8
GR1-1
  6
CONTINUOUS
 62
     3
100
AcDbLine
 10
483.919701
 20
410.788515
 30
0.0
 11
491.316829
 21
410.788515
 31
0.0
  0
ARC
  5
19C
330
1F
100
AcDbEntity
  8
GR1-1
  6
CONTINUOUS
 62
     3
100
AcDbCircle
 10
491.316829
 20
425.788515
 30
0.0
 40
15.0
100
AcDbArc
 50
270.0
 51
310.0
  0
LINE
  5
19D
330
1F
100
AcDbEntity
  8
GR1-1
  6
CONTINUOUS
 62
     3
100
AcDbLine
 10
500.958644
 20
414.297849
 30
0.0
 11
513.843354
 21
425.109404
 31
0.0
  0
LINE
  5
19E
330
1F
100
AcDbEntity
  8
GR1-1
  6
CONTINUOUS
 62
     3
100
AcDbLine
 10
516.346199
 20
426.523773
 30
0.0
 11
516.346199
 21
426.900421
 31
0.0
  0
ARC
  5
19F
330
1F
100
AcDbEntity
  8
GR1-1
  6
CONTINUOUS
 62
     3
100
AcDbCircle
 10
517.789574
 20
427.572882
 30
0.0
 40
1.784366509561449
100
AcDbArc
 50
216.011315
 51
323.988685
  0
LINE
  5
1A0
330
1F
100
AcDbEntity
  8
GR1-1
  6
CONTINUOUS
 62
     3
100
AcDbLine
 10
519.23295
 20
426.523773
 30
0.0
 11
519.23295
 21
428.342666
 31
0.0
  0
ARC
  5
1A1
330
1F
100
AcDbEntity
  8
GR1-1
  6
CONTINUOUS
 62
     3
100
AcDbCircle
 10
522.119701
 20
431.823096
 30
0.0
 40
6.0345803552766
100
AcDbArc
 50
241.421119
 51
298.578881
  0
ARC
  5
1A2
330
1F
100
AcDbEntity
  8
GR1-1
  6
CONTINUOUS
 62
     3
100
AcDbCircle
 10
526.449828
 20
427.572882
 30
0.0
 40
1.784366509561449
100
AcDbArc
 50
216.011315
 51
323.988685
  0
LINE
  5
1A3
330
1F
100
AcDbEntity
  8
GR1-1
  6
CONTINUOUS
 62
     3
100
AcDbLine
 10
527.893204
 20
426.523773
 30
0.0
 11
527.893204
 21
429.788515
 31
0.0
  0
ARC
  5
1A4
330
1F
100
AcDbEntity
  8
GR1-1
  6
CONTINUOUS
 62
     3
100
AcDbCircle
 10
526.699106
 20
409.788515
 30
0.0
 40
20.0
100
AcDbArc
 50
90.0
 51
130.0
  0
LINE
  5
1A5
330
1F
100
AcDbEntity
  8
GR1-1
  6
CONTINUOUS
 62
     3
100
AcDbLine
 10
525.006453
 20
426.523773
 30
0.0
 11
525.006453
 21
429.788515
 31
0.0
  0
LINE
  5
1A6
330
1F
100
AcDbEntity
  8
GR1-1
  6
CONTINUOUS
 62
     3
100
AcDbLine
 10
526.699106
 20
429.788515
 30
0.0
 11
565.140297
 21
429.788515
 31
0.0
  0
ARC
  5
1A7
330
1F
100
AcDbEntity
  8
GR1-1
  6
CONTINUOUS
 62
     3
100
AcDbCircle
 10
578.619701
 20
430.788515
 30
0.0
 40
16.0
100
AcDbArc
 50
183.583322
 51
206.49157
  0
LINE
  5
1A8
330
1F
100
AcDbEntity
  8
GR1-1
  6
CONTINUOUS
 62
     3
100
AcDbLine
 10
564.719701
 20
421.867193
 30
0.0
 11
564.719701
 21
396.952555
 31
0.0
  0
LINE
  5
1A9
330
1F
100
AcDbEntity
  8
GR1-1
  6
CONTINUOUS
 62
     3
100
AcDbLine
 10
556.929117
 20
388.955296
 30
0.0
 11
513.795475
 21
387.825802
 31
0.0
  0
ARC
  5
1AA
330
1F
100
AcDbEntity
  8
GR1-1
  6
CONTINUOUS
 62
     3
100
AcDbCircle
 10
514.913962
 20
371.864944
 30
0.0
 40
16.0
100
AcDbArc
 50
91.5
 51
180.0
  0
LINE
  5
1AB
330
1F
100
AcDbEntity
  8
GR1-1
  6
CONTINUOUS
 62
     3
100
AcDbLine
 10
498.913962
 20
371.864944
 30
0.0
 11
498.913962
 21
370.973234
 31
0.0
  0
ARC
  5
1AC
330
1F
100
AcDbEntity
  8
GR1-1
  6
CONTINUOUS
 62
     3
100
AcDbCircle
 10
495.913962
 20
370.973234
 30
0.0
 40
3.0
100
AcDbArc
 50
321.057559
 51
360.0
  0
ARC
  5
1AD
330
1F
100
AcDbEntity
  8
GR1-1
  6
CONTINUOUS
 62
     3
100
AcDbCircle
 10
502.913962
 20
365.316379
 30
0.0
 40
6.0
100
AcDbArc
 50
141.057559
 51
180.0
  0
LINE
  5
1AE
330
1F
100
AcDbEntity
  8
GR1-1
  6
CONTINUOUS
 62
     3
100
AcDbLine
 10
496.913962
 20
365.316379
 30
0.0
 11
496.913962
 21
345.288515
 31
0.0
  0
ARC
  5
1AF
330
1F
100
AcDbEntity
  8
GR1-1
  6
CONTINUOUS
 62
     3
100
AcDbCircle
 10
503.913962
 20
345.288515
 30
0.0
 40
7.0
100
AcDbArc
 50
180.0
 51
360.0
  0
ARC
  5
1B0
330
1F
100
AcDbEntity
  8
GR1-1
  6
CONTINUOUS
 62
     3
100
AcDbCircle
 10
514.913962
 20
371.864944
 30
0.0
 40
6.0
100
AcDbArc
 50
91.5
 51
180.0
  0
ARC
  5
1B1
330
1F
100
AcDbEntity
  8
GR1-1
  6
CONTINUOUS
 62
     3
100
AcDbCircle
 10
556.719701
 20
396.952555
 30
0.0
 40
8.0
100
AcDbArc
 50
271.5
 51
360.0
  0
ARC
  5
1B2
330
1F
100
AcDbEntity
  8
GR1-1
  6
CONTINUOUS
 62
     3
100
AcDbCircle
 10
560.719701
 20
421.867193
 30
0.0
 40
4.0
100
AcDbArc
 50
0.0
 51
26.49157
  0
LINE
  5
1B3
330
1F
100
AcDbEntity
  8
GR1-1
  6
CONTINUOUS
 62
     3
100
AcDbLine
 10
558.917892
 20
426.788515
 30
0.0
 11
555.917892
 21
425.288515
 31
0.0
  0
LINE
  5
1B4
330
1F
100
AcDbEntity
  8
GR1-1
  6
CONTINUOUS
 62
     3
100
AcDbLine
 10
555.917892
 20
425.288515
 30
0.0
 11
535.917892
 21
425.288515
 31
0.0
  0
LINE
  5
1B5
330
1F
100
AcDbEntity
  8
GR1-1
  6
CONTINUOUS
 62
     3
100
AcDbLine
 10
535.917892
 20
425.288515
 30
0.0
 11
532.917892
 21
426.788515
 31
0.0
  0
LINE
  5
1B6
330
1F
100
AcDbEntity
  8
GR1-1
  6
CONTINUOUS
 62
     3
100
AcDbLine
 10
532.917892
 20
426.788515
 30
0.0
 11
532.917892
 21
429.788515
 31
0.0
  0
LINE
  5
1B7
330
1F
100
AcDbEntity
  8
GR1-1
  6
CONTINUOUS
 62
     3
100
AcDbLine
 10
558.917892
 20
429.788515
 30
0.0
 11
558.917892
 21
426.788515
 31
0.0
  0
ARC
  5
1B8
330
1F
100
AcDbEntity
  8
GR1-1
  6
CONTINUOUS
 62
     3
100
AcDbCircle
 10
578.719701
 20
421.867193
 30
0.0
 40
4.0
100
AcDbArc
 50
153.50843
 51
180.0
  0
ARC
  5
1B9
330
1F
100
AcDbEntity
  8
GR1-1
  6
CONTINUOUS
 62
     3
100
AcDbCircle
 10
565.140297
 20
409.788515
 30
0.0
 40
20.0
100
AcDbArc
 50
50.0
 51
90.0
  0
LINE
  5
1BA
330
1F
100
AcDbEntity
  8
GR1-1
  6
CONTINUOUS
 62
     3
100
AcDbLine
 10
596.353837
 20
428.222651
 30
0.0
 11
597.853837
 21
426.722651
 31
0.0
  0
ARC
  5
1BB
330
1F
100
AcDbEntity
  8
GR1-1
  6
CONTINUOUS
 62
     3
100
AcDbCircle
 10
601.919701
 20
430.788515
 30
0.0
 40
5.75
100
AcDbArc
 50
-135.0
 51
45.0
  0
LINE
  5
1BC
330
1F
100
AcDbEntity
  8
GR1-1
  6
CONTINUOUS
 62
     3
100
AcDbLine
 10
605.985565
 20
434.854379
 30
0.0
 11
604.485565
 21
436.354379
 31
0.0
  0
ARC
  5
1BD
330
1F
100
AcDbEntity
  8
GR1-1
  6
CONTINUOUS
 62
     3
100
AcDbCircle
 10
600.419701
 20
432.288515
 30
0.0
 40
5.75
100
AcDbArc
 50
45.0
 51
225.0
  0
ARC
  5
1BE
330
1F
100
AcDbEntity
  8
GR1-1
  6
CONTINUOUS
 62
     3
100
AcDbCircle
 10
601.919701
 20
493.788515
 30
0.0
 40
5.75
100
AcDbArc
 50
-45.0
 51
135.0
  0
LINE
  5
1BF
330
1F
100
AcDbEntity
  8
GR1-1
  6
CONTINUOUS
 62
     3
100
AcDbLine
 10
597.853837
 20
497.854379
 30
0.0
 11
596.353837
 21
496.354379
 31
0.0
  0
ARC
  5
1C0
330
1F
100
AcDbEntity
  8
GR1-1
  6
CONTINUOUS
 62
     3
100
AcDbCircle
 10
600.419701
 20
492.288515
 30
0.0
 40
5.75
100
AcDbArc
 50
135.0
 51
315.0
  0
LINE
  5
1C1
330
1F
100
AcDbEntity
  8
GR1-1
  6
CONTINUOUS
 62
     3
100
AcDbLine
 10
604.485565
 20
488.222651
 30
0.0
 11
605.985565
 21
489.722651
 31
0.0
  0
LINE
  5
1C2
330
1F
100
AcDbEntity
  8
GR1-1
  6
CONTINUOUS
 62
     3
100
AcDbLine
 10
495.485565
 20
496.354379
 30
0.0
 11
493.985565
 21
497.854379
 31
0.0
  0
ARC
  5
1C3
330
1F
100
AcDbEntity
  8
GR1-1
  6
CONTINUOUS
 62
     3
100
AcDbCircle
 10
489.919701
 20
493.788515
 30
0.0
 40
5.75
100
AcDbArc
 50
45.0
 51
225.0
  0
LINE
  5
1C4
330
1F
100
AcDbEntity
  8
GR1-1
  6
CONTINUOUS
 62
     3
100
AcDbLine
 10
485.853837
 20
489.722651
 30
0.0
 11
487.353837
 21
488.222651
 31
0.0
  0
ARC
  5
1C5
330
1F
100
AcDbEntity
  8
GR1-1
  6
CONTINUOUS
 62
     3
100
AcDbCircle
 10
491.419701
 20
492.288515
 30
0.0
 40
5.75
100
AcDbArc
 50
-135.0
 51
45.0
  0
ARC
  5
1C6
330
1F
100
AcDbEntity
  8
GR1-1
  6
CONTINUOUS
 62
     3
100
AcDbCircle
 10
489.919701
 20
430.788515
 30
0.0
 40
5.75
100
AcDbArc
 50
135.0
 51
315.0
  0
LINE
  5
1C7
330
1F
100
AcDbEntity
  8
GR1-1
  6
CONTINUOUS
 62
     3
100
AcDbLine
 10
493.985565
 20
426.722651
 30
0.0
 11
495.485565
 21
428.222651
 31
0.0
  0
ARC
  5
1C8
330
1F
100
AcDbEntity
  8
GR1-1
  6
CONTINUOUS
 62
     3
100
AcDbCircle
 10
491.419701
 20
432.288515
 30
0.0
 40
5.75
100
AcDbArc
 50
-45.0
 51
135.0
  0
LINE
  5
1C9
330
1F
100
AcDbEntity
  8
GR1-1
  6
CONTINUOUS
 62
     3
100
AcDbLine
 10
487.353837
 20
436.354379
 30
0.0
 11
485.853837
 21
434.854379
 31
0.0
  0
TEXT
  5
1CA
330
1F
100
AcDbEntity
  8
GR1-1
  6
CONTINUOUS
 62
     7
100
AcDbText
 10
539.870544
 20
258.475067
 30
0.0
 40
12.908237
  1
 -200
 50
270.0
 41
0.688584
  7
FX_VECTOR
 72
     5
 11
539.870544
 21
214.456312
 31
0.0
100
AcDbText
  0
LINE
  5
1CB
330
1F
100
AcDbEntity
  8
GR1-1
  6
CENTER
 62
     6
100
AcDbLine
 10
245.919701
 20
56.593004
 30
0.0
 11
245.919701
 21
314.056317
 31
0.0
  0
LINE
  5
1CC
330
1F
100
AcDbEntity
  8
GR1-1
  6
CONTINUOUS
 62
     6
100
AcDbLine
 10
228.919701
 20
279.126065
 30
0.0
 11
228.219701
 21
278.747015
 31
0.0
  0
LINE
  5
1CD
330
1F
100
AcDbEntity
  8
GR1-1
  6
CONTINUOUS
 62
     6
100
AcDbLine
 10
228.219701
 20
278.747015
 30
0.0
 11
228.219701
 21
273.830015
 31
0.0
  0
LINE
  5
1CE
330
1F
100
AcDbEntity
  8
GR1-1
  6
CONTINUOUS
 62
     6
100
AcDbLine
 10
228.219701
 20
273.830015
 30
0.0
 11
217.419701
 21
273.830015
 31
0.0
  0
LINE
  5
1CF
330
1F
100
AcDbEntity
  8
GR1-1
  6
CENTER
 62
     6
100
AcDbLine
 10
214.195757
 20
276.288515
 30
0.0
 11
316.126446
 21
276.288515
 31
0.0
  0
ARC
  5
1D0
330
1F
100
AcDbEntity
  8
GR1-1
  6
CENTER
 62
     6
100
AcDbCircle
 10
316.126446
 20
268.288515
 30
0.0
 40
8.0
100
AcDbArc
 50
1.5
 51
90.0
  0
LINE
  5
1D1
330
1F
100
AcDbEntity
  8
GR1-1
  6
CENTER
 62
     6
100
AcDbLine
 10
324.123705
 20
268.497931
 30
0.0
 11
325.252992
 21
225.372188
 31
0.0
  0
ARC
  5
1D2
330
1F
100
AcDbEntity
  8
GR1-1
  6
CENTER
 62
     6
100
AcDbCircle
 10
332.750422
 20
225.568515
 30
0.0
 40
7.5
100
AcDbArc
 50
181.5
 51
270.0
  0
LINE
  5
1D3
330
1F
100
AcDbEntity
  8
GR1-1
  6
CENTER
 62
     6
100
AcDbLine
 10
332.750422
 20
218.068515
 30
0.0
 11
371.126489
 21
218.068515
 31
0.0
  0
LINE
  5
1D4
330
1F
100
AcDbEntity
  8
GR1-1
  6
CENTER
 62
     6
100
AcDbLine
 10
440.465896
 20
159.288515
 30
0.0
 11
648.720744
 21
159.288515
 31
0.0
  0
LINE
  5
1D5
330
1F
100
AcDbEntity
  8
GR1-1
  6
CENTER
 62
     6
100
AcDbLine
 10
569.719701
 20
276.288515
 30
0.0
 11
503.913962
 21
218.068515
 31
0.0
  0
LINE
  5
1D6
330
1F
100
AcDbEntity
  8
GR1-1
  6
CONTINUOUS
 62
     6
100
AcDbLine
 10
572.419701
 20
179.288515
 30
0.0
 11
572.419701
 21
303.288515
 31
0.0
  0
LINE
  5
1D7
330
1F
100
AcDbEntity
  8
GR1-1
  6
CENTER
 62
     6
100
AcDbLine
 10
569.719701
 20
287.817505
 30
0.0
 11
569.719701
 21
263.904691
 31
0.0
  0
LINE
  5
1D8
330
1F
100
AcDbEntity
  8
GR1-1
  6
CENTER
 62
     6
100
AcDbLine
 10
583.899433
 20
276.288515
 30
0.0
 11
514.962101
 21
276.288515
 31
0.0
  0
LINE
  5
1D9
330
1F
100
AcDbEntity
  8
GR1-1
  6
CONTINUOUS
 62
     6
100
AcDbLine
 10
519.419701
 20
270.375817
 30
0.0
 11
519.419701
 21
238.462797
 31
0.0
  0
LINE
  5
1DA
330
1F
100
AcDbEntity
  8
GR1-1
  6
CONTINUOUS
 62
     6
100
AcDbLine
 10
519.419701
 20
225.110873
 30
0.0
 11
519.419701
 21
179.288515
 31
0.0
  0
LINE
  5
1DB
330
1F
100
AcDbEntity
  8
GR1-1
  6
CENTER
 62
     6
100
AcDbLine
 10
503.913962
 20
208.630274
 30
0.0
 11
503.913962
 21
227.100849
 31
0.0
  0
LINE
  5
1DC
330
1F
100
AcDbEntity
  8
GR1-1
  6
CENTER
 62
     6
100
AcDbLine
 10
495.761215
 20
218.068515
 30
0.0
 11
512.525104
 21
218.068515
 31
0.0
  0
LINE
  5
1DD
330
1F
100
AcDbEntity
  8
GR1-1
  6
CENTER
 62
     6
100
AcDbLine
 10
522.119701
 20
267.730741
 30
0.0
 11
522.119701
 21
284.469711
 31
0.0
  0
ARC
  5
1DE
330
1F
100
AcDbEntity
  8
GR1-1
  6
CONTINUOUS
 62
     6
100
AcDbCircle
 10
522.119701
 20
276.288515
 30
0.0
 40
6.5
100
AcDbArc
 50
114.54354
 51
245.45646
  0
CIRCLE
  5
1DF
330
1F
100
AcDbEntity
  8
GR1-1
  6
CONTINUOUS
 62
     6
100
AcDbCircle
 10
522.119701
 20
276.288515
 30
0.0
 40
4.5
  0
LINE
  5
1E0
330
1F
100
AcDbEntity
  8
GR1-1
  6
CONTINUOUS
 62
     6
100
AcDbLine
 10
519.419701
 20
282.201214
 30
0.0
 11
519.419701
 21
303.288515
 31
0.0
  0
LINE
  5
1E1
330
1F
100
AcDbEntity
  8
GR1-1
  6
CENTER
 62
     6
100
AcDbLine
 10
545.919701
 20
313.410188
 30
0.0
 11
545.919701
 21
53.096565
 31
0.0
  0
CIRCLE
  5
1E2
330
1F
100
AcDbEntity
  8
GR1-1
  6
CONTINUOUS
 62
     6
100
AcDbCircle
 10
545.919701
 20
159.288515
 30
0.0
 40
9.998191191713318
  0
LINE
  5
1E3
330
1F
100
AcDbEntity
  8
GR1-1
  6
CENTER
 62
     6
100
AcDbLine
 10
285.634628
 20
159.288515
 30
0.0
 11
197.452582
 21
159.288515
 31
0.0
  0
LINE
  5
1E4
330
1F
100
AcDbEntity
  8
GR1-1
  6
CONTINUOUS
 62
     6
100
AcDbLine
 10
200.10951
 20
165.476515
 30
0.0
 11
202.119701
 21
165.476515
 31
0.0
  0
LINE
  5
1E5
330
1F
100
AcDbEntity
  8
GR1-1
  6
CONTINUOUS
 62
     6
100
AcDbLine
 10
200.919701
 20
166.286707
 30
0.0
 11
200.919701
 21
152.286707
 31
0.0
  0
LINE
  5
1E6
330
1F
100
AcDbEntity
  8
GR1-1
  6
CONTINUOUS
 62
     6
100
AcDbLine
 10
200.10951
 20
153.100515
 30
0.0
 11
202.119701
 21
153.100515
 31
0.0
  0
LINE
  5
1E7
330
1F
100
AcDbEntity
  8
GR1-1
  6
CONTINUOUS
 62
     6
100
AcDbLine
 10
281.219701
 20
172.286707
 30
0.0
 11
281.219701
 21
146.286707
 31
0.0
  0
LINE
  5
1E8
330
1F
100
AcDbEntity
  8
GR1-1
  6
CONTINUOUS
 62
     6
100
AcDbLine
 10
271.919701
 20
272.038515
 30
0.0
 11
274.419701
 21
272.038515
 31
0.0
  0
LINE
  5
1E9
330
1F
100
AcDbEntity
  8
GR1-1
  6
CONTINUOUS
 62
     6
100
AcDbLine
 10
271.919701
 20
272.038515
 30
0.0
 11
271.919701
 21
273.038515
 31
0.0
  0
LINE
  5
1EA
330
1F
100
AcDbEntity
  8
GR1-1
  6
CONTINUOUS
 62
     6
100
AcDbLine
 10
271.919701
 20
273.038515
 30
0.0
 11
272.047906
 21
273.288515
 31
0.0
  0
LINE
  5
1EB
330
1F
100
AcDbEntity
  8
GR1-1
  6
CONTINUOUS
 62
     6
100
AcDbLine
 10
272.047906
 20
279.288515
 30
0.0
 11
271.919701
 21
279.538515
 31
0.0
  0
LINE
  5
1EC
330
1F
100
AcDbEntity
  8
GR1-1
  6
CONTINUOUS
 62
     6
100
AcDbLine
 10
271.919701
 20
279.538515
 30
0.0
 11
271.919701
 21
280.538515
 31
0.0
  0
LINE
  5
1ED
330
1F
100
AcDbEntity
  8
GR1-1
  6
CONTINUOUS
 62
     6
100
AcDbLine
 10
271.919701
 20
280.538515
 30
0.0
 11
274.419701
 21
280.538515
 31
0.0
  0
LINE
  5
1EE
330
1F
100
AcDbEntity
  8
GR1-1
  6
CONTINUOUS
 62
     6
100
AcDbLine
 10
228.919701
 20
273.450965
 30
0.0
 11
228.219701
 21
273.830015
 31
0.0
  0
LINE
  5
1EF
330
1F
100
AcDbEntity
  8
GR1-1
  6
CONTINUOUS
 62
     6
100
AcDbLine
 10
228.219701
 20
278.747015
 30
0.0
 11
217.419701
 21
278.747015
 31
0.0
  0
LINE
  5
1F0
330
1F
100
AcDbEntity
  8
GR1-1
  6
CENTER
 62
     6
100
AcDbLine
 10
440.661624
 20
462.288515
 30
0.0
 11
650.236249
 21
462.288515
 31
0.0
  0
LINE
  5
1F1
330
1F
100
AcDbEntity
  8
GR1-1
  6
CONTINUOUS
 62
     6
100
AcDbLine
 10
565.769701
 20
492.288515
 30
0.0
 11
565.769701
 21
432.288515
 31
0.0
  0
LINE
  5
1F2
330
1F
100
AcDbEntity
  8
GR1-1
  6
CONTINUOUS
 62
     6
100
AcDbLine
 10
566.719701
 20
429.726055
 30
0.0
 11
566.719701
 21
425.288515
 31
0.0
  0
LINE
  5
1F3
330
1F
100
AcDbEntity
  8
GR1-1
  6
CONTINUOUS
 62
     6
100
AcDbLine
 10
566.719701
 20
425.288515
 30
0.0
 11
565.719701
 21
425.288515
 31
0.0
  0
LINE
  5
1F4
330
1F
100
AcDbEntity
  8
GR1-1
  6
CONTINUOUS
 62
     6
100
AcDbLine
 10
565.719701
 20
425.288515
 30
0.0
 11
563.265549
 21
426.288515
 31
0.0
  0
LINE
  5
1F5
330
1F
100
AcDbEntity
  8
GR1-1
  6
CONTINUOUS
 62
     6
100
AcDbLine
 10
563.265549
 20
426.288515
 30
0.0
 11
566.719701
 21
426.288515
 31
0.0
  0
LINE
  5
1F6
330
1F
100
AcDbEntity
  8
GR1-1
  6
CENTER
 62
     6
100
AcDbLine
 10
569.719701
 20
429.257184
 30
0.0
 11
569.719701
 21
396.952555
 31
0.0
  0
LINE
  5
1F7
330
1F
100
AcDbEntity
  8
GR1-1
  6
CENTER
 62
     6
100
AcDbLine
 10
557.060002
 20
383.95701
 30
0.0
 11
515.211755
 21
382.861175
 31
0.0
  0
ARC
  5
1F8
330
1F
100
AcDbEntity
  8
GR1-1
  6
CENTER
 62
     6
100
AcDbCircle
 10
514.913962
 20
371.864944
 30
0.0
 40
11.0
100
AcDbArc
 50
91.5
 51
180.0
  0
LINE
  5
1F9
330
1F
100
AcDbEntity
  8
GR1-1
  6
CENTER
 62
     6
100
AcDbLine
 10
503.913962
 20
371.864944
 30
0.0
 11
503.913962
 21
336.346282
 31
0.0
  0
LINE
  5
1FA
330
1F
100
AcDbEntity
  8
GR1-1
  6
CONTINUOUS
 62
     6
100
AcDbLine
 10
502.464066
 20
339.466334
 30
0.0
 11
502.152292
 21
339.778108
 31
0.0
  0
LINE
  5
1FB
330
1F
100
AcDbEntity
  8
GR1-1
  6
CONTINUOUS
 62
     6
100
AcDbLine
 10
502.152292
 20
339.778108
 30
0.0
 11
503.920059
 21
341.545875
 31
0.0
  0
LINE
  5
1FC
330
1F
100
AcDbEntity
  8
GR1-1
  6
CONTINUOUS
 62
     6
100
AcDbLine
 10
503.913962
 20
341.551971
 30
0.0
 11
505.687826
 21
339.778108
 31
0.0
  0
LINE
  5
1FD
330
1F
100
AcDbEntity
  8
GR1-1
  6
CONTINUOUS
 62
     6
100
AcDbLine
 10
505.687826
 20
339.778108
 30
0.0
 11
505.380127
 21
339.470409
 31
0.0
  0
LINE
  5
1FE
330
1F
100
AcDbEntity
  8
GR1-1
  6
CONTINUOUS
 62
     6
100
AcDbLine
 10
506.394932
 20
340.485215
 30
0.0
 11
508.162699
 21
342.252982
 31
0.0
  0
LINE
  5
1FF
330
1F
100
AcDbEntity
  8
GR1-1
  6
CONTINUOUS
 62
     6
100
AcDbLine
 10
508.162699
 20
342.252982
 30
0.0
 11
506.394932
 21
344.020748
 31
0.0
  0
LINE
  5
200
330
1F
100
AcDbEntity
  8
GR1-1
  6
CONTINUOUS
 62
     6
100
AcDbLine
 10
506.394932
 20
344.020748
 30
0.0
 11
504.627165
 21
342.252982
 31
0.0
  0
LINE
  5
201
330
1F
100
AcDbEntity
  8
GR1-1
  6
CONTINUOUS
 62
     6
100
AcDbLine
 10
504.627165
 20
342.252982
 30
0.0
 11
506.394932
 21
340.485215
 31
0.0
  0
LINE
  5
202
330
1F
100
AcDbEntity
  8
GR1-1
  6
CONTINUOUS
 62
     6
100
AcDbLine
 10
508.869806
 20
342.960088
 30
0.0
 11
509.732068
 21
343.82235
 31
0.0
  0
LINE
  5
203
330
1F
100
AcDbEntity
  8
GR1-1
  6
CONTINUOUS
 62
     6
100
AcDbLine
 10
508.869806
 20
342.960088
 30
0.0
 11
507.102039
 21
344.727855
 31
0.0
  0
LINE
  5
204
330
1F
100
AcDbEntity
  8
GR1-1
  6
CONTINUOUS
 62
     6
100
AcDbLine
 10
507.102039
 20
344.727855
 30
0.0
 11
508.869806
 21
346.495622
 31
0.0
  0
LINE
  5
205
330
1F
100
AcDbEntity
  8
GR1-1
  6
CONTINUOUS
 62
     6
100
AcDbLine
 10
508.913962
 20
346.451466
 30
0.0
 11
509.913962
 21
345.451466
 31
0.0
  0
LINE
  5
206
330
1F
100
AcDbEntity
  8
GR1-1
  6
CONTINUOUS
 62
     6
100
AcDbLine
 10
509.913962
 20
345.288515
 30
0.0
 11
509.913962
 21
363.294769
 31
0.0
  0
ARC
  5
207
330
1F
100
AcDbEntity
  8
GR1-1
  6
CONTINUOUS
 62
     6
100
AcDbCircle
 10
501.913962
 20
363.294769
 30
0.0
 40
8.0
100
AcDbArc
 50
0.0
 51
38.624833
  0
ARC
  5
208
330
1F
100
AcDbEntity
  8
GR1-1
  6
CONTINUOUS
 62
     6
100
AcDbCircle
 10
503.913962
 20
363.017682
 30
0.0
 40
6.770833333333487
100
AcDbArc
 50
51.11993
 51
128.88007
  0
LINE
  5
209
330
1F
100
AcDbEntity
  8
GR1-1
  6
CONTINUOUS
 62
     6
100
AcDbLine
 10
499.663962
 20
368.288515
 30
0.0
 11
508.163962
 21
368.288515
 31
0.0
  0
LINE
  5
20A
330
1F
100
AcDbEntity
  8
GR1-1
  6
CONTINUOUS
 62
     6
100
AcDbLine
 10
508.162699
 20
367.001719
 30
0.0
 11
506.394932
 21
365.233952
 31
0.0
  0
LINE
  5
20B
330
1F
100
AcDbEntity
  8
GR1-1
  6
CONTINUOUS
 62
     6
100
AcDbLine
 10
506.394932
 20
365.233952
 30
0.0
 11
504.627165
 21
367.001719
 31
0.0
  0
LINE
  5
20C
330
1F
100
AcDbEntity
  8
GR1-1
  6
CONTINUOUS
 62
     6
100
AcDbLine
 10
504.627165
 20
367.001719
 30
0.0
 11
505.913962
 21
368.288515
 31
0.0
  0
LINE
  5
20D
330
1F
100
AcDbEntity
  8
GR1-1
  6
CONTINUOUS
 62
     6
100
AcDbLine
 10
506.875903
 20
368.288515
 30
0.0
 11
508.162699
 21
367.001719
 31
0.0
  0
LINE
  5
20E
330
1F
100
AcDbEntity
  8
GR1-1
  6
CONTINUOUS
 62
     6
100
AcDbLine
 10
508.869806
 20
366.294612
 30
0.0
 11
507.102039
 21
364.526845
 31
0.0
  0
LINE
  5
20F
330
1F
100
AcDbEntity
  8
GR1-1
  6
CONTINUOUS
 62
     6
100
AcDbLine
 10
507.102039
 20
364.526845
 30
0.0
 11
508.913962
 21
362.714922
 31
0.0
  0
LINE
  5
210
330
1F
100
AcDbEntity
  8
GR1-1
  6
CONTINUOUS
 62
     6
100
AcDbLine
 10
508.869806
 20
362.759078
 30
0.0
 11
509.889869
 21
363.779141
 31
0.0
  0
LINE
  5
211
330
1F
100
AcDbEntity
  8
GR1-1
  6
CONTINUOUS
 62
     6
100
AcDbLine
 10
509.88331
 20
362.358368
 30
0.0
 11
509.576913
 21
362.051971
 31
0.0
  0
LINE
  5
212
330
1F
100
AcDbEntity
  8
GR1-1
  6
CONTINUOUS
 62
     6
100
AcDbLine
 10
509.576913
 20
362.051971
 30
0.0
 11
509.942058
 21
361.686826
 31
0.0
  0
LINE
  5
213
330
1F
100
AcDbEntity
  8
GR1-1
  6
CONTINUOUS
 62
     6
100
AcDbLine
 10
508.913962
 20
361.300709
 30
0.0
 11
509.913962
 21
360.300709
 31
0.0
  0
LINE
  5
214
330
1F
100
AcDbEntity
  8
GR1-1
  6
CONTINUOUS
 62
     6
100
AcDbLine
 10
509.913962
 20
358.853487
 30
0.0
 11
508.913962
 21
357.853487
 31
0.0
  0
LINE
  5
215
330
1F
100
AcDbEntity
  8
GR1-1
  6
CONTINUOUS
 62
     6
100
AcDbLine
 10
508.913962
 20
357.765175
 30
0.0
 11
507.102039
 21
359.577098
 31
0.0
  0
LINE
  5
216
330
1F
100
AcDbEntity
  8
GR1-1
  6
CONTINUOUS
 62
     6
100
AcDbLine
 10
507.102039
 20
359.577098
 30
0.0
 11
508.869806
 21
361.344865
 31
0.0
  0
LINE
  5
217
330
1F
100
AcDbEntity
  8
GR1-1
  6
CONTINUOUS
 62
     6
100
AcDbLine
 10
508.162699
 20
362.051971
 30
0.0
 11
506.394932
 21
360.284204
 31
0.0
  0
LINE
  5
218
330
1F
100
AcDbEntity
  8
GR1-1
  6
CONTINUOUS
 62
     6
100
AcDbLine
 10
506.394932
 20
360.284204
 30
0.0
 11
504.627165
 21
362.051971
 31
0.0
  0
LINE
  5
219
330
1F
100
AcDbEntity
  8
GR1-1
  6
CONTINUOUS
 62
     6
100
AcDbLine
 10
504.627165
 20
362.051971
 30
0.0
 11
506.394932
 21
363.819738
 31
0.0
  0
LINE
  5
21A
330
1F
100
AcDbEntity
  8
GR1-1
  6
CONTINUOUS
 62
     6
100
AcDbLine
 10
506.394932
 20
363.819738
 30
0.0
 11
508.162699
 21
362.051971
 31
0.0
  0
LINE
  5
21B
330
1F
100
AcDbEntity
  8
GR1-1
  6
CONTINUOUS
 62
     6
100
AcDbLine
 10
505.687826
 20
364.526845
 30
0.0
 11
503.920059
 21
362.759078
 31
0.0
  0
LINE
  5
21C
330
1F
100
AcDbEntity
  8
GR1-1
  6
CONTINUOUS
 62
     6
100
AcDbLine
 10
503.920059
 20
362.759078
 30
0.0
 11
502.152292
 21
364.526845
 31
0.0
  0
LINE
  5
21D
330
1F
100
AcDbEntity
  8
GR1-1
  6
CONTINUOUS
 62
     6
100
AcDbLine
 10
502.152292
 20
364.526845
 30
0.0
 11
503.920059
 21
366.294612
 31
0.0
  0
LINE
  5
21E
330
1F
100
AcDbEntity
  8
GR1-1
  6
CONTINUOUS
 62
     6
100
AcDbLine
 10
503.920059
 20
366.294612
 30
0.0
 11
505.687826
 21
364.526845
 31
0.0
  0
LINE
  5
21F
330
1F
100
AcDbEntity
  8
GR1-1
  6
CONTINUOUS
 62
     6
100
AcDbLine
 10
503.212952
 20
362.051971
 30
0.0
 11
501.445185
 21
360.284204
 31
0.0
  0
LINE
  5
220
330
1F
100
AcDbEntity
  8
GR1-1
  6
CONTINUOUS
 62
     6
100
AcDbLine
 10
501.445185
 20
360.284204
 30
0.0
 11
499.663962
 21
362.065427
 31
0.0
  0
LINE
  5
221
330
1F
100
AcDbEntity
  8
GR1-1
  6
CONTINUOUS
 62
     6
100
AcDbLine
 10
499.677418
 20
362.051971
 30
0.0
 11
501.445185
 21
363.819738
 31
0.0
  0
LINE
  5
222
330
1F
100
AcDbEntity
  8
GR1-1
  6
CONTINUOUS
 62
     6
100
AcDbLine
 10
501.445185
 20
363.819738
 30
0.0
 11
503.212952
 21
362.051971
 31
0.0
  0
LINE
  5
223
330
1F
100
AcDbEntity
  8
GR1-1
  6
CONTINUOUS
 62
     6
100
AcDbLine
 10
503.913962
 20
361.350961
 30
0.0
 11
505.687826
 21
359.577098
 31
0.0
  0
LINE
  5
224
330
1F
100
AcDbEntity
  8
GR1-1
  6
CONTINUOUS
 62
     6
100
AcDbLine
 10
505.687826
 20
359.577098
 30
0.0
 11
503.920059
 21
357.809331
 31
0.0
  0
LINE
  5
225
330
1F
100
AcDbEntity
  8
GR1-1
  6
CONTINUOUS
 62
     6
100
AcDbLine
 10
503.913962
 20
357.815427
 30
0.0
 11
502.152292
 21
359.577098
 31
0.0
  0
LINE
  5
226
330
1F
100
AcDbEntity
  8
GR1-1
  6
CONTINUOUS
 62
     6
100
AcDbLine
 10
502.152292
 20
359.577098
 30
0.0
 11
503.913962
 21
361.338768
 31
0.0
  0
LINE
  5
227
330
1F
100
AcDbEntity
  8
GR1-1
  6
CONTINUOUS
 62
     6
100
AcDbLine
 10
501.445185
 20
358.869991
 30
0.0
 11
499.677418
 21
357.102224
 31
0.0
  0
LINE
  5
228
330
1F
100
AcDbEntity
  8
GR1-1
  6
CONTINUOUS
 62
     6
100
AcDbLine
 10
499.663962
 20
357.11568
 30
0.0
 11
501.445185
 21
355.334457
 31
0.0
  0
LINE
  5
229
330
1F
100
AcDbEntity
  8
GR1-1
  6
CONTINUOUS
 62
     6
100
AcDbLine
 10
501.445185
 20
355.334457
 30
0.0
 11
503.212952
 21
357.102224
 31
0.0
  0
LINE
  5
22A
330
1F
100
AcDbEntity
  8
GR1-1
  6
CONTINUOUS
 62
     6
100
AcDbLine
 10
503.212952
 20
357.102224
 30
0.0
 11
501.445185
 21
358.869991
 31
0.0
  0
LINE
  5
22B
330
1F
100
AcDbEntity
  8
GR1-1
  6
CONTINUOUS
 62
     6
100
AcDbLine
 10
500.738078
 20
359.577098
 30
0.0
 11
498.970311
 21
357.809331
 31
0.0
  0
LINE
  5
22C
330
1F
100
AcDbEntity
  8
GR1-1
  6
CONTINUOUS
 62
     6
100
AcDbLine
 10
498.970311
 20
357.809331
 30
0.0
 11
497.913962
 21
358.86568
 31
0.0
  0
LINE
  5
22D
330
1F
100
AcDbEntity
  8
GR1-1
  6
CONTINUOUS
 62
     6
100
AcDbLine
 10
497.913962
 20
357.451466
 30
0.0
 11
498.263204
 21
357.102224
 31
0.0
  0
LINE
  5
22E
330
1F
100
AcDbEntity
  8
GR1-1
  6
CONTINUOUS
 62
     6
100
AcDbLine
 10
498.263204
 20
357.102224
 30
0.0
 11
497.913962
 21
356.752982
 31
0.0
  0
LINE
  5
22F
330
1F
100
AcDbEntity
  8
GR1-1
  6
CONTINUOUS
 62
     6
100
AcDbLine
 10
498.913962
 20
356.451466
 30
0.0
 11
500.738078
 21
354.62735
 31
0.0
  0
LINE
  5
230
330
1F
100
AcDbEntity
  8
GR1-1
  6
CONTINUOUS
 62
     6
100
AcDbLine
 10
500.738078
 20
354.62735
 30
0.0
 11
498.970311
 21
352.859583
 31
0.0
  0
LINE
  5
231
330
1F
100
AcDbEntity
  8
GR1-1
  6
CONTINUOUS
 62
     6
100
AcDbLine
 10
498.970311
 20
352.859583
 30
0.0
 11
497.913962
 21
353.915932
 31
0.0
  0
LINE
  5
232
330
1F
100
AcDbEntity
  8
GR1-1
  6
CONTINUOUS
 62
     6
100
AcDbLine
 10
497.913962
 20
352.501719
 30
0.0
 11
498.263204
 21
352.152476
 31
0.0
  0
LINE
  5
233
330
1F
100
AcDbEntity
  8
GR1-1
  6
CONTINUOUS
 62
     6
100
AcDbLine
 10
498.263204
 20
352.152476
 30
0.0
 11
497.913962
 21
351.803234
 31
0.0
  0
LINE
  5
234
330
1F
100
AcDbEntity
  8
GR1-1
  6
CONTINUOUS
 62
     6
100
AcDbLine
 10
498.913962
 20
351.501719
 30
0.0
 11
500.738078
 21
349.677603
 31
0.0
  0
LINE
  5
235
330
1F
100
AcDbEntity
  8
GR1-1
  6
CONTINUOUS
 62
     6
100
AcDbLine
 10
500.738078
 20
349.677603
 30
0.0
 11
498.970311
 21
347.909836
 31
0.0
  0
LINE
  5
236
330
1F
100
AcDbEntity
  8
GR1-1
  6
CONTINUOUS
 62
     6
100
AcDbLine
 10
498.913962
 20
347.966185
 30
0.0
 11
497.913962
 21
348.966185
 31
0.0
  0
LINE
  5
237
330
1F
100
AcDbEntity
  8
GR1-1
  6
CONTINUOUS
 62
     6
100
AcDbLine
 10
497.913962
 20
347.551971
 30
0.0
 11
498.263204
 21
347.202729
 31
0.0
  0
LINE
  5
238
330
1F
100
AcDbEntity
  8
GR1-1
  6
CONTINUOUS
 62
     6
100
AcDbLine
 10
498.263204
 20
347.202729
 30
0.0
 11
497.913962
 21
346.853487
 31
0.0
  0
LINE
  5
239
330
1F
100
AcDbEntity
  8
GR1-1
  6
CONTINUOUS
 62
     6
100
AcDbLine
 10
498.913962
 20
346.551971
 30
0.0
 11
500.738078
 21
344.727855
 31
0.0
  0
LINE
  5
23A
330
1F
100
AcDbEntity
  8
GR1-1
  6
CONTINUOUS
 62
     6
100
AcDbLine
 10
500.738078
 20
344.727855
 30
0.0
 11
498.970311
 21
342.960088
 31
0.0
  0
LINE
  5
23B
330
1F
100
AcDbEntity
  8
GR1-1
  6
CONTINUOUS
 62
     6
100
AcDbLine
 10
498.913962
 20
343.016437
 30
0.0
 11
498.09178
 21
343.838619
 31
0.0
  0
LINE
  5
23C
330
1F
100
AcDbEntity
  8
GR1-1
  6
CONTINUOUS
 62
     6
100
AcDbLine
 10
497.913962
 20
345.288515
 30
0.0
 11
497.913962
 21
363.294769
 31
0.0
  0
LINE
  5
23D
330
1F
100
AcDbEntity
  8
GR1-1
  6
CONTINUOUS
 62
     6
100
AcDbLine
 10
497.938943
 20
363.790447
 30
0.0
 11
498.970311
 21
362.759078
 31
0.0
  0
LINE
  5
23E
330
1F
100
AcDbEntity
  8
GR1-1
  6
CONTINUOUS
 62
     6
100
AcDbLine
 10
498.970311
 20
362.759078
 30
0.0
 11
500.738078
 21
364.526845
 31
0.0
  0
LINE
  5
23F
330
1F
100
AcDbEntity
  8
GR1-1
  6
CONTINUOUS
 62
     6
100
AcDbLine
 10
500.738078
 20
364.526845
 30
0.0
 11
498.964215
 21
366.300709
 31
0.0
  0
LINE
  5
240
330
1F
100
AcDbEntity
  8
GR1-1
  6
CONTINUOUS
 62
     6
100
AcDbLine
 10
498.964215
 20
366.300709
 30
0.0
 11
498.3109
 21
365.647394
 31
0.0
  0
LINE
  5
241
330
1F
100
AcDbEntity
  8
GR1-1
  6
CONTINUOUS
 62
     6
100
AcDbLine
 10
499.665225
 20
367.001719
 30
0.0
 11
500.952021
 21
368.288515
 31
0.0
  0
LINE
  5
242
330
1F
100
AcDbEntity
  8
GR1-1
  6
CONTINUOUS
 62
     6
100
AcDbLine
 10
501.913962
 20
368.288515
 30
0.0
 11
503.200759
 21
367.001719
 31
0.0
  0
LINE
  5
243
330
1F
100
AcDbEntity
  8
GR1-1
  6
CONTINUOUS
 62
     6
100
AcDbLine
 10
503.206855
 20
366.995622
 30
0.0
 11
501.445185
 21
365.233952
 31
0.0
  0
LINE
  5
244
330
1F
100
AcDbEntity
  8
GR1-1
  6
CONTINUOUS
 62
     6
100
AcDbLine
 10
501.445185
 20
365.233952
 30
0.0
 11
499.665225
 21
367.001719
 31
0.0
  0
ARC
  5
245
330
1F
100
AcDbEntity
  8
GR1-1
  6
CONTINUOUS
 62
     6
100
AcDbCircle
 10
505.913962
 20
363.294769
 30
0.0
 40
8.0
100
AcDbArc
 50
141.375167
 51
180.0
  0
LINE
  5
246
330
1F
100
AcDbEntity
  8
GR1-1
  6
CONTINUOUS
 62
     6
100
AcDbLine
 10
497.945605
 20
362.36957
 30
0.0
 11
498.263204
 21
362.051971
 31
0.0
  0
LINE
  5
247
330
1F
100
AcDbEntity
  8
GR1-1
  6
CONTINUOUS
 62
     6
100
AcDbLine
 10
498.263204
 20
362.051971
 30
0.0
 11
497.914084
 21
361.702851
 31
0.0
  0
LINE
  5
248
330
1F
100
AcDbEntity
  8
GR1-1
  6
CONTINUOUS
 62
     6
100
AcDbLine
 10
498.913962
 20
361.401214
 30
0.0
 11
500.738078
 21
359.577098
 31
0.0
  0
LINE
  5
249
330
1F
100
AcDbEntity
  8
GR1-1
  6
CONTINUOUS
 62
     6
100
AcDbLine
 10
498.970311
 20
361.344865
 30
0.0
 11
497.913962
 21
360.288515
 31
0.0
  0
LINE
  5
24A
330
1F
100
AcDbEntity
  8
GR1-1
  6
CONTINUOUS
 62
     6
100
AcDbLine
 10
498.970311
 20
356.395117
 30
0.0
 11
497.913962
 21
355.338768
 31
0.0
  0
LINE
  5
24B
330
1F
100
AcDbEntity
  8
GR1-1
  6
CONTINUOUS
 62
     6
100
AcDbLine
 10
499.677418
 20
352.152476
 30
0.0
 11
501.445185
 21
350.384709
 31
0.0
  0
LINE
  5
24C
330
1F
100
AcDbEntity
  8
GR1-1
  6
CONTINUOUS
 62
     6
100
AcDbLine
 10
501.445185
 20
350.384709
 30
0.0
 11
503.212952
 21
352.152476
 31
0.0
  0
LINE
  5
24D
330
1F
100
AcDbEntity
  8
GR1-1
  6
CONTINUOUS
 62
     6
100
AcDbLine
 10
503.212952
 20
352.152476
 30
0.0
 11
501.445185
 21
353.920243
 31
0.0
  0
LINE
  5
24E
330
1F
100
AcDbEntity
  8
GR1-1
  6
CONTINUOUS
 62
     6
100
AcDbLine
 10
501.445185
 20
353.920243
 30
0.0
 11
499.663962
 21
352.13902
 31
0.0
  0
LINE
  5
24F
330
1F
100
AcDbEntity
  8
GR1-1
  6
CONTINUOUS
 62
     6
100
AcDbLine
 10
498.970311
 20
351.44537
 30
0.0
 11
497.913962
 21
350.38902
 31
0.0
  0
LINE
  5
250
330
1F
100
AcDbEntity
  8
GR1-1
  6
CONTINUOUS
 62
     6
100
AcDbLine
 10
499.677418
 20
347.202729
 30
0.0
 11
501.445185
 21
345.434962
 31
0.0
  0
LINE
  5
251
330
1F
100
AcDbEntity
  8
GR1-1
  6
CONTINUOUS
 62
     6
100
AcDbLine
 10
501.445185
 20
345.434962
 30
0.0
 11
503.212952
 21
347.202729
 31
0.0
  0
LINE
  5
252
330
1F
100
AcDbEntity
  8
GR1-1
  6
CONTINUOUS
 62
     6
100
AcDbLine
 10
503.212952
 20
347.202729
 30
0.0
 11
501.445185
 21
348.970496
 31
0.0
  0
LINE
  5
253
330
1F
100
AcDbEntity
  8
GR1-1
  6
CONTINUOUS
 62
     6
100
AcDbLine
 10
501.445185
 20
348.970496
 30
0.0
 11
499.663962
 21
347.189273
 31
0.0
  0
LINE
  5
254
330
1F
100
AcDbEntity
  8
GR1-1
  6
CONTINUOUS
 62
     6
100
AcDbLine
 10
498.913962
 20
346.439273
 30
0.0
 11
497.913962
 21
345.439273
 31
0.0
  0
ARC
  5
255
330
1F
100
AcDbEntity
  8
GR1-1
  6
CONTINUOUS
 62
     6
100
AcDbCircle
 10
503.913962
 20
345.288515
 30
0.0
 40
6.0
100
AcDbArc
 50
180.0
 51
360.0
  0
LINE
  5
256
330
1F
100
AcDbEntity
  8
GR1-1
  6
CONTINUOUS
 62
     6
100
AcDbLine
 10
509.913962
 20
346.86568
 30
0.0
 11
509.576913
 21
347.202729
 31
0.0
  0
LINE
  5
257
330
1F
100
AcDbEntity
  8
GR1-1
  6
CONTINUOUS
 62
     6
100
AcDbLine
 10
509.576913
 20
347.202729
 30
0.0
 11
509.913962
 21
347.539778
 31
0.0
  0
LINE
  5
258
330
1F
100
AcDbEntity
  8
GR1-1
  6
CONTINUOUS
 62
     6
100
AcDbLine
 10
508.913962
 20
347.86568
 30
0.0
 11
507.102039
 21
349.677603
 31
0.0
  0
LINE
  5
259
330
1F
100
AcDbEntity
  8
GR1-1
  6
CONTINUOUS
 62
     6
100
AcDbLine
 10
507.102039
 20
349.677603
 30
0.0
 11
508.869806
 21
351.44537
 31
0.0
  0
LINE
  5
25A
330
1F
100
AcDbEntity
  8
GR1-1
  6
CONTINUOUS
 62
     6
100
AcDbLine
 10
508.913962
 20
351.401214
 30
0.0
 11
509.913962
 21
350.401214
 31
0.0
  0
LINE
  5
25B
330
1F
100
AcDbEntity
  8
GR1-1
  6
CONTINUOUS
 62
     6
100
AcDbLine
 10
509.913962
 20
351.815427
 30
0.0
 11
509.576913
 21
352.152476
 31
0.0
  0
LINE
  5
25C
330
1F
100
AcDbEntity
  8
GR1-1
  6
CONTINUOUS
 62
     6
100
AcDbLine
 10
509.576913
 20
352.152476
 30
0.0
 11
509.913962
 21
352.489526
 31
0.0
  0
LINE
  5
25D
330
1F
100
AcDbEntity
  8
GR1-1
  6
CONTINUOUS
 62
     6
100
AcDbLine
 10
508.913962
 20
352.815427
 30
0.0
 11
507.102039
 21
354.62735
 31
0.0
  0
LINE
  5
25E
330
1F
100
AcDbEntity
  8
GR1-1
  6
CONTINUOUS
 62
     6
100
AcDbLine
 10
507.102039
 20
354.62735
 30
0.0
 11
508.913962
 21
356.439273
 31
0.0
  0
LINE
  5
25F
330
1F
100
AcDbEntity
  8
GR1-1
  6
CONTINUOUS
 62
     6
100
AcDbLine
 10
508.913962
 20
356.350961
 30
0.0
 11
509.913962
 21
355.350961
 31
0.0
  0
LINE
  5
260
330
1F
100
AcDbEntity
  8
GR1-1
  6
CONTINUOUS
 62
     6
100
AcDbLine
 10
509.913962
 20
356.765175
 30
0.0
 11
509.576913
 21
357.102224
 31
0.0
  0
LINE
  5
261
330
1F
100
AcDbEntity
  8
GR1-1
  6
CONTINUOUS
 62
     6
100
AcDbLine
 10
509.576913
 20
357.102224
 30
0.0
 11
509.913962
 21
357.439273
 31
0.0
  0
LINE
  5
262
330
1F
100
AcDbEntity
  8
GR1-1
  6
CONTINUOUS
 62
     6
100
AcDbLine
 10
508.162699
 20
357.102224
 30
0.0
 11
506.394932
 21
358.869991
 31
0.0
  0
LINE
  5
263
330
1F
100
AcDbEntity
  8
GR1-1
  6
CONTINUOUS
 62
     6
100
AcDbLine
 10
506.394932
 20
358.869991
 30
0.0
 11
504.627165
 21
357.102224
 31
0.0
  0
LINE
  5
264
330
1F
100
AcDbEntity
  8
GR1-1
  6
CONTINUOUS
 62
     6
100
AcDbLine
 10
504.627165
 20
357.102224
 30
0.0
 11
506.394932
 21
355.334457
 31
0.0
  0
LINE
  5
265
330
1F
100
AcDbEntity
  8
GR1-1
  6
CONTINUOUS
 62
     6
100
AcDbLine
 10
506.394932
 20
355.334457
 30
0.0
 11
508.162699
 21
357.102224
 31
0.0
  0
LINE
  5
266
330
1F
100
AcDbEntity
  8
GR1-1
  6
CONTINUOUS
 62
     6
100
AcDbLine
 10
505.687826
 20
354.62735
 30
0.0
 11
503.920059
 21
352.859583
 31
0.0
  0
LINE
  5
267
330
1F
100
AcDbEntity
  8
GR1-1
  6
CONTINUOUS
 62
     6
100
AcDbLine
 10
503.913962
 20
352.86568
 30
0.0
 11
502.152292
 21
354.62735
 31
0.0
  0
LINE
  5
268
330
1F
100
AcDbEntity
  8
GR1-1
  6
CONTINUOUS
 62
     6
100
AcDbLine
 10
502.152292
 20
354.62735
 30
0.0
 11
503.920059
 21
356.395117
 31
0.0
  0
LINE
  5
269
330
1F
100
AcDbEntity
  8
GR1-1
  6
CONTINUOUS
 62
     6
100
AcDbLine
 10
503.913962
 20
356.401214
 30
0.0
 11
505.687826
 21
354.62735
 31
0.0
  0
LINE
  5
26A
330
1F
100
AcDbEntity
  8
GR1-1
  6
CONTINUOUS
 62
     6
100
AcDbLine
 10
506.394932
 20
353.920243
 30
0.0
 11
508.162699
 21
352.152476
 31
0.0
  0
LINE
  5
26B
330
1F
100
AcDbEntity
  8
GR1-1
  6
CONTINUOUS
 62
     6
100
AcDbLine
 10
508.162699
 20
352.152476
 30
0.0
 11
506.394932
 21
350.384709
 31
0.0
  0
LINE
  5
26C
330
1F
100
AcDbEntity
  8
GR1-1
  6
CONTINUOUS
 62
     6
100
AcDbLine
 10
506.394932
 20
350.384709
 30
0.0
 11
504.627165
 21
352.152476
 31
0.0
  0
LINE
  5
26D
330
1F
100
AcDbEntity
  8
GR1-1
  6
CONTINUOUS
 62
     6
100
AcDbLine
 10
504.627165
 20
352.152476
 30
0.0
 11
506.394932
 21
353.920243
 31
0.0
  0
LINE
  5
26E
330
1F
100
AcDbEntity
  8
GR1-1
  6
CONTINUOUS
 62
     6
100
AcDbLine
 10
508.913962
 20
352.903739
 30
0.0
 11
509.913962
 21
353.903739
 31
0.0
  0
LINE
  5
26F
330
1F
100
AcDbEntity
  8
GR1-1
  6
CONTINUOUS
 62
     6
100
AcDbLine
 10
509.913962
 20
348.953992
 30
0.0
 11
508.869806
 21
347.909836
 31
0.0
  0
LINE
  5
270
330
1F
100
AcDbEntity
  8
GR1-1
  6
CONTINUOUS
 62
     6
100
AcDbLine
 10
508.162699
 20
347.202729
 30
0.0
 11
506.394932
 21
348.970496
 31
0.0
  0
LINE
  5
271
330
1F
100
AcDbEntity
  8
GR1-1
  6
CONTINUOUS
 62
     6
100
AcDbLine
 10
506.394932
 20
348.970496
 30
0.0
 11
504.627165
 21
347.202729
 31
0.0
  0
LINE
  5
272
330
1F
100
AcDbEntity
  8
GR1-1
  6
CONTINUOUS
 62
     6
100
AcDbLine
 10
504.627165
 20
347.202729
 30
0.0
 11
506.394932
 21
345.434962
 31
0.0
  0
LINE
  5
273
330
1F
100
AcDbEntity
  8
GR1-1
  6
CONTINUOUS
 62
     6
100
AcDbLine
 10
506.394932
 20
345.434962
 30
0.0
 11
508.162699
 21
347.202729
 31
0.0
  0
LINE
  5
274
330
1F
100
AcDbEntity
  8
GR1-1
  6
CONTINUOUS
 62
     6
100
AcDbLine
 10
505.687826
 20
344.727855
 30
0.0
 11
503.920059
 21
346.495622
 31
0.0
  0
LINE
  5
275
330
1F
100
AcDbEntity
  8
GR1-1
  6
CONTINUOUS
 62
     6
100
AcDbLine
 10
503.920059
 20
346.495622
 30
0.0
 11
502.152292
 21
344.727855
 31
0.0
  0
LINE
  5
276
330
1F
100
AcDbEntity
  8
GR1-1
  6
CONTINUOUS
 62
     6
100
AcDbLine
 10
502.152292
 20
344.727855
 30
0.0
 11
503.913962
 21
342.966185
 31
0.0
  0
LINE
  5
277
330
1F
100
AcDbEntity
  8
GR1-1
  6
CONTINUOUS
 62
     6
100
AcDbLine
 10
503.920059
 20
342.960088
 30
0.0
 11
505.687826
 21
344.727855
 31
0.0
  0
LINE
  5
278
330
1F
100
AcDbEntity
  8
GR1-1
  6
CONTINUOUS
 62
     6
100
AcDbLine
 10
503.212952
 20
342.252982
 30
0.0
 11
501.445185
 21
340.485215
 31
0.0
  0
LINE
  5
279
330
1F
100
AcDbEntity
  8
GR1-1
  6
CONTINUOUS
 62
     6
100
AcDbLine
 10
501.445185
 20
340.485215
 30
0.0
 11
499.677418
 21
342.252982
 31
0.0
  0
LINE
  5
27A
330
1F
100
AcDbEntity
  8
GR1-1
  6
CONTINUOUS
 62
     6
100
AcDbLine
 10
499.677418
 20
342.252982
 30
0.0
 11
501.445185
 21
344.020748
 31
0.0
  0
LINE
  5
27B
330
1F
100
AcDbEntity
  8
GR1-1
  6
CONTINUOUS
 62
     6
100
AcDbLine
 10
501.445185
 20
344.020748
 30
0.0
 11
503.212952
 21
342.252982
 31
0.0
  0
LINE
  5
27C
330
1F
100
AcDbEntity
  8
GR1-1
  6
CONTINUOUS
 62
     6
100
AcDbLine
 10
503.920059
 20
347.909836
 30
0.0
 11
505.687826
 21
349.677603
 31
0.0
  0
LINE
  5
27D
330
1F
100
AcDbEntity
  8
GR1-1
  6
CONTINUOUS
 62
     6
100
AcDbLine
 10
505.687826
 20
349.677603
 30
0.0
 11
503.913962
 21
351.451466
 31
0.0
  0
LINE
  5
27E
330
1F
100
AcDbEntity
  8
GR1-1
  6
CONTINUOUS
 62
     6
100
AcDbLine
 10
503.913962
 20
351.439273
 30
0.0
 11
502.152292
 21
349.677603
 31
0.0
  0
LINE
  5
27F
330
1F
100
AcDbEntity
  8
GR1-1
  6
CONTINUOUS
 62
     6
100
AcDbLine
 10
502.152292
 20
349.677603
 30
0.0
 11
503.913962
 21
347.915932
 31
0.0
  0
LINE
  5
280
330
1F
100
AcDbEntity
  8
GR1-1
  6
CONTINUOUS
 62
     6
100
AcDbLine
 10
509.517024
 20
365.647394
 30
0.0
 11
508.869806
 21
366.294612
 31
0.0
  0
LINE
  5
281
330
1F
100
AcDbEntity
  8
GR1-1
  6
CONTINUOUS
 62
     6
100
AcDbLine
 10
504.499748
 20
368.288515
 30
0.0
 11
503.920059
 21
367.708826
 31
0.0
  0
LINE
  5
282
330
1F
100
AcDbEntity
  8
GR1-1
  6
CONTINUOUS
 62
     6
100
AcDbLine
 10
503.907865
 20
367.708826
 30
0.0
 11
503.328176
 21
368.288515
 31
0.0
  0
ARC
  5
283
330
1F
100
AcDbEntity
  8
GR1-1
  6
CENTER
 62
     6
100
AcDbCircle
 10
556.719701
 20
396.952555
 30
0.0
 40
13.0
100
AcDbArc
 50
271.5
 51
360.0
  0
LINE
  5
284
330
1F
100
AcDbEntity
  8
GR1-1
  6
CONTINUOUS
 62
     6
100
AcDbLine
 10
572.719701
 20
425.288515
 30
0.0
 11
573.719701
 21
425.288515
 31
0.0
  0
LINE
  5
285
330
1F
100
AcDbEntity
  8
GR1-1
  6
CONTINUOUS
 62
     6
100
AcDbLine
 10
573.719701
 20
425.288515
 30
0.0
 11
576.173854
 21
426.288515
 31
0.0
  0
LINE
  5
286
330
1F
100
AcDbEntity
  8
GR1-1
  6
CONTINUOUS
 62
     6
100
AcDbLine
 10
576.173854
 20
426.288515
 30
0.0
 11
572.719701
 21
426.288515
 31
0.0
  0
LINE
  5
287
330
1F
100
AcDbEntity
  8
GR1-1
  6
CONTINUOUS
 62
     6
100
AcDbLine
 10
572.719701
 20
425.288515
 30
0.0
 11
572.719701
 21
428.296693
 31
0.0
  0
LINE
  5
288
330
1F
100
AcDbEntity
  8
GR1-1
  6
CONTINUOUS
 62
     6
100
AcDbLine
 10
558.917892
 20
426.788515
 30
0.0
 11
532.917892
 21
426.788515
 31
0.0
  0
LINE
  5
289
330
1F
100
AcDbEntity
  8
GR1-1
  6
CONTINUOUS
 62
     6
100
AcDbLine
 10
526.069701
 20
432.288515
 30
0.0
 11
526.069701
 21
492.288515
 31
0.0
  0
LINE
  5
28A
330
1F
100
AcDbEntity
  8
GR1-1
  6
CONTINUOUS
 62
     3
100
AcDbLine
 10
527.119701
 20
498.388515
 30
0.0
 11
517.119701
 21
498.388515
 31
0.0
  0
LINE
  5
28B
330
1F
100
AcDbEntity
  8
GR1-1
  6
CONTINUOUS
 62
     6
100
AcDbLine
 10
538.917892
 20
507.888515
 30
0.0
 11
552.917892
 21
507.888515
 31
0.0
  0
LINE
  5
28C
330
1F
100
AcDbEntity
  8
GR1-1
  6
CONTINUOUS
 62
     6
100
AcDbLine
 10
552.105892
 20
508.700515
 30
0.0
 11
552.105892
 21
506.288515
 31
0.0
  0
LINE
  5
28D
330
1F
100
AcDbEntity
  8
GR1-1
  6
CENTER
 62
     6
100
AcDbLine
 10
545.919701
 20
511.660439
 30
0.0
 11
545.919701
 21
422.736042
 31
0.0
  0
LINE
  5
28E
330
1F
100
AcDbEntity
  8
GR1-1
  6
CONTINUOUS
 62
     6
100
AcDbLine
 10
539.73351
 20
506.273689
 30
0.0
 11
539.73351
 21
508.700515
 31
0.0
  0
ARC
  5
28F
330
1F
100
AcDbEntity
  8
GR1-1
  6
CONTINUOUS
 62
     3
100
AcDbCircle
 10
255.854775
 20
261.314311
 30
0.0
 40
4.0
100
AcDbArc
 50
291.943918
 51
301.079815
  0
ARC
  5
290
330
1F
100
AcDbEntity
  8
GR1-1
  6
CONTINUOUS
 62
     3
100
AcDbCircle
 10
235.984628
 20
261.314311
 30
0.0
 40
4.0
100
AcDbArc
 50
238.920185
 51
248.056082
  0
LINE
  5
291
330
1F
100
AcDbEntity
  8
GR1-1
  6
CONTINUOUS
 62
     6
100
AcDbLine
 10
256.689691
 20
258.986479
 30
0.0
 11
250.825994
 21
258.986479
 31
0.0
  0
ARC
  5
292
330
1F
100
AcDbEntity
  8
GR1-1
  6
CONTINUOUS
 62
     6
100
AcDbCircle
 10
254.826188
 20
261.522257
 30
0.0
 40
4.0
100
AcDbArc
 50
294.187529
 51
320.658244
  0
LINE
  5
293
330
1F
100
AcDbEntity
  8
GR1-1
  6
CONTINUOUS
 62
     6
100
AcDbLine
 10
241.013408
 20
258.986479
 30
0.0
 11
235.149711
 21
258.986479
 31
0.0
  0
ARC
  5
294
330
1F
100
AcDbEntity
  8
GR1-1
  6
CONTINUOUS
 62
     6
100
AcDbCircle
 10
237.013215
 20
261.522257
 30
0.0
 40
4.0
100
AcDbArc
 50
219.341756
 51
245.290034
  0
LINE
  5
295
330
1F
100
AcDbEntity
  8
GR1-1
  6
CONTINUOUS
 62
     6
100
AcDbLine
 10
256.689691
 20
261.724433
 30
0.0
 11
235.149711
 21
261.724433
 31
0.0
  0
ARC
  5
296
330
1F
100
AcDbEntity
  8
GR1-1
  6
CONTINUOUS
 62
     6
100
AcDbCircle
 10
235.149711
 20
260.494423
 30
0.0
 40
1.230009999999993
100
AcDbArc
 50
90.0
 51
270.0
  0
LINE
  5
297
330
1F
100
AcDbEntity
  8
GR1-1
  6
CONTINUOUS
 62
     6
100
AcDbLine
 10
235.149711
 20
259.264413
 30
0.0
 11
256.689691
 21
259.264413
 31
0.0
  0
ARC
  5
298
330
1F
100
AcDbEntity
  8
GR1-1
  6
CONTINUOUS
 62
     6
100
AcDbCircle
 10
256.689691
 20
260.494423
 30
0.0
 40
1.230009999999993
100
AcDbArc
 50
-90.0
 51
90.0
  0
LINE
  5
299
330
1F
100
AcDbEntity
  8
GR1-1
  6
CONTINUOUS
 62
     3
100
AcDbLine
 10
271.719701
 20
184.038515
 30
0.0
 11
271.719701
 21
134.538515
 31
0.0
  0
ARC
  5
29A
330
1F
100
AcDbEntity
  8
GR1-1
  6
CONTINUOUS
 62
     3
100
AcDbCircle
 10
270.569701
 20
135.611015
 30
0.0
 40
1.572500000000017
100
AcDbArc
 50
223.002869
 51
316.997131
  0
ARC
  5
29B
330
1F
100
AcDbEntity
  8
GR1-1
  6
CONTINUOUS
 62
     3
100
AcDbCircle
 10
270.569701
 20
182.966015
 30
0.0
 40
1.572500000000017
100
AcDbArc
 50
43.002869
 51
136.997131
  0
LINE
  5
29C
330
1F
100
AcDbEntity
  8
GR1-1
  6
CONTINUOUS
 62
     3
100
AcDbLine
 10
271.719701
 20
172.788515
 30
0.0
 11
273.119701
 21
172.788515
 31
0.0
  0
LINE
  5
29D
330
1F
100
AcDbEntity
  8
GR1-1
  6
CONTINUOUS
 62
     3
100
AcDbLine
 10
273.119701
 20
172.788515
 30
0.0
 11
273.419701
 21
172.488515
 31
0.0
  0
LINE
  5
29E
330
1F
100
AcDbEntity
  8
GR1-1
  6
CONTINUOUS
 62
     3
100
AcDbLine
 10
273.419701
 20
172.488515
 30
0.0
 11
273.419701
 21
146.088515
 31
0.0
  0
LINE
  5
29F
330
1F
100
AcDbEntity
  8
GR1-1
  6
CONTINUOUS
 62
     3
100
AcDbLine
 10
273.419701
 20
146.088515
 30
0.0
 11
273.119701
 21
145.788515
 31
0.0
  0
LINE
  5
2A0
330
1F
100
AcDbEntity
  8
GR1-1
  6
CONTINUOUS
 62
     3
100
AcDbLine
 10
273.119701
 20
145.788515
 30
0.0
 11
271.719701
 21
145.788515
 31
0.0
  0
LINE
  5
2A1
330
1F
100
AcDbEntity
  8
GR1-1
  6
CONTINUOUS
 62
     3
100
AcDbLine
 10
273.419701
 20
149.286707
 30
0.0
 11
274.419701
 21
149.286707
 31
0.0
  0
LINE
  5
2A2
330
1F
100
AcDbEntity
  8
GR1-1
  6
CONTINUOUS
 62
     3
100
AcDbLine
 10
274.419701
 20
169.286707
 30
0.0
 11
273.419701
 21
169.286707
 31
0.0
  0
TEXT
  5
2A3
330
1F
100
AcDbEntity
  8
}}ﾊﾊGG血CCТ
  6
CONTINUOUS
 62
     7
100
AcDbText
 10
666.464966
 20
21.675144
 30
0.0
 40
6.0
  1
W50B1ALA-C01
 41
0.711864
  7
FX_VECTOR
 72
     5
 11
714.464966
 21
21.675144
 31
0.0
100
AcDbText
  0
LINE
  5
2A4
330
1F
100
AcDbEntity
  8
}}ﾊﾊGG血CCТ
  6
CENTER
 62
     6
100
AcDbLine
 10
522.119701
 20
504.042176
 30
0.0
 11
522.119701
 21
490.418179
 31
0.0
  0
LINE
  5
2A5
330
1F
100
AcDbEntity
  8
}}ﾊﾊGG血CCТ
  6
CENTER
 62
     6
100
AcDbLine
 10
522.119701
 20
433.619547
 30
0.0
 11
522.119701
 21
422.298197
 31
0.0
  0
LINE
  5
2A6
330
1F
100
AcDbEntity
  8
}}ﾊﾊGG血CCТ
  6
CENTER
 62
     6
100
AcDbLine
 10
569.719701
 20
489.266856
 30
0.0
 11
569.719701
 21
501.739528
 31
0.0
  0
LINE
  5
2A7
330
1F
100
AcDbEntity
  8
}}ﾊﾊGG血CCТ
  6
CONTINUOUS
 62
     3
100
AcDbLine
 10
526.449828
 20
425.788515
 30
0.0
 11
517.789574
 21
425.788515
 31
0.0
  0
LINE
  5
2A8
330
1F
100
AcDbEntity
  8
GR1-1
  6
CENTER
 62
     6
100
AcDbLine
 10
609.104704
 20
493.788515
 30
0.0
 11
594.407367
 21
493.788515
 31
0.0
  0
LINE
  5
2A9
330
1F
100
AcDbEntity
  8
GR1-1
  6
CENTER
 62
     6
100
AcDbLine
 10
600.419701
 20
500.331785
 30
0.0
 11
600.419701
 21
485.327544
 31
0.0
  0
LINE
  5
2AA
330
1F
100
AcDbEntity
  8
GR1-1
  6
CENTER
 62
     6
100
AcDbLine
 10
593.31615
 20
492.288515
 30
0.0
 11
607.877084
 21
492.288515
 31
0.0
  0
LINE
  5
2AB
330
1F
100
AcDbEntity
  8
GR1-1
  6
CENTER
 62
     6
100
AcDbLine
 10
601.919701
 20
486.384661
 30
0.0
 11
601.919701
 21
500.399986
 31
0.0
  0
LINE
  5
2AC
330
1F
100
AcDbEntity
  8
}}ﾊﾊGG血CCТ
  6
CENTER
 62
     6
100
AcDbLine
 10
601.919701
 20
314.087429
 30
0.0
 11
601.919701
 21
301.189065
 31
0.0
  0
LINE
  5
2AD
330
1F
100
AcDbEntity
  8
}}ﾊﾊGG血CCТ
  6
CENTER
 62
     6
100
AcDbLine
 10
600.419701
 20
314.087429
 30
0.0
 11
600.419701
 21
301.189065
 31
0.0
  0
LINE
  5
2AE
330
1F
100
AcDbEntity
  8
}}ﾊﾊGG血CCТ
  6
CENTER
 62
     6
100
AcDbLine
 10
489.919701
 20
314.087429
 30
0.0
 11
489.919701
 21
301.189065
 31
0.0
  0
LINE
  5
2AF
330
1F
100
AcDbEntity
  8
}}ﾊﾊGG血CCТ
  6
CENTER
 62
     6
100
AcDbLine
 10
491.419701
 20
314.087429
 30
0.0
 11
491.419701
 21
301.189065
 31
0.0
  0
LINE
  5
2B0
330
1F
100
AcDbEntity
  8
GR1-1
  6
CENTER
 62
     6
100
AcDbLine
 10
275.919701
 20
303.032283
 30
0.0
 11
275.919701
 21
313.007854
 31
0.0
  0
LINE
  5
2B1
330
1F
100
AcDbEntity
  8
GR1-1
  6
CENTER
 62
     6
100
AcDbLine
 10
277.419701
 20
303.032283
 30
0.0
 11
277.419701
 21
313.007854
 31
0.0
  0
LINE
  5
2B2
330
1F
100
AcDbEntity
  8
GR1-1
  6
CENTER
 62
     6
100
AcDbLine
 10
215.919701
 20
303.032283
 30
0.0
 11
215.919701
 21
313.007854
 31
0.0
  0
LINE
  5
2B3
330
1F
100
AcDbEntity
  8
GR1-1
  6
CENTER
 62
     6
100
AcDbLine
 10
214.419701
 20
303.032283
 30
0.0
 11
214.419701
 21
313.007854
 31
0.0
  0
LINE
  5
2B4
330
1F
100
AcDbEntity
  8
GR1-1
  6
CENTER
 62
     6
100
AcDbLine
 10
482.734699
 20
493.788515
 30
0.0
 11
497.432035
 21
493.788515
 31
0.0
  0
LINE
  5
2B5
330
1F
100
AcDbEntity
  8
GR1-1
  6
CENTER
 62
     6
100
AcDbLine
 10
491.419701
 20
500.331785
 30
0.0
 11
491.419701
 21
485.327544
 31
0.0
  0
LINE
  5
2B6
330
1F
100
AcDbEntity
  8
GR1-1
  6
CENTER
 62
     6
100
AcDbLine
 10
498.523253
 20
492.288515
 30
0.0
 11
483.962318
 21
492.288515
 31
0.0
  0
LINE
  5
2B7
330
1F
100
AcDbEntity
  8
GR1-1
  6
CENTER
 62
     6
100
AcDbLine
 10
489.919701
 20
486.384661
 30
0.0
 11
489.919701
 21
500.399986
 31
0.0
  0
LINE
  5
2B8
330
1F
100
AcDbEntity
  8
GR1-1
  6
CENTER
 62
     6
100
AcDbLine
 10
609.104704
 20
430.788515
 30
0.0
 11
594.407367
 21
430.788515
 31
0.0
  0
LINE
  5
2B9
330
1F
100
AcDbEntity
  8
GR1-1
  6
CENTER
 62
     6
100
AcDbLine
 10
600.419701
 20
424.245246
 30
0.0
 11
600.419701
 21
439.249487
 31
0.0
  0
LINE
  5
2BA
330
1F
100
AcDbEntity
  8
GR1-1
  6
CENTER
 62
     6
100
AcDbLine
 10
593.31615
 20
432.288515
 30
0.0
 11
607.877084
 21
432.288515
 31
0.0
  0
LINE
  5
2BB
330
1F
100
AcDbEntity
  8
GR1-1
  6
CENTER
 62
     6
100
AcDbLine
 10
601.919701
 20
438.19237
 30
0.0
 11
601.919701
 21
424.177044
 31
0.0
  0
LINE
  5
2BC
330
1F
100
AcDbEntity
  8
GR1-1
  6
CENTER
 62
     6
100
AcDbLine
 10
482.734699
 20
430.788515
 30
0.0
 11
497.432035
 21
430.788515
 31
0.0
  0
LINE
  5
2BD
330
1F
100
AcDbEntity
  8
GR1-1
  6
CENTER
 62
     6
100
AcDbLine
 10
491.419701
 20
424.245246
 30
0.0
 11
491.419701
 21
439.249487
 31
0.0
  0
LINE
  5
2BE
330
1F
100
AcDbEntity
  8
GR1-1
  6
CENTER
 62
     6
100
AcDbLine
 10
498.523253
 20
432.288515
 30
0.0
 11
483.962318
 21
432.288515
 31
0.0
  0
LINE
  5
2BF
330
1F
100
AcDbEntity
  8
GR1-1
  6
CENTER
 62
     6
100
AcDbLine
 10
489.919701
 20
438.19237
 30
0.0
 11
489.919701
 21
424.177044
 31
0.0
  0
ARC
  5
2C1
330
1F
100
AcDbEntity
  8
1-1
  6
CONTINUOUS
 62
     3
100
AcDbCircle
 10
455.146157
 20
453.514177
 30
0.0
 40
8.0
100
AcDbArc
 50
195.91423
 51
240.0
  0
LINE
  5
2C2
330
1F
100
AcDbEntity
  8
1-1
  6
CONTINUOUS
 62
     3
100
AcDbLine
 10
451.146157
 20
446.585974
 30
0.0
 11
462.919701
 21
439.788515
 31
0.0
  0
ARC
  5
2C3
330
1F
100
AcDbEntity
  8
1-1
  6
CONTINUOUS
 62
     3
100
AcDbCircle
 10
485.919701
 20
462.288515
 30
0.0
 40
40.0
100
AcDbArc
 50
164.08577
 51
195.91423
  0
LINE
  5
2C4
330
1F
100
AcDbEntity
  8
LAYERGROUP-1
  6
CONTINUOUS
 62
     3
100
AcDbLine
 10
462.919701
 20
439.788515
 30
0.0
 11
468.919701
 21
439.788515
 31
0.0
  0
LINE
  5
2C5
330
1F
100
AcDbEntity
  8
GR1-1
  6
CONTINUOUS
 62
     6
100
AcDbLine
 10
468.919701
 20
449.788515
 30
0.0
 11
448.066649
 21
449.788515
 31
0.0
  0
ARC
  5
2C6
330
1F
100
AcDbEntity
  8
1-1
  6
CONTINUOUS
 62
     3
100
AcDbCircle
 10
455.146157
 20
471.062853
 30
0.0
 40
8.0
100
AcDbArc
 50
120.0
 51
164.08577
  0
LINE
  5
2C7
330
1F
100
AcDbEntity
  8
1-1
  6
CONTINUOUS
 62
     3
100
AcDbLine
 10
451.146157
 20
477.991056
 30
0.0
 11
462.919701
 21
484.788515
 31
0.0
  0
LINE
  5
2C8
330
1F
100
AcDbEntity
  8
LAYERGROUP-1
  6
CONTINUOUS
 62
     3
100
AcDbLine
 10
462.919701
 20
484.788515
 30
0.0
 11
468.919701
 21
484.788515
 31
0.0
  0
LINE
  5
2C9
330
1F
100
AcDbEntity
  8
GR1-1
  6
CONTINUOUS
 62
     6
100
AcDbLine
 10
468.919701
 20
474.788515
 30
0.0
 11
448.066649
 21
474.788515
 31
0.0
  0
ARC
  5
2CA
330
1F
100
AcDbEntity
  8
1-1
  6
CONTINUOUS
 62
     3
100
AcDbCircle
 10
636.693245
 20
453.514177
 30
0.0
 40
8.0
100
AcDbArc
 50
300.0
 51
344.08577
  0
LINE
  5
2CB
330
1F
100
AcDbEntity
  8
1-1
  6
CONTINUOUS
 62
     3
100
AcDbLine
 10
640.693245
 20
446.585974
 30
0.0
 11
628.919701
 21
439.788515
 31
0.0
  0
ARC
  5
2CC
330
1F
100
AcDbEntity
  8
1-1
  6
CONTINUOUS
 62
     3
100
AcDbCircle
 10
605.919701
 20
462.288515
 30
0.0
 40
40.0
100
AcDbArc
 50
-15.91423
 51
15.91423
  0
LINE
  5
2CD
330
1F
100
AcDbEntity
  8
LAYERGROUP-1
  6
CONTINUOUS
 62
     3
100
AcDbLine
 10
628.919701
 20
439.788515
 30
0.0
 11
622.919701
 21
439.788515
 31
0.0
  0
LINE
  5
2CE
330
1F
100
AcDbEntity
  8
GR1-1
  6
CONTINUOUS
 62
     6
100
AcDbLine
 10
622.919701
 20
449.788515
 30
0.0
 11
643.772754
 21
449.788515
 31
0.0
  0
ARC
  5
2CF
330
1F
100
AcDbEntity
  8
1-1
  6
CONTINUOUS
 62
     3
100
AcDbCircle
 10
636.693245
 20
471.062853
 30
0.0
 40
8.0
100
AcDbArc
 50
15.91423
 51
60.0
  0
LINE
  5
2D0
330
1F
100
AcDbEntity
  8
1-1
  6
CONTINUOUS
 62
     3
100
AcDbLine
 10
640.693245
 20
477.991056
 30
0.0
 11
628.919701
 21
484.788515
 31
0.0
  0
LINE
  5
2D1
330
1F
100
AcDbEntity
  8
LAYERGROUP-1
  6
CONTINUOUS
 62
     3
100
AcDbLine
 10
628.919701
 20
484.788515
 30
0.0
 11
622.919701
 21
484.788515
 31
0.0
  0
LINE
  5
2D2
330
1F
100
AcDbEntity
  8
GR1-1
  6
CONTINUOUS
 62
     6
100
AcDbLine
 10
622.919701
 20
474.788515
 30
0.0
 11
643.772754
 21
474.788515
 31
0.0
  0
TEXT
  5
2D3
330
1F
100
AcDbEntity
  8
GR1-1
  6
CONTINUOUS
 62
     7
100
AcDbText
 10
654.828613
 20
229.788513
 30
0.0
 40
4.0
  1
150
 50
90.0
 41
0.828947
  7
FX_VECTOR
 72
     5
 11
654.828613
 21
238.788513
 31
0.0
100
AcDbText
  0
LINE
  5
2D4
330
1F
100
AcDbEntity
  8
GR1-1
  6
CONTINUOUS
 62
     7
100
AcDbLine
 10
649.720744
 20
159.288515
 30
0.0
 11
656.828619
 21
159.288515
 31
0.0
  0
LINE
  5
2D5
330
1F
100
AcDbEntity
  8
GR1-1
  6
CONTINUOUS
 62
     7
100
AcDbLine
 10
655.828619
 20
159.288515
 30
0.0
 11
655.828619
 21
309.288515
 31
0.0
  0
INSERT
  5
2D6
330
1F
100
AcDbEntity
  8
GR1-1
  6
CONTINUOUS
 62
     7
100
AcDbBlockReference
  2
FXTIP_ARROW_S
 10
655.828619
 20
159.288515
 30
0.0
 41
4.0
 42
4.0
 50
270.0
  0
INSERT
  5
2D7
330
1F
100
AcDbEntity
  8
GR1-1
  6
CONTINUOUS
 62
     7
100
AcDbBlockReference
  2
FXTIP_ARROW_E
 10
655.828619
 20
309.288515
 30
0.0
 41
4.0
 42
4.0
 50
90.0
  0
TEXT
  5
2D8
330
1F
100
AcDbEntity
  8
GR1-1
  6
CONTINUOUS
 62
     7
100
AcDbText
 10
665.043518
 20
179.788513
 30
0.0
 40
4.0
  1
250
 50
90.0
 41
0.828947
  7
FX_VECTOR
 72
     5
 11
665.043518
 21
188.788513
 31
0.0
100
AcDbText
  0
LINE
  5
2D9
330
1F
100
AcDbEntity
  8
GR1-1
  6
CONTINUOUS
 62
     7
100
AcDbLine
 10
616.919701
 20
309.288515
 30
0.0
 11
667.04354
 21
309.288515
 31
0.0
  0
LINE
  5
2DA
330
1F
100
AcDbEntity
  8
GR1-1
  6
CONTINUOUS
 62
     7
100
AcDbLine
 10
546.919701
 20
59.288515
 30
0.0
 11
667.04354
 21
59.288515
 31
0.0
  0
LINE
  5
2DB
330
1F
100
AcDbEntity
  8
GR1-1
  6
CONTINUOUS
 62
     7
100
AcDbLine
 10
666.04354
 20
309.288515
 30
0.0
 11
666.04354
 21
59.288515
 31
0.0
  0
INSERT
  5
2DC
330
1F
100
AcDbEntity
  8
GR1-1
  6
CONTINUOUS
 62
     7
100
AcDbBlockReference
  2
FXTIP_ARROW_S
 10
666.04354
 20
309.288515
 30
0.0
 41
4.0
 42
4.0
 50
90.0
  0
INSERT
  5
2DD
330
1F
100
AcDbEntity
  8
GR1-1
  6
CONTINUOUS
 62
     7
100
AcDbBlockReference
  2
FXTIP_ARROW_E
 10
666.04354
 20
59.288515
 30
0.0
 41
4.0
 42
4.0
 50
270.0
  0
TEXT
  5
2DE
330
1F
100
AcDbEntity
  8
GR1-1
  6
CONTINUOUS
 62
     7
100
AcDbText
 10
303.419708
 20
325.211121
 30
0.0
 40
4.0
  1
124
 41
0.814655
  7
FX_VECTOR
 72
     5
 11
312.419708
 21
325.211121
 31
0.0
100
AcDbText
  0
LINE
  5
2DF
330
1F
100
AcDbEntity
  8
GR1-1
  6
CONTINUOUS
 62
     7
100
AcDbLine
 10
245.919701
 20
310.288515
 30
0.0
 11
245.919701
 21
325.211116
 31
0.0
  0
LINE
  5
2E0
330
1F
100
AcDbEntity
  8
GR1-1
  6
CONTINUOUS
 62
     7
100
AcDbLine
 10
369.919701
 20
218.586734
 30
0.0
 11
369.919701
 21
325.211116
 31
0.0
  0
LINE
  5
2E1
330
1F
100
AcDbEntity
  8
GR1-1
  6
CONTINUOUS
 62
     7
100
AcDbLine
 10
245.919701
 20
324.211116
 30
0.0
 11
369.919701
 21
324.211116
 31
0.0
  0
INSERT
  5
2E2
330
1F
100
AcDbEntity
  8
GR1-1
  6
CONTINUOUS
 62
     7
100
AcDbBlockReference
  2
FXTIP_ARROW_S
 10
245.919701
 20
324.211116
 30
0.0
 41
4.0
 42
4.0
 50
180.0
  0
INSERT
  5
2E3
330
1F
100
AcDbEntity
  8
GR1-1
  6
CONTINUOUS
 62
     7
100
AcDbBlockReference
  2
FXTIP_ARROW_E
 10
369.919701
 20
324.211116
 30
0.0
 41
4.0
 42
4.0
 50
360.0
  0
TEXT
  5
2E4
330
1F
100
AcDbEntity
  8
GR1-1
  6
CONTINUOUS
 62
     7
100
AcDbText
 10
674.917542
 20
457.788513
 30
0.0
 40
4.0
  1
103
 50
90.0
 41
0.828947
  7
FX_VECTOR
 72
     5
 11
674.917542
 21
466.788513
 31
0.0
100
AcDbText
  0
LINE
  5
2E5
330
1F
100
AcDbEntity
  8
GR1-1
  6
CONTINUOUS
 62
     7
100
AcDbLine
 10
608.919701
 20
410.788515
 30
0.0
 11
676.917563
 21
410.788515
 31
0.0
  0
LINE
  5
2E6
330
1F
100
AcDbEntity
  8
GR1-1
  6
CONTINUOUS
 62
     7
100
AcDbLine
 10
608.919701
 20
513.788515
 30
0.0
 11
676.917563
 21
513.788515
 31
0.0
  0
LINE
  5
2E7
330
1F
100
AcDbEntity
  8
GR1-1
  6
CONTINUOUS
 62
     7
100
AcDbLine
 10
675.917563
 20
410.788515
 30
0.0
 11
675.917563
 21
513.788515
 31
0.0
  0
INSERT
  5
2E8
330
1F
100
AcDbEntity
  8
GR1-1
  6
CONTINUOUS
 62
     7
100
AcDbBlockReference
  2
FXTIP_ARROW_S
 10
675.917563
 20
410.788515
 30
0.0
 41
4.0
 42
4.0
 50
270.0
  0
INSERT
  5
2E9
330
1F
100
AcDbEntity
  8
GR1-1
  6
CONTINUOUS
 62
     7
100
AcDbBlockReference
  2
FXTIP_ARROW_E
 10
675.917563
 20
513.788515
 30
0.0
 41
4.0
 42
4.0
 50
90.0
  0
TEXT
  5
2EA
330
1F
100
AcDbEntity
  8
GR1-1
  6
CONTINUOUS
 62
     7
100
AcDbText
 10
664.917542
 20
459.288513
 30
0.0
 40
4.0
  1
63
 50
90.0
 41
0.851351
  7
FX_VECTOR
 72
     5
 11
664.917542
 21
465.288513
 31
0.0
100
AcDbText
  0
LINE
  5
2EB
330
1F
100
AcDbEntity
  8
GR1-1
  6
CONTINUOUS
 62
     7
100
AcDbLine
 10
609.919701
 20
430.788515
 30
0.0
 11
666.917563
 21
430.788515
 31
0.0
  0
LINE
  5
2EC
330
1F
100
AcDbEntity
  8
GR1-1
  6
CONTINUOUS
 62
     7
100
AcDbLine
 10
609.919701
 20
493.788515
 30
0.0
 11
666.917563
 21
493.788515
 31
0.0
  0
LINE
  5
2ED
330
1F
100
AcDbEntity
  8
GR1-1
  6
CONTINUOUS
 62
     7
100
AcDbLine
 10
665.917563
 20
430.788515
 30
0.0
 11
665.917563
 21
493.788515
 31
0.0
  0
INSERT
  5
2EE
330
1F
100
AcDbEntity
  8
GR1-1
  6
CONTINUOUS
 62
     7
100
AcDbBlockReference
  2
FXTIP_ARROW_S
 10
665.917563
 20
430.788515
 30
0.0
 41
4.0
 42
4.0
 50
270.0
  0
INSERT
  5
2EF
330
1F
100
AcDbEntity
  8
GR1-1
  6
CONTINUOUS
 62
     7
100
AcDbBlockReference
  2
FXTIP_ARROW_E
 10
665.917563
 20
493.788515
 30
0.0
 41
4.0
 42
4.0
 50
90.0
  0
TEXT
  5
2F0
330
1F
100
AcDbEntity
  8
GR1-1
  6
CONTINUOUS
 62
     7
100
AcDbText
 10
654.917542
 20
459.288513
 30
0.0
 40
4.0
  1
60
 50
90.0
 41
0.851351
  7
FX_VECTOR
 72
     5
 11
654.917542
 21
465.288513
 31
0.0
100
AcDbText
  0
LINE
  5
2F1
330
1F
100
AcDbEntity
  8
GR1-1
  6
CONTINUOUS
 62
     7
100
AcDbLine
 10
608.419701
 20
432.288515
 30
0.0
 11
656.917563
 21
432.288515
 31
0.0
  0
LINE
  5
2F2
330
1F
100
AcDbEntity
  8
GR1-1
  6
CONTINUOUS
 62
     7
100
AcDbLine
 10
608.419701
 20
492.288515
 30
0.0
 11
656.917563
 21
492.288515
 31
0.0
  0
LINE
  5
2F3
330
1F
100
AcDbEntity
  8
GR1-1
  6
CONTINUOUS
 62
     7
100
AcDbLine
 10
655.917563
 20
432.288515
 30
0.0
 11
655.917563
 21
492.288515
 31
0.0
  0
INSERT
  5
2F4
330
1F
100
AcDbEntity
  8
GR1-1
  6
CONTINUOUS
 62
     7
100
AcDbBlockReference
  2
FXTIP_ARROW_S
 10
655.917563
 20
432.288515
 30
0.0
 41
4.0
 42
4.0
 50
270.0
  0
INSERT
  5
2F5
330
1F
100
AcDbEntity
  8
GR1-1
  6
CONTINUOUS
 62
     7
100
AcDbBlockReference
  2
FXTIP_ARROW_E
 10
655.917563
 20
492.288515
 30
0.0
 41
4.0
 42
4.0
 50
90.0
  0
TEXT
  5
2F6
330
1F
100
AcDbEntity
  8
GR1-1
  6
CONTINUOUS
 62
     7
100
AcDbText
 10
541.419678
 20
544.83783
 30
0.0
 40
4.0
  1
154
 41
0.814655
  7
FX_VECTOR
 72
     5
 11
550.419678
 21
544.83783
 31
0.0
100
AcDbText
  0
LINE
  5
2F7
330
1F
100
AcDbEntity
  8
GR1-1
  6
CONTINUOUS
 62
     7
100
AcDbLine
 10
468.919701
 20
499.788515
 30
0.0
 11
468.919701
 21
544.837806
 31
0.0
  0
LINE
  5
2F8
330
1F
100
AcDbEntity
  8
GR1-1
  6
CONTINUOUS
 62
     7
100
AcDbLine
 10
622.919701
 20
499.788515
 30
0.0
 11
622.919701
 21
544.837806
 31
0.0
  0
LINE
  5
2F9
330
1F
100
AcDbEntity
  8
GR1-1
  6
CONTINUOUS
 62
     7
100
AcDbLine
 10
468.919701
 20
543.837806
 30
0.0
 11
622.919701
 21
543.837806
 31
0.0
  0
INSERT
  5
2FA
330
1F
100
AcDbEntity
  8
GR1-1
  6
CONTINUOUS
 62
     7
100
AcDbBlockReference
  2
FXTIP_ARROW_S
 10
468.919701
 20
543.837806
 30
0.0
 41
4.0
 42
4.0
 50
180.0
  0
INSERT
  5
2FB
330
1F
100
AcDbEntity
  8
GR1-1
  6
CONTINUOUS
 62
     7
100
AcDbBlockReference
  2
FXTIP_ARROW_E
 10
622.919701
 20
543.837806
 30
0.0
 41
4.0
 42
4.0
 50
360.0
  0
TEXT
  5
2FC
330
1F
100
AcDbEntity
  8
GR1-1
  6
CONTINUOUS
 62
     7
100
AcDbText
 10
541.419678
 20
534.83783
 30
0.0
 40
4.0
  1
112
 41
0.828947
  7
FX_VECTOR
 72
     5
 11
550.419678
 21
534.83783
 31
0.0
100
AcDbText
  0
LINE
  5
2FD
330
1F
100
AcDbEntity
  8
GR1-1
  6
CONTINUOUS
 62
     7
100
AcDbLine
 10
489.919701
 20
501.788515
 30
0.0
 11
489.919701
 21
534.837806
 31
0.0
  0
LINE
  5
2FE
330
1F
100
AcDbEntity
  8
GR1-1
  6
CONTINUOUS
 62
     7
100
AcDbLine
 10
601.919701
 20
501.788515
 30
0.0
 11
601.919701
 21
534.837806
 31
0.0
  0
LINE
  5
2FF
330
1F
100
AcDbEntity
  8
GR1-1
  6
CONTINUOUS
 62
     7
100
AcDbLine
 10
489.919701
 20
533.837806
 30
0.0
 11
601.919701
 21
533.837806
 31
0.0
  0
INSERT
  5
300
330
1F
100
AcDbEntity
  8
GR1-1
  6
CONTINUOUS
 62
     7
100
AcDbBlockReference
  2
FXTIP_ARROW_S
 10
489.919701
 20
533.837806
 30
0.0
 41
4.0
 42
4.0
 50
180.0
  0
INSERT
  5
301
330
1F
100
AcDbEntity
  8
GR1-1
  6
CONTINUOUS
 62
     7
100
AcDbBlockReference
  2
FXTIP_ARROW_E
 10
601.919701
 20
533.837806
 30
0.0
 41
4.0
 42
4.0
 50
360.0
  0
TEXT
  5
302
330
1F
100
AcDbEntity
  8
GR1-1
  6
CONTINUOUS
 62
     7
100
AcDbText
 10
541.419678
 20
524.83783
 30
0.0
 40
4.0
  1
109
 41
0.84375
  7
FX_VECTOR
 72
     5
 11
550.419678
 21
524.83783
 31
0.0
100
AcDbText
  0
LINE
  5
303
330
1F
100
AcDbEntity
  8
GR1-1
  6
CONTINUOUS
 62
     7
100
AcDbLine
 10
600.419701
 20
500.288515
 30
0.0
 11
600.419701
 21
524.837806
 31
0.0
  0
LINE
  5
304
330
1F
100
AcDbEntity
  8
GR1-1
  6
CONTINUOUS
 62
     7
100
AcDbLine
 10
491.419701
 20
500.288515
 30
0.0
 11
491.419701
 21
524.837806
 31
0.0
  0
LINE
  5
305
330
1F
100
AcDbEntity
  8
GR1-1
  6
CONTINUOUS
 62
     7
100
AcDbLine
 10
600.419701
 20
523.837806
 30
0.0
 11
491.419701
 21
523.837806
 31
0.0
  0
INSERT
  5
306
330
1F
100
AcDbEntity
  8
GR1-1
  6
CONTINUOUS
 62
     7
100
AcDbBlockReference
  2
FXTIP_ARROW_S
 10
600.419701
 20
523.837806
 30
0.0
 41
4.0
 42
4.0
  0
INSERT
  5
307
330
1F
100
AcDbEntity
  8
GR1-1
  6
CONTINUOUS
 62
     7
100
AcDbBlockReference
  2
FXTIP_ARROW_E
 10
491.419701
 20
523.837806
 30
0.0
 41
4.0
 42
4.0
 50
180.0
  0
TEXT
  5
308
330
1F
100
AcDbEntity
  8
GR1-1
  6
CONTINUOUS
 62
     7
100
AcDbText
 10
460.420099
 20
409.110235
 30
0.0
 40
4.686059
  1
4-11.5
 50
315.0
 41
0.431142
  7
FX_VECTOR
 72
     5
 11
468.107367
 21
401.422968
 31
0.0
100
AcDbText
  0
LINE
  5
309
330
1F
100
AcDbEntity
  8
GR1-1
  6
CONTINUOUS
 62
     7
100
AcDbLine
 10
493.278458
 20
426.015545
 30
0.0
 11
466.508699
 21
399.245785
 31
0.0
  0
LINE
  5
30A
330
1F
100
AcDbEntity
  8
GR1-1
  6
CONTINUOUS
 62
     7
100
AcDbLine
 10
485.14673
 20
434.147273
 30
0.0
 11
458.376971
 21
407.377513
 31
0.0
  0
LINE
  5
30B
330
1F
100
AcDbEntity
  8
GR1-1
  6
CONTINUOUS
 62
     7
100
AcDbLine
 10
467.215805
 20
399.952892
 30
0.0
 11
459.084078
 21
408.08462
 31
0.0
  0
INSERT
  5
30C
330
1F
100
AcDbEntity
  8
GR1-1
  6
CONTINUOUS
 62
     7
100
AcDbBlockReference
  2
FXTIP_ARROW_S
 10
467.215805
 20
399.952892
 30
0.0
 41
4.0
 42
4.0
 50
315.0
  0
INSERT
  5
30D
330
1F
100
AcDbEntity
  8
GR1-1
  6
CONTINUOUS
 62
     7
100
AcDbBlockReference
  2
FXTIP_ARROW_E
 10
459.084078
 20
408.08462
 30
0.0
 41
4.0
 42
4.0
 50
135.0
  0
TEXT
  5
30E
330
1F
100
AcDbEntity
  8
LAYERGROUP-1
  6
CONTINUOUS
 62
     7
100
AcDbText
 10
182.930099
 20
153.288513
 30
0.0
 40
4.0
  1
%%c200
 50
90.0
 41
0.828947
  7
FX_VECTOR
 72
     5
 11
182.930099
 21
165.288513
 31
0.0
100
AcDbText
  0
LINE
  5
30F
330
1F
100
AcDbEntity
  8
LAYERGROUP-1
  6
CONTINUOUS
 62
     7
100
AcDbLine
 10
183.930095
 20
59.288515
 30
0.0
 11
183.930095
 21
259.288515
 31
0.0
  0
INSERT
  5
310
330
1F
100
AcDbEntity
  8
LAYERGROUP-1
  6
CONTINUOUS
 62
     7
100
AcDbBlockReference
  2
FXTIP_ARROW_S
 10
183.930095
 20
59.288515
 30
0.0
 41
4.0
 42
4.0
 50
270.0
  0
INSERT
  5
311
330
1F
100
AcDbEntity
  8
LAYERGROUP-1
  6
CONTINUOUS
 62
     7
100
AcDbBlockReference
  2
FXTIP_ARROW_E
 10
183.930095
 20
259.288515
 30
0.0
 41
4.0
 42
4.0
 50
90.0
  0
LINE
  5
312
330
1F
100
AcDbEntity
  8
LAYERGROUP-1
  6
CONTINUOUS
 62
     7
100
AcDbLine
 10
244.919701
 20
59.288515
 30
0.0
 11
182.930095
 21
59.288515
 31
0.0
  0
LINE
  5
313
330
1F
100
AcDbEntity
  8
LAYERGROUP-1
  6
CONTINUOUS
 62
     7
100
AcDbLine
 10
244.919701
 20
259.288515
 30
0.0
 11
182.930095
 21
259.288515
 31
0.0
  0
TEXT
  5
314
330
1F
100
AcDbEntity
  8
GR1-1
  6
CONTINUOUS
 62
     7
100
AcDbText
 10
242.919724
 20
40.24596
 30
0.0
 40
4.0
  1
55
 41
0.851351
  7
FX_VECTOR
 72
     5
 11
248.919724
 21
40.24596
 31
0.0
100
AcDbText
  0
LINE
  5
315
330
1F
100
AcDbEntity
  8
GR1-1
  6
CONTINUOUS
 62
     7
100
AcDbLine
 10
218.419701
 20
145.088515
 30
0.0
 11
218.419701
 21
38.245958
 31
0.0
  0
LINE
  5
316
330
1F
100
AcDbEntity
  8
GR1-1
  6
CONTINUOUS
 62
     7
100
AcDbLine
 10
273.419701
 20
145.489526
 30
0.0
 11
273.419701
 21
38.245958
 31
0.0
  0
LINE
  5
317
330
1F
100
AcDbEntity
  8
GR1-1
  6
CONTINUOUS
 62
     7
100
AcDbLine
 10
218.419701
 20
39.245958
 30
0.0
 11
273.419701
 21
39.245958
 31
0.0
  0
INSERT
  5
318
330
1F
100
AcDbEntity
  8
GR1-1
  6
CONTINUOUS
 62
     7
100
AcDbBlockReference
  2
FXTIP_ARROW_S
 10
218.419701
 20
39.245958
 30
0.0
 41
4.0
 42
4.0
 50
180.0
  0
INSERT
  5
319
330
1F
100
AcDbEntity
  8
GR1-1
  6
CONTINUOUS
 62
     7
100
AcDbBlockReference
  2
FXTIP_ARROW_E
 10
273.419701
 20
39.245958
 30
0.0
 41
4.0
 42
4.0
 50
360.0
  0
TEXT
  5
31A
330
1F
100
AcDbEntity
  8
GR1-1
  6
CONTINUOUS
 62
     7
100
AcDbText
 10
242.919724
 20
50.24596
 30
0.0
 40
4.0
  1
45
 41
0.851351
  7
FX_VECTOR
 72
     5
 11
248.919724
 21
50.24596
 31
0.0
100
AcDbText
  0
LINE
  5
31B
330
1F
100
AcDbEntity
  8
GR1-1
  6
CONTINUOUS
 62
     7
100
AcDbLine
 10
223.419701
 20
73.288515
 30
0.0
 11
223.419701
 21
48.245958
 31
0.0
  0
LINE
  5
31C
330
1F
100
AcDbEntity
  8
GR1-1
  6
CONTINUOUS
 62
     7
100
AcDbLine
 10
268.419701
 20
73.288515
 30
0.0
 11
268.419701
 21
48.245958
 31
0.0
  0
LINE
  5
31D
330
1F
100
AcDbEntity
  8
GR1-1
  6
CONTINUOUS
 62
     7
100
AcDbLine
 10
223.419701
 20
49.245958
 30
0.0
 11
268.419701
 21
49.245958
 31
0.0
  0
INSERT
  5
31E
330
1F
100
AcDbEntity
  8
GR1-1
  6
CONTINUOUS
 62
     7
100
AcDbBlockReference
  2
FXTIP_ARROW_S
 10
223.419701
 20
49.245958
 30
0.0
 41
4.0
 42
4.0
 50
180.0
  0
INSERT
  5
31F
330
1F
100
AcDbEntity
  8
GR1-1
  6
CONTINUOUS
 62
     7
100
AcDbBlockReference
  2
FXTIP_ARROW_E
 10
268.419701
 20
49.245958
 30
0.0
 41
4.0
 42
4.0
 50
360.0
  0
ARC
  5
320
330
1F
100
AcDbEntity
  8
LAYERGROUP-1
  6
CONTINUOUS
 62
     6
100
AcDbCircle
 10
545.919701
 20
159.288515
 30
0.0
 40
83.0
100
AcDbArc
 50
-234.000964
 51
54.000964
  0
ARC
  5
321
330
1F
100
AcDbEntity
  8
LAYERGROUP-1
  6
CONTINUOUS
 62
     6
100
AcDbCircle
 10
545.919701
 20
159.288515
 30
0.0
 40
73.0
100
AcDbArc
 50
-229.399876
 51
51.669962
  0
ARC
  5
322
330
1F
100
AcDbEntity
  8
LAYERGROUP-1
  6
CONTINUOUS
 62
     6
100
AcDbCircle
 10
545.919701
 20
159.288515
 30
0.0
 40
31.5
100
AcDbArc
 50
-202.213141
 51
22.213141
  0
LINE
  5
323
330
1F
100
AcDbEntity
  8
LAYERGROUP-1
  6
CONTINUOUS
 62
     6
100
AcDbLine
 10
513.511695
 20
180.334521
 30
0.0
 11
492.853055
 21
193.750398
 31
0.0
  0
LINE
  5
324
330
1F
100
AcDbEntity
  8
LAYERGROUP-1
  6
CONTINUOUS
 62
     6
100
AcDbLine
 10
509.555323
 20
161.194292
 30
0.0
 11
482.731696
 21
162.600058
 31
0.0
  0
LINE
  5
325
330
1F
100
AcDbEntity
  8
LAYERGROUP-1
  6
CONTINUOUS
 62
     6
100
AcDbLine
 10
517.620488
 20
136.372265
 30
0.0
 11
496.746007
 21
119.468443
 31
0.0
  0
LINE
  5
326
330
1F
100
AcDbEntity
  8
LAYERGROUP-1
  6
CONTINUOUS
 62
     6
100
AcDbLine
 10
533.049601
 20
125.760758
 30
0.0
 11
523.244069
 21
100.216475
 31
0.0
  0
LINE
  5
327
330
1F
100
AcDbEntity
  8
LAYERGROUP-1
  6
CONTINUOUS
 62
     6
100
AcDbLine
 10
558.789801
 20
125.760758
 30
0.0
 11
568.595333
 21
100.216475
 31
0.0
  0
LINE
  5
328
330
1F
100
AcDbEntity
  8
LAYERGROUP-1
  6
CONTINUOUS
 62
     6
100
AcDbLine
 10
574.218914
 20
136.372265
 30
0.0
 11
595.093395
 21
119.468443
 31
0.0
  0
LINE
  5
329
330
1F
100
AcDbEntity
  8
LAYERGROUP-1
  6
CONTINUOUS
 62
     6
100
AcDbLine
 10
582.28408
 20
161.194292
 30
0.0
 11
609.107706
 21
162.600058
 31
0.0
  0
LINE
  5
32A
330
1F
100
AcDbEntity
  8
LAYERGROUP-1
  6
CONTINUOUS
 62
     6
100
AcDbLine
 10
578.327707
 20
180.334521
 30
0.0
 11
598.986347
 21
193.750398
 31
0.0
  0
LINE
  5
32B
330
1F
100
AcDbEntity
  8
LAYERGROUP-1
  6
DASHED
 62
     6
100
AcDbLine
 10
514.88811
 20
176.459758
 30
0.0
 11
483.358134
 21
196.935564
 31
0.0
  0
ARC
  5
32C
330
1F
100
AcDbEntity
  8
LAYERGROUP-1
  6
CONTINUOUS
 62
     6
100
AcDbCircle
 10
481.960274
 20
176.976987
 30
0.0
 40
20.0
100
AcDbArc
 50
57.0
 51
85.955024
  0
LINE
  5
32D
330
1F
100
AcDbEntity
  8
LAYERGROUP-1
  6
DASHED
 62
     6
100
AcDbLine
 10
514.692938
 20
163.428472
 30
0.0
 11
473.193347
 21
165.603373
 31
0.0
  0
ARC
  5
32E
330
1F
100
AcDbEntity
  8
LAYERGROUP-1
  6
CONTINUOUS
 62
     6
100
AcDbCircle
 10
483.778415
 20
182.572649
 30
0.0
 40
20.0
100
AcDbArc
 50
238.044976
 51
267.0
  0
LINE
  5
32F
330
1F
100
AcDbEntity
  8
LAYERGROUP-1
  6
DASHED
 62
     6
100
AcDbLine
 10
523.090124
 20
137.584589
 30
0.0
 11
490.794625
 21
111.43221
 31
0.0
  0
LINE
  5
330
330
1F
100
AcDbEntity
  8
LAYERGROUP-1
  6
DASHED
 62
     6
100
AcDbLine
 10
532.332768
 20
130.869415
 30
0.0
 11
517.440235
 21
92.073041
 31
0.0
  0
ARC
  5
331
330
1F
100
AcDbEntity
  8
LAYERGROUP-1
  6
CONTINUOUS
 62
     6
100
AcDbCircle
 10
509.332415
 20
103.925524
 30
0.0
 40
20.0
100
AcDbArc
 50
129.0
 51
157.955024
  0
ARC
  5
332
330
1F
100
AcDbEntity
  8
LAYERGROUP-1
  6
CONTINUOUS
 62
     6
100
AcDbCircle
 10
504.572461
 20
107.383834
 30
0.0
 40
20.0
100
AcDbArc
 50
310.044976
 51
339.0
  0
LINE
  5
333
330
1F
100
AcDbEntity
  8
LAYERGROUP-1
  6
DASHED
 62
     6
100
AcDbLine
 10
559.506634
 20
130.869415
 30
0.0
 11
574.399167
 21
92.073041
 31
0.0
  0
LINE
  5
334
330
1F
100
AcDbEntity
  8
LAYERGROUP-1
  6
DASHED
 62
     6
100
AcDbLine
 10
568.749278
 20
137.584589
 30
0.0
 11
601.044777
 21
111.43221
 31
0.0
  0
ARC
  5
335
330
1F
100
AcDbEntity
  8
LAYERGROUP-1
  6
CONTINUOUS
 62
     6
100
AcDbCircle
 10
582.506987
 20
103.925524
 30
0.0
 40
20.0
100
AcDbArc
 50
22.044976
 51
51.0
  0
ARC
  5
336
330
1F
100
AcDbEntity
  8
LAYERGROUP-1
  6
CONTINUOUS
 62
     6
100
AcDbCircle
 10
587.266942
 20
107.383834
 30
0.0
 40
20.0
100
AcDbArc
 50
201.0
 51
229.955024
  0
LINE
  5
337
330
1F
100
AcDbEntity
  8
LAYERGROUP-1
  6
DASHED
 62
     6
100
AcDbLine
 10
577.146465
 20
163.428472
 30
0.0
 11
618.646055
 21
165.603373
 31
0.0
  0
LINE
  5
338
330
1F
100
AcDbEntity
  8
LAYERGROUP-1
  6
DASHED
 62
     6
100
AcDbLine
 10
576.951293
 20
176.459758
 30
0.0
 11
608.468338
 21
196.927167
 31
0.0
  0
ARC
  5
339
330
1F
100
AcDbEntity
  8
LAYERGROUP-1
  6
CONTINUOUS
 62
     6
100
AcDbCircle
 10
609.879128
 20
176.976987
 30
0.0
 40
20.0
100
AcDbArc
 50
94.044976
 51
123.0
  0
ARC
  5
33A
330
1F
100
AcDbEntity
  8
LAYERGROUP-1
  6
CONTINUOUS
 62
     6
100
AcDbCircle
 10
608.060987
 20
182.572649
 30
0.0
 40
20.0
100
AcDbArc
 50
273.0
 51
301.955024
  0
ARC
  5
33B
330
1F
100
AcDbEntity
  8
LAYERGROUP-1
  6
CONTINUOUS
 62
     6
100
AcDbCircle
 10
545.919701
 20
159.288515
 30
0.0
 40
34.0
100
AcDbArc
 50
180.982079
 51
215.072557
  0
ARC
  5
33C
330
1F
100
AcDbEntity
  8
LAYERGROUP-1
  6
CONTINUOUS
 62
     6
100
AcDbCircle
 10
509.424483
 20
158.697718
 30
0.0
 40
2.5
100
AcDbArc
 50
0.927443
 51
87.0
  0
ARC
  5
33D
330
1F
100
AcDbEntity
  8
LAYERGROUP-1
  6
CONTINUOUS
 62
     6
100
AcDbCircle
 10
516.047187
 20
138.31513
 30
0.0
 40
2.5
100
AcDbArc
 50
-51.0
 51
35.072557
  0
LINE
  5
33E
330
1F
100
AcDbEntity
  8
LAYERGROUP-1
  6
CONTINUOUS
 62
     6
100
AcDbLine
 10
509.555323
 20
161.194292
 30
0.0
 11
514.692938
 21
163.428472
 31
0.0
  0
LINE
  5
33F
330
1F
100
AcDbEntity
  8
LAYERGROUP-1
  6
CONTINUOUS
 62
     6
100
AcDbLine
 10
514.692938
 20
163.428472
 30
0.0
 11
511.924696
 21
158.705767
 31
0.0
  0
LINE
  5
340
330
1F
100
AcDbEntity
  8
LAYERGROUP-1
  6
CONTINUOUS
 62
     6
100
AcDbLine
 10
517.620488
 20
136.372265
 30
0.0
 11
523.090124
 21
137.584589
 31
0.0
  0
LINE
  5
341
330
1F
100
AcDbEntity
  8
LAYERGROUP-1
  6
CONTINUOUS
 62
     6
100
AcDbLine
 10
523.090124
 20
137.584589
 30
0.0
 11
518.09325
 21
139.751663
 31
0.0
  0
ARC
  5
342
330
1F
100
AcDbEntity
  8
LAYERGROUP-1
  6
CONTINUOUS
 62
     6
100
AcDbCircle
 10
545.919701
 20
159.288515
 30
0.0
 40
34.0
100
AcDbArc
 50
252.982079
 51
287.017921
  0
ARC
  5
343
330
1F
100
AcDbEntity
  8
LAYERGROUP-1
  6
CONTINUOUS
 62
     6
100
AcDbCircle
 10
545.919701
 20
159.288515
 30
0.0
 40
34.0
100
AcDbArc
 50
324.982079
 51
359.017921
  0
ARC
  5
344
330
1F
100
AcDbEntity
  8
LAYERGROUP-1
  6
CONTINUOUS
 62
     6
100
AcDbCircle
 10
556.635462
 20
124.396934
 30
0.0
 40
2.5
100
AcDbArc
 50
21.0
 51
107.072557
  0
ARC
  5
345
330
1F
100
AcDbEntity
  8
LAYERGROUP-1
  6
CONTINUOUS
 62
     6
100
AcDbCircle
 10
535.20394
 20
124.396934
 30
0.0
 40
2.5
100
AcDbArc
 50
72.927443
 51
159.0
  0
ARC
  5
346
330
1F
100
AcDbEntity
  8
LAYERGROUP-1
  6
CONTINUOUS
 62
     6
100
AcDbCircle
 10
575.792215
 20
138.31513
 30
0.0
 40
2.5
100
AcDbArc
 50
144.927443
 51
231.0
  0
ARC
  5
347
330
1F
100
AcDbEntity
  8
LAYERGROUP-1
  6
CONTINUOUS
 62
     6
100
AcDbCircle
 10
582.41492
 20
158.697718
 30
0.0
 40
2.5
100
AcDbArc
 50
93.0
 51
179.072557
  0
LINE
  5
348
330
1F
100
AcDbEntity
  8
LAYERGROUP-1
  6
CONTINUOUS
 62
     6
100
AcDbLine
 10
582.28408
 20
161.194292
 30
0.0
 11
577.146465
 21
163.428472
 31
0.0
  0
LINE
  5
349
330
1F
100
AcDbEntity
  8
LAYERGROUP-1
  6
CONTINUOUS
 62
     6
100
AcDbLine
 10
577.146465
 20
163.428472
 30
0.0
 11
579.914707
 21
158.705767
 31
0.0
  0
LINE
  5
34A
330
1F
100
AcDbEntity
  8
LAYERGROUP-1
  6
CONTINUOUS
 62
     6
100
AcDbLine
 10
573.764769
 20
139.778206
 30
0.0
 11
568.749278
 21
137.584589
 31
0.0
  0
LINE
  5
34B
330
1F
100
AcDbEntity
  8
LAYERGROUP-1
  6
CONTINUOUS
 62
     6
100
AcDbLine
 10
568.749278
 20
137.584589
 30
0.0
 11
574.218914
 21
136.372265
 31
0.0
  0
ARC
  5
34C
330
1F
100
AcDbEntity
  8
LAYERGROUP-1
  6
CONTINUOUS
 62
     6
100
AcDbCircle
 10
545.919701
 20
159.288515
 30
0.0
 40
66.0
100
AcDbArc
 50
293.170814
 51
318.829186
  0
ARC
  5
34D
330
1F
100
AcDbEntity
  8
LAYERGROUP-1
  6
CONTINUOUS
 62
     6
100
AcDbCircle
 10
545.919701
 20
159.288515
 30
0.0
 40
66.0
100
AcDbArc
 50
221.170814
 51
246.829186
  0
ARC
  5
34E
330
1F
100
AcDbEntity
  8
LAYERGROUP-1
  6
CONTINUOUS
 62
     6
100
AcDbCircle
 10
545.919701
 20
159.288515
 30
0.0
 40
66.0
100
AcDbArc
 50
149.170814
 51
174.829186
  0
ARC
  5
34F
330
1F
100
AcDbEntity
  8
LAYERGROUP-1
  6
CONTINUOUS
 62
     6
100
AcDbCircle
 10
545.919701
 20
159.288515
 30
0.0
 40
66.0
100
AcDbArc
 50
5.170814
 51
30.829186
  0
LINE
  5
350
330
1F
100
AcDbEntity
  8
LAYERGROUP-1
  6
CONTINUOUS
 62
     6
100
AcDbLine
 10
532.869989
 20
125.292854
 30
0.0
 11
532.332768
 21
130.869415
 31
0.0
  0
LINE
  5
351
330
1F
100
AcDbEntity
  8
LAYERGROUP-1
  6
CONTINUOUS
 62
     6
100
AcDbLine
 10
532.332768
 20
130.869415
 30
0.0
 11
535.968894
 21
126.777265
 31
0.0
  0
LINE
  5
352
330
1F
100
AcDbEntity
  8
LAYERGROUP-1
  6
CONTINUOUS
 62
     6
100
AcDbLine
 10
555.870509
 20
126.777265
 30
0.0
 11
559.506634
 21
130.869415
 31
0.0
  0
LINE
  5
353
330
1F
100
AcDbEntity
  8
LAYERGROUP-1
  6
CONTINUOUS
 62
     6
100
AcDbLine
 10
559.506634
 20
130.869415
 30
0.0
 11
558.969413
 21
125.292854
 31
0.0
  0
ARC
  5
354
330
1F
100
AcDbEntity
  8
LAYERGROUP-1
  6
CONTINUOUS
 62
     6
100
AcDbCircle
 10
545.919701
 20
159.288515
 30
0.0
 40
64.56659999999999
100
AcDbArc
 50
248.92333
 51
291.07667
  0
ARC
  5
355
330
1F
100
AcDbEntity
  8
LAYERGROUP-1
  6
CONTINUOUS
 62
     6
100
AcDbCircle
 10
545.919701
 20
159.288515
 30
0.0
 40
64.56659999999999
100
AcDbArc
 50
-39.07667
 51
3.07667
  0
ARC
  5
356
330
1F
100
AcDbEntity
  8
LAYERGROUP-1
  6
CONTINUOUS
 62
     6
100
AcDbCircle
 10
545.919701
 20
159.288515
 30
0.0
 40
64.56659999999999
100
AcDbArc
 50
32.92333
 51
49.105773
  0
ARC
  5
357
330
1F
100
AcDbEntity
  8
LAYERGROUP-1
  6
CONTINUOUS
 62
     6
100
AcDbCircle
 10
545.919701
 20
159.288515
 30
0.0
 40
64.56659999999999
100
AcDbArc
 50
130.894227
 51
147.07667
  0
ARC
  5
358
330
1F
100
AcDbEntity
  8
LAYERGROUP-1
  6
CONTINUOUS
 62
     6
100
AcDbCircle
 10
545.919701
 20
159.288515
 30
0.0
 40
64.56659999999999
100
AcDbArc
 50
176.92333
 51
219.07667
  0
ARC
  5
359
330
1F
100
AcDbEntity
  8
LAYERGROUP-1
  6
CONTINUOUS
 62
     3
100
AcDbCircle
 10
545.919701
 20
159.288515
 30
0.0
 40
100.0
100
AcDbArc
 50
-236.85577
 51
56.85577
  0
ARC
  5
35A
330
1F
100
AcDbEntity
  8
LAYERGROUP-1
  6
CONTINUOUS
 62
     3
100
AcDbCircle
 10
545.919701
 20
159.288515
 30
0.0
 40
23.49999999999994
100
AcDbArc
 50
194.372617
 51
345.627383
  0
ARC
  5
35B
330
1F
100
AcDbEntity
  8
LAYERGROUP-1
  6
DASHED
 62
     6
100
AcDbCircle
 10
545.919701
 20
159.288515
 30
0.0
 40
22.49999999999992
100
AcDbArc
 50
209.105533
 51
330.894467
  0
ARC
  5
35C
330
1F
100
AcDbEntity
  8
LAYERGROUP-1
  6
CONTINUOUS
 62
     3
100
AcDbCircle
 10
545.919701
 20
159.288515
 30
0.0
 40
79.0
100
AcDbArc
 50
-233.142859
 51
53.142859
  0
TEXT
  5
35D
330
1F
100
AcDbEntity
  8
GR1-1
  6
CONTINUOUS
 62
     7
100
AcDbText
 10
466.508392
 20
123.752106
 30
0.0
 40
7.0
  1
G
 50
109.0
 41
1.166667
  7
FX_VECTOR
 72
     5
 11
464.229415
 21
130.370736
 31
0.0
100
AcDbText
  0
TEXT
  5
35E
330
1F
100
AcDbEntity
  8
GR1-1
  6
CONTINUOUS
 62
     7
100
AcDbText
 10
463.424835
 20
131.655243
 30
0.0
 40
7.0
  1
O
 50
103.5
 41
1.105263
  7
FX_VECTOR
 72
     5
 11
461.790718
 21
138.461832
 31
0.0
100
AcDbText
  0
TEXT
  5
35F
330
1F
100
AcDbEntity
  8
GR1-1
  6
CONTINUOUS
 62
     7
100
AcDbText
 10
461.24527
 20
139.307526
 30
0.0
 40
7.0
  1
L
 50
98.0
 41
1.3125
  7
FX_VECTOR
 72
     5
 11
460.271058
 21
146.239402
 31
0.0
100
AcDbText
  0
TEXT
  5
360
330
1F
100
AcDbEntity
  8
GR1-1
  6
CONTINUOUS
 62
     7
100
AcDbText
 10
459.707367
 20
147.607941
 30
0.0
 40
7.0
  1
D
 50
92.5
 41
1.166667
  7
FX_VECTOR
 72
     5
 11
459.402031
 21
154.601278
 31
0.0
100
AcDbText
  0
TEXT
  5
361
330
1F
100
AcDbEntity
  8
GR1-1
  6
CONTINUOUS
 62
     7
100
AcDbText
 10
459.03952
 20
163.852509
 30
0.0
 40
7.0
  1
C
 50
81.5
 41
1.166667
  7
FX_VECTOR
 72
     5
 11
460.074186
 21
170.77562
 31
0.0
100
AcDbText
  0
TEXT
  5
362
330
1F
100
AcDbEntity
  8
GR1-1
  6
CONTINUOUS
 62
     7
100
AcDbText
 10
459.917633
 20
172.427887
 30
0.0
 40
7.0
  1
A
 50
76.0
 41
1.235294
  7
FX_VECTOR
 72
     5
 11
461.611086
 21
179.219957
 31
0.0
100
AcDbText
  0
TEXT
  5
363
330
1F
100
AcDbEntity
  8
GR1-1
  6
CONTINUOUS
 62
     7
100
AcDbText
 10
461.60495
 20
180.736786
 30
0.0
 40
7.0
  1
S
 50
70.5
 41
1.235294
  7
FX_VECTOR
 72
     5
 11
463.941598
 21
187.335276
 31
0.0
100
AcDbText
  0
TEXT
  5
364
330
1F
100
AcDbEntity
  8
GR1-1
  6
CONTINUOUS
 62
     7
100
AcDbText
 10
464.000153
 20
188.583405
 30
0.0
 40
7.0
  1
T
 50
65.0
 41
1.4
  7
FX_VECTOR
 72
     5
 11
466.95848
 21
194.927559
 31
0.0
100
AcDbText
  0
TEXT
  5
365
330
1F
100
AcDbEntity
  8
GR1-1
  6
CONTINUOUS
 62
     7
100
AcDbText
 10
467.154755
 20
196.235565
 30
0.0
 40
7.0
  1
E
 50
59.5
 41
1.235294
  7
FX_VECTOR
 72
     5
 11
470.707523
 21
202.266969
 31
0.0
100
AcDbText
  0
TEXT
  5
366
330
1F
100
AcDbEntity
  8
GR1-1
  6
CONTINUOUS
 62
     7
100
AcDbText
 10
471.2612
 20
203.95517
 30
0.0
 40
7.0
  1
R
 50
54.0
 41
1.166667
  7
FX_VECTOR
 72
     5
 11
475.375697
 21
209.618289
 31
0.0
100
AcDbText
  0
TEXT
  5
367
330
1F
100
AcDbEntity
  8
GR1-1
  6
CONTINUOUS
 62
     7
100
AcDbText
 10
629.122498
 20
184.710846
 30
0.0
 40
7.0
  1
2
 50
285.0
 41
1.235294
  7
FX_VECTOR
 72
     5
 11
630.934231
 21
177.949365
 31
0.0
100
AcDbText
  0
TEXT
  5
368
330
1F
100
AcDbEntity
  8
GR1-1
  6
CONTINUOUS
 62
     7
100
AcDbText
 10
631.329163
 20
175.848114
 30
0.0
 40
7.0
  1
0
 50
279.0
 41
1.235294
  7
FX_VECTOR
 72
     5
 11
632.424204
 21
168.934296
 31
0.0
100
AcDbText
  0
TEXT
  5
369
330
1F
100
AcDbEntity
  8
GR1-1
  6
CONTINUOUS
 62
     7
100
AcDbText
 10
632.576355
 20
167.009857
 30
0.0
 40
7.0
  1
0
 50
273.0
 41
1.235294
  7
FX_VECTOR
 72
     5
 11
632.942707
 21
160.01945
 31
0.0
100
AcDbText
  0
TEXT
  5
36A
330
1F
100
AcDbEntity
  8
GR1-1
  6
CONTINUOUS
 62
     7
100
AcDbText
 10
632.908875
 20
157.915619
 30
0.0
 40
7.0
  1
X
 50
267.0
 41
1.235294
  7
FX_VECTOR
 72
     5
 11
632.542523
 21
150.925212
 31
0.0
100
AcDbText
  0
TEXT
  5
36B
330
1F
100
AcDbEntity
  8
GR1-1
  6
CONTINUOUS
 62
     7
100
AcDbText
 10
632.293152
 20
148.865997
 30
0.0
 40
7.0
  1
4
 50
261.0
 41
1.166667
  7
FX_VECTOR
 72
     5
 11
631.198111
 21
141.952179
 31
0.0
100
AcDbText
  0
TEXT
  5
36C
330
1F
100
AcDbEntity
  8
GR1-1
  6
CONTINUOUS
 62
     7
100
AcDbText
 10
630.672058
 20
139.640533
 30
0.0
 40
7.0
  1
5
 50
255.0
 41
1.235294
  7
FX_VECTOR
 72
     5
 11
628.860325
 21
132.879053
 31
0.0
100
AcDbText
  0
LINE
  5
36D
330
1F
100
AcDbEntity
  8
GR1-1
  6
CONTINUOUS
 62
     7
100
AcDbLine
 10
469.557255
 20
106.121073
 30
0.0
 11
466.289421
 21
111.153097
 31
0.0
  0
LINE
  5
36E
330
1F
100
AcDbEntity
  8
GR1-1
  6
CONTINUOUS
 62
     7
100
AcDbLine
 10
466.289421
 20
111.153097
 30
0.0
 11
471.321445
 21
114.420931
 31
0.0
  0
LINE
  5
36F
330
1F
100
AcDbEntity
  8
GR1-1
  6
CONTINUOUS
 62
     7
100
AcDbLine
 10
471.321445
 20
114.420931
 30
0.0
 11
474.589279
 21
109.388908
 31
0.0
  0
LINE
  5
370
330
1F
100
AcDbEntity
  8
GR1-1
  6
CONTINUOUS
 62
     7
100
AcDbLine
 10
474.589279
 20
109.388908
 30
0.0
 11
469.557255
 21
106.121073
 31
0.0
  0
LINE
  5
371
330
1F
100
AcDbEntity
  8
GR1-1
  6
CONTINUOUS
 62
     7
100
AcDbLine
 10
471.979822
 20
107.898884
 30
0.0
 11
468.067232
 21
108.73053
 31
0.0
  0
LINE
  5
372
330
1F
100
AcDbEntity
  8
GR1-1
  6
CONTINUOUS
 62
     7
100
AcDbLine
 10
468.067232
 20
108.73053
 30
0.0
 11
468.810669
 21
112.228128
 31
0.0
  0
LINE
  5
373
330
1F
100
AcDbEntity
  8
GR1-1
  6
CONTINUOUS
 62
     7
100
AcDbLine
 10
468.810669
 20
112.228128
 30
0.0
 11
469.580905
 21
111.042069
 31
0.0
  0
LINE
  5
374
330
1F
100
AcDbEntity
  8
GR1-1
  6
CONTINUOUS
 62
     7
100
AcDbLine
 10
469.580905
 20
111.042069
 30
0.0
 11
469.253291
 21
109.500766
 31
0.0
  0
LINE
  5
375
330
1F
100
AcDbEntity
  8
GR1-1
  6
CONTINUOUS
 62
     7
100
AcDbLine
 10
469.253291
 20
109.500766
 30
0.0
 11
471.209586
 21
109.084943
 31
0.0
  0
LINE
  5
376
330
1F
100
AcDbEntity
  8
GR1-1
  6
CONTINUOUS
 62
     7
100
AcDbLine
 10
471.209586
 20
109.084943
 30
0.0
 11
471.625409
 21
111.041238
 31
0.0
  0
LINE
  5
377
330
1F
100
AcDbEntity
  8
GR1-1
  6
CONTINUOUS
 62
     7
100
AcDbLine
 10
471.625409
 20
111.041238
 30
0.0
 11
470.596915
 21
111.259851
 31
0.0
  0
ARC
  5
378
330
1F
100
AcDbEntity
  8
GR1-1
  6
CONTINUOUS
 62
     7
100
AcDbCircle
 10
470.576124
 20
111.162037
 30
0.0
 40
0.1
100
AcDbArc
 50
78.0
 51
213.0
  0
LINE
  5
379
330
1F
100
AcDbEntity
  8
GR1-1
  6
CONTINUOUS
 62
     7
100
AcDbLine
 10
470.492256
 20
111.107573
 30
0.0
 11
470.858685
 21
110.543322
 31
0.0
  0
LINE
  5
37A
330
1F
100
AcDbEntity
  8
GR1-1
  6
CONTINUOUS
 62
     7
100
AcDbLine
 10
470.858685
 20
110.543322
 30
0.0
 11
470.43935
 21
110.271002
 31
0.0
  0
LINE
  5
37B
330
1F
100
AcDbEntity
  8
GR1-1
  6
CONTINUOUS
 62
     7
100
AcDbLine
 10
470.43935
 20
110.271002
 30
0.0
 11
468.898878
 21
112.643121
 31
0.0
  0
LINE
  5
37C
330
1F
100
AcDbEntity
  8
GR1-1
  6
CONTINUOUS
 62
     7
100
AcDbLine
 10
468.898878
 20
112.643121
 30
0.0
 11
470.596616
 21
113.745645
 31
0.0
  0
LINE
  5
37D
330
1F
100
AcDbEntity
  8
GR1-1
  6
CONTINUOUS
 62
     7
100
AcDbLine
 10
470.596616
 20
113.745645
 30
0.0
 11
471.141255
 21
112.906974
 31
0.0
  0
LINE
  5
37E
330
1F
100
AcDbEntity
  8
GR1-1
  6
CONTINUOUS
 62
     7
100
AcDbLine
 10
471.141255
 20
112.906974
 30
0.0
 11
470.484661
 21
112.480577
 31
0.0
  0
ARC
  5
37F
330
1F
100
AcDbEntity
  8
GR1-1
  6
CONTINUOUS
 62
     7
100
AcDbCircle
 10
470.539125
 20
112.39671
 30
0.0
 40
0.1
100
AcDbArc
 50
123.0
 51
258.0
  0
LINE
  5
380
330
1F
100
AcDbEntity
  8
GR1-1
  6
CONTINUOUS
 62
     7
100
AcDbLine
 10
470.518334
 20
112.298895
 30
0.0
 11
472.811469
 21
111.811474
 31
0.0
  0
LINE
  5
381
330
1F
100
AcDbEntity
  8
GR1-1
  6
CONTINUOUS
 62
     7
100
AcDbLine
 10
472.811469
 20
111.811474
 30
0.0
 11
471.979822
 21
107.898884
 31
0.0
  0
TEXT
  5
382
330
1F
100
AcDbEntity
  8
LAYERGROUP-1
  6
CONTINUOUS
 62
     7
100
AcDbText
 10
499.610443
 20
141.255203
 30
0.0
 40
6.855022
  1
２
 50
107.5
 41
1.167945
  7
FX_VECTOR
 72
     5
 11
497.890773
 21
146.7093
 31
0.0
100
AcDbText
  0
TEXT
  5
383
330
1F
100
AcDbEntity
  8
LAYERGROUP-1
  6
CONTINUOUS
 62
     7
100
AcDbText
 10
497.819489
 20
147.1427
 30
0.0
 40
7.194537
  1
０
 50
100.5
 41
1.124146
  7
FX_VECTOR
 72
     5
 11
496.766725
 21
152.822902
 31
0.0
100
AcDbText
  0
TEXT
  5
384
330
1F
100
AcDbEntity
  8
LAYERGROUP-1
  6
CONTINUOUS
 62
     7
100
AcDbText
 10
501.768707
 20
137.217056
 30
0.0
 40
6.374589
  1
-
 50
114.5
 41
0.855818
  7
FX_VECTOR
 72
     5
 11
499.398621
 21
142.417735
 31
0.0
100
AcDbText
  0
TEXT
  5
385
330
1F
100
AcDbEntity
  8
LAYERGROUP-1
  6
CONTINUOUS
 62
     7
100
AcDbText
 10
504.886932
 20
130.998428
 30
0.0
 40
6.531599
  1
W
 50
121.5
 41
0.941319
  7
FX_VECTOR
 72
     5
 11
501.521468
 21
136.490367
 31
0.0
100
AcDbText
  0
TEXT
  5
386
330
1F
100
AcDbEntity
  8
LAYERGROUP-1
  6
CONTINUOUS
 62
     7
100
AcDbText
 10
496.697845
 20
153.095169
 30
0.0
 40
7.194537
  1
０
 50
93.5
 41
1.124146
  7
FX_VECTOR
 72
     5
 11
496.345172
 21
158.861331
 31
0.0
100
AcDbText
  0
ARC
  5
387
330
1F
100
AcDbEntity
  8
1-1
  6
CONTINUOUS
 62
     3
100
AcDbCircle
 10
237.145363
 20
68.514971
 30
0.0
 40
8.0
100
AcDbArc
 50
210.0
 51
254.08577
  0
LINE
  5
388
330
1F
100
AcDbEntity
  8
1-1
  6
CONTINUOUS
 62
     3
100
AcDbLine
 10
230.21716
 20
64.514971
 30
0.0
 11
223.419701
 21
76.288515
 31
0.0
  0
ARC
  5
389
330
1F
100
AcDbEntity
  8
1-1
  6
CONTINUOUS
 62
     3
100
AcDbCircle
 10
245.919701
 20
99.288515
 30
0.0
 40
40.0
100
AcDbArc
 50
254.08577
 51
285.91423
  0
LINE
  5
38A
330
1F
100
AcDbEntity
  8
LAYERGROUP-1
  6
CONTINUOUS
 62
     3
100
AcDbLine
 10
218.919701
 20
144.788515
 30
0.0
 11
221.419701
 21
144.788515
 31
0.0
  0
LINE
  5
38B
330
1F
100
AcDbEntity
  8
LAYERGROUP-1
  6
CONTINUOUS
 62
     3
100
AcDbLine
 10
218.419701
 20
145.288515
 30
0.0
 11
218.419701
 21
173.288515
 31
0.0
  0
LINE
  5
38C
330
1F
100
AcDbEntity
  8
LAYERGROUP-1
  6
CONTINUOUS
 62
     3
100
AcDbLine
 10
218.919701
 20
144.788515
 30
0.0
 11
218.419701
 21
145.288515
 31
0.0
  0
LINE
  5
38D
330
1F
100
AcDbEntity
  8
LAYERGROUP-1
  6
CONTINUOUS
 62
     3
100
AcDbLine
 10
223.419701
 20
126.115475
 30
0.0
 11
222.351474
 21
127.009069
 31
0.0
  0
ARC
  5
38E
330
1F
100
AcDbEntity
  8
LAYERGROUP-1
  6
CONTINUOUS
 62
     3
100
AcDbCircle
 10
224.019701
 20
129.003315
 30
0.0
 40
2.6
100
AcDbArc
 50
180.0
 51
230.086843
  0
LINE
  5
38F
330
1F
100
AcDbEntity
  8
LAYERGROUP-1
  6
CONTINUOUS
 62
     3
100
AcDbLine
 10
221.419701
 20
129.003315
 30
0.0
 11
221.419701
 21
189.573716
 31
0.0
  0
LINE
  5
390
330
1F
100
AcDbEntity
  8
LAYERGROUP-1
  6
CONTINUOUS
 62
     3
100
AcDbLine
 10
223.419701
 20
76.288515
 30
0.0
 11
223.419701
 21
242.288515
 31
0.0
  0
LINE
  5
391
330
1F
100
AcDbEntity
  8
GR1-1
  6
CONTINUOUS
 62
     6
100
AcDbLine
 10
233.419701
 20
61.435463
 30
0.0
 11
233.419701
 21
257.141568
 31
0.0
  0
ARC
  5
392
330
1F
100
AcDbEntity
  8
1-1
  6
CONTINUOUS
 62
     3
100
AcDbCircle
 10
254.694039
 20
68.514971
 30
0.0
 40
8.0
100
AcDbArc
 50
285.91423
 51
330.0
  0
LINE
  5
393
330
1F
100
AcDbEntity
  8
1-1
  6
CONTINUOUS
 62
     3
100
AcDbLine
 10
261.622242
 20
64.514971
 30
0.0
 11
268.419701
 21
76.288515
 31
0.0
  0
LINE
  5
394
330
1F
100
AcDbEntity
  8
LAYERGROUP-1
  6
CONTINUOUS
 62
     3
100
AcDbLine
 10
272.919701
 20
144.788515
 30
0.0
 11
270.419701
 21
144.788515
 31
0.0
  0
LINE
  5
395
330
1F
100
AcDbEntity
  8
LAYERGROUP-1
  6
CONTINUOUS
 62
     3
100
AcDbLine
 10
273.419701
 20
145.288515
 30
0.0
 11
273.419701
 21
173.288515
 31
0.0
  0
LINE
  5
396
330
1F
100
AcDbEntity
  8
LAYERGROUP-1
  6
CONTINUOUS
 62
     3
100
AcDbLine
 10
272.919701
 20
144.788515
 30
0.0
 11
273.419701
 21
145.288515
 31
0.0
  0
LINE
  5
397
330
1F
100
AcDbEntity
  8
LAYERGROUP-1
  6
CONTINUOUS
 62
     3
100
AcDbLine
 10
268.419701
 20
126.115475
 30
0.0
 11
269.487928
 21
127.009069
 31
0.0
  0
ARC
  5
398
330
1F
100
AcDbEntity
  8
LAYERGROUP-1
  6
CONTINUOUS
 62
     3
100
AcDbCircle
 10
267.819701
 20
129.003315
 30
0.0
 40
2.6
100
AcDbArc
 50
309.913157
 51
360.0
  0
LINE
  5
399
330
1F
100
AcDbEntity
  8
LAYERGROUP-1
  6
CONTINUOUS
 62
     3
100
AcDbLine
 10
270.419701
 20
129.003315
 30
0.0
 11
270.419701
 21
189.573716
 31
0.0
  0
LINE
  5
39A
330
1F
100
AcDbEntity
  8
LAYERGROUP-1
  6
CONTINUOUS
 62
     3
100
AcDbLine
 10
268.419701
 20
76.288515
 30
0.0
 11
268.419701
 21
242.288515
 31
0.0
  0
LINE
  5
39B
330
1F
100
AcDbEntity
  8
GR1-1
  6
CONTINUOUS
 62
     6
100
AcDbLine
 10
258.419701
 20
61.435463
 30
0.0
 11
258.419701
 21
257.141568
 31
0.0
  0
ARC
  5
39C
330
1F
100
AcDbEntity
  8
1-1
  6
CONTINUOUS
 62
     3
100
AcDbCircle
 10
237.145363
 20
250.062059
 30
0.0
 40
8.0
100
AcDbArc
 50
105.91423
 51
150.0
  0
LINE
  5
39D
330
1F
100
AcDbEntity
  8
1-1
  6
CONTINUOUS
 62
     3
100
AcDbLine
 10
230.21716
 20
254.062059
 30
0.0
 11
223.419701
 21
242.288515
 31
0.0
  0
ARC
  5
39E
330
1F
100
AcDbEntity
  8
1-1
  6
CONTINUOUS
 62
     3
100
AcDbCircle
 10
245.919701
 20
219.288515
 30
0.0
 40
40.0
100
AcDbArc
 50
74.08577
 51
105.91423
  0
LINE
  5
39F
330
1F
100
AcDbEntity
  8
LAYERGROUP-1
  6
CONTINUOUS
 62
     3
100
AcDbLine
 10
218.919701
 20
173.788515
 30
0.0
 11
221.419701
 21
173.788515
 31
0.0
  0
LINE
  5
3A0
330
1F
100
AcDbEntity
  8
LAYERGROUP-1
  6
CONTINUOUS
 62
     3
100
AcDbLine
 10
218.919701
 20
173.788515
 30
0.0
 11
218.419701
 21
173.288515
 31
0.0
  0
LINE
  5
3A1
330
1F
100
AcDbEntity
  8
LAYERGROUP-1
  6
CONTINUOUS
 62
     3
100
AcDbLine
 10
223.419701
 20
192.461555
 30
0.0
 11
222.351474
 21
191.567962
 31
0.0
  0
ARC
  5
3A2
330
1F
100
AcDbEntity
  8
LAYERGROUP-1
  6
CONTINUOUS
 62
     3
100
AcDbCircle
 10
224.019701
 20
189.573716
 30
0.0
 40
2.6
100
AcDbArc
 50
129.913157
 51
180.0
  0
ARC
  5
3A3
330
1F
100
AcDbEntity
  8
1-1
  6
CONTINUOUS
 62
     3
100
AcDbCircle
 10
254.694039
 20
250.062059
 30
0.0
 40
8.0
100
AcDbArc
 50
30.0
 51
74.08577
  0
LINE
  5
3A4
330
1F
100
AcDbEntity
  8
1-1
  6
CONTINUOUS
 62
     3
100
AcDbLine
 10
261.622242
 20
254.062059
 30
0.0
 11
268.419701
 21
242.288515
 31
0.0
  0
LINE
  5
3A5
330
1F
100
AcDbEntity
  8
LAYERGROUP-1
  6
CONTINUOUS
 62
     3
100
AcDbLine
 10
272.919701
 20
173.788515
 30
0.0
 11
270.419701
 21
173.788515
 31
0.0
  0
LINE
  5
3A6
330
1F
100
AcDbEntity
  8
LAYERGROUP-1
  6
CONTINUOUS
 62
     3
100
AcDbLine
 10
272.919701
 20
173.788515
 30
0.0
 11
273.419701
 21
173.288515
 31
0.0
  0
LINE
  5
3A7
330
1F
100
AcDbEntity
  8
LAYERGROUP-1
  6
CONTINUOUS
 62
     3
100
AcDbLine
 10
268.419701
 20
192.461555
 30
0.0
 11
269.487928
 21
191.567962
 31
0.0
  0
ARC
  5
3A8
330
1F
100
AcDbEntity
  8
LAYERGROUP-1
  6
CONTINUOUS
 62
     3
100
AcDbCircle
 10
267.819701
 20
189.573716
 30
0.0
 40
2.6
100
AcDbArc
 50
0.0
 51
50.086843
  0
LINE
  5
3A9
330
1F
100
AcDbEntity
  8
GR1-1
  6
CONTINUOUS
 62
     3
100
AcDbLine
 10
218.419701
 20
169.288515
 30
0.0
 11
217.419701
 21
169.288515
 31
0.0
  0
LINE
  5
3AA
330
1F
100
AcDbEntity
  8
GR1-1
  6
CONTINUOUS
 62
     3
100
AcDbLine
 10
273.419701
 20
169.288515
 30
0.0
 11
274.419701
 21
169.288515
 31
0.0
  0
LINE
  5
3AB
330
1F
100
AcDbEntity
  8
GR1-1
  6
CONTINUOUS
 62
     3
100
AcDbLine
 10
218.419701
 20
149.288515
 30
0.0
 11
217.419701
 21
149.288515
 31
0.0
  0
LINE
  5
3AC
330
1F
100
AcDbEntity
  8
GR1-1
  6
CONTINUOUS
 62
     3
100
AcDbLine
 10
273.419701
 20
149.288515
 30
0.0
 11
274.419701
 21
149.288515
 31
0.0
  0
LINE
  5
3AD
330
1F
100
AcDbEntity
  8
}}ﾊﾊGG血CCТ
  6
CONTINUOUS
 62
     7
100
AcDbLine
 10
20.0
 20
20.0
 30
0.0
 11
821.0
 21
20.0
 31
0.0
  0
LINE
  5
3AE
330
1F
100
AcDbEntity
  8
}}ﾊﾊGG血CCТ
  6
CONTINUOUS
 62
     7
100
AcDbLine
 10
20.0
 20
20.0
 30
0.0
 11
20.0
 21
574.0
 31
0.0
  0
LINE
  5
3AF
330
1F
100
AcDbEntity
  8
}}ﾊﾊGG血CCТ
  6
CONTINUOUS
 62
     7
100
AcDbLine
 10
20.0
 20
574.0
 30
0.0
 11
821.0
 21
574.0
 31
0.0
  0
LINE
  5
3B0
330
1F
100
AcDbEntity
  8
}}ﾊﾊGG血CCТ
  6
CONTINUOUS
 62
     7
100
AcDbLine
 10
821.0
 20
574.0
 30
0.0
 11
821.0
 21
20.0
 31
0.0
  0
LINE
  5
3B1
330
1F
100
AcDbEntity
  8
}}ﾊﾊGG血CCТ
  6
CONTINUOUS
 62
     7
100
AcDbLine
 10
564.0
 20
20.0
 30
0.0
 11
564.0
 21
30.0
 31
0.0
  0
TEXT
  5
3B2
330
1F
100
AcDbEntity
  8
}}ﾊﾊGG血CCТ
  6
CONTINUOUS
 62
     7
100
AcDbText
 10
548.738831
 20
21.596878
 30
0.0
 40
6.648749
  1
品名
 41
1.083413
  7
FX_VECTOR
 72
     5
 11
560.058371
 21
21.596878
 31
0.0
100
AcDbText
  0
LINE
  5
3B3
330
1F
100
AcDbEntity
  8
}}ﾊﾊGG血CCТ
  6
CONTINUOUS
 62
     7
100
AcDbLine
 10
644.0
 20
30.0
 30
0.0
 11
644.0
 21
20.0
 31
0.0
  0
LINE
  5
3B4
330
1F
100
AcDbEntity
  8
}}ﾊﾊGG血CCТ
  6
CONTINUOUS
 62
     7
100
AcDbLine
 10
544.0
 20
30.0
 30
0.0
 11
821.0
 21
30.0
 31
0.0
  0
TEXT
  5
3B5
330
1F
100
AcDbEntity
  8
}}ﾊﾊGG血CCТ
  6
CONTINUOUS
 62
     7
100
AcDbText
 10
760.225769
 20
21.461285
 30
0.0
 40
7.170908
  1
GOLD CASTER
 41
0.63978
  7
FX_VECTOR
 72
     5
 11
806.977636
 21
21.461285
 31
0.0
100
AcDbText
  0
LINE
  5
3B6
330
1F
100
AcDbEntity
  8
}}ﾊﾊGG血CCТ
  6
CONTINUOUS
 62
     7
100
AcDbLine
 10
664.0
 20
20.0
 30
0.0
 11
664.0
 21
30.0
 31
0.0
  0
TEXT
  5
3B7
330
1F
100
AcDbEntity
  8
}}ﾊﾊGG血CCТ
  6
CONTINUOUS
 62
     7
100
AcDbText
 10
648.738831
 20
21.596878
 30
0.0
 40
6.648749
  1
図番
 41
1.083413
  7
FX_VECTOR
 72
     5
 11
660.058371
 21
21.596878
 31
0.0
100
AcDbText
  0
LINE
  5
3B8
330
1F
100
AcDbEntity
  8
}}ﾊﾊGG血CCТ
  6
CONTINUOUS
 62
     7
100
AcDbLine
 10
744.0
 20
30.0
 30
0.0
 11
744.0
 21
20.0
 31
0.0
  0
LINE
  5
3B9
330
1F
100
AcDbEntity
  8
}}ﾊﾊGG血CCТ
  6
CONTINUOUS
 62
     7
100
AcDbLine
 10
544.0
 20
30.0
 30
0.0
 11
544.0
 21
20.0
 31
0.0
  0
LINE
  5
3BA
330
1F
100
AcDbEntity
  8
GR1-1
  6
CONTINUOUS
 62
     7
100
AcDbLine
 10
471.475492
 20
114.183719
 30
0.0
 11
471.084233
 21
114.266884
 31
0.0
  0
LINE
  5
3BB
330
1F
100
AcDbEntity
  8
GR1-1
  6
CONTINUOUS
 62
     7
100
AcDbLine
 10
471.629539
 20
113.946507
 30
0.0
 11
470.847021
 21
114.112837
 31
0.0
  0
LINE
  5
3BC
330
1F
100
AcDbEntity
  8
GR1-1
  6
CONTINUOUS
 62
     7
100
AcDbLine
 10
471.783586
 20
113.709295
 30
0.0
 11
470.609809
 21
113.95879
 31
0.0
  0
LINE
  5
3BD
330
1F
100
AcDbEntity
  8
GR1-1
  6
CONTINUOUS
 62
     7
100
AcDbLine
 10
471.937633
 20
113.472084
 30
0.0
 11
470.372597
 21
113.804742
 31
0.0
  0
LINE
  5
3BE
330
1F
100
AcDbEntity
  8
GR1-1
  6
CONTINUOUS
 62
     7
100
AcDbLine
 10
472.091681
 20
113.234872
 30
0.0
 11
470.742014
 21
113.521752
 31
0.0
  0
LINE
  5
3BF
330
1F
100
AcDbEntity
  8
GR1-1
  6
CONTINUOUS
 62
     7
100
AcDbLine
 10
470.372724
 20
113.600247
 30
0.0
 11
470.135385
 21
113.650695
 31
0.0
  0
LINE
  5
3C0
330
1F
100
AcDbEntity
  8
GR1-1
  6
CONTINUOUS
 62
     7
100
AcDbLine
 10
472.245728
 20
112.99766
 30
0.0
 11
470.896061
 21
113.28454
 31
0.0
  0
LINE
  5
3C1
330
1F
100
AcDbEntity
  8
GR1-1
  6
CONTINUOUS
 62
     7
100
AcDbLine
 10
470.135512
 20
113.4462
 30
0.0
 11
469.898174
 21
113.496648
 31
0.0
  0
LINE
  5
3C2
330
1F
100
AcDbEntity
  8
GR1-1
  6
CONTINUOUS
 62
     7
100
AcDbLine
 10
472.399775
 20
112.760448
 30
0.0
 11
471.050108
 21
113.047329
 31
0.0
  0
LINE
  5
3C3
330
1F
100
AcDbEntity
  8
GR1-1
  6
CONTINUOUS
 62
     7
100
AcDbLine
 10
469.8983
 20
113.292153
 30
0.0
 11
469.660962
 21
113.342601
 31
0.0
  0
LINE
  5
3C4
330
1F
100
AcDbEntity
  8
GR1-1
  6
CONTINUOUS
 62
     7
100
AcDbLine
 10
472.553822
 20
112.523236
 30
0.0
 11
471.044398
 21
112.844074
 31
0.0
  0
LINE
  5
3C5
330
1F
100
AcDbEntity
  8
GR1-1
  6
CONTINUOUS
 62
     7
100
AcDbLine
 10
469.661088
 20
113.138106
 30
0.0
 11
469.42375
 21
113.188554
 31
0.0
  0
LINE
  5
3C6
330
1F
100
AcDbEntity
  8
GR1-1
  6
CONTINUOUS
 62
     7
100
AcDbLine
 10
472.707869
 20
112.286024
 30
0.0
 11
470.807186
 21
112.690027
 31
0.0
  0
LINE
  5
3C7
330
1F
100
AcDbEntity
  8
GR1-1
  6
CONTINUOUS
 62
     7
100
AcDbLine
 10
469.423876
 20
112.984059
 30
0.0
 11
469.186538
 21
113.034506
 31
0.0
  0
LINE
  5
3C8
330
1F
100
AcDbEntity
  8
GR1-1
  6
CONTINUOUS
 62
     7
100
AcDbLine
 10
472.861917
 20
112.048812
 30
0.0
 11
470.569974
 21
112.53598
 31
0.0
  0
LINE
  5
3C9
330
1F
100
AcDbEntity
  8
GR1-1
  6
CONTINUOUS
 62
     7
100
AcDbLine
 10
469.186665
 20
112.830011
 30
0.0
 11
468.949326
 21
112.880459
 31
0.0
  0
LINE
  5
3CA
330
1F
100
AcDbEntity
  8
GR1-1
  6
CONTINUOUS
 62
     7
100
AcDbLine
 10
473.015964
 20
111.811601
 30
0.0
 11
470.447075
 21
112.357635
 31
0.0
  0
LINE
  5
3CB
330
1F
100
AcDbEntity
  8
GR1-1
  6
CONTINUOUS
 62
     7
100
AcDbLine
 10
468.949453
 20
112.675964
 30
0.0
 11
468.712114
 21
112.726412
 31
0.0
  0
LINE
  5
3CC
330
1F
100
AcDbEntity
  8
GR1-1
  6
CONTINUOUS
 62
     7
100
AcDbLine
 10
473.170011
 20
111.574389
 30
0.0
 11
472.778752
 21
111.657553
 31
0.0
  0
LINE
  5
3CD
330
1F
100
AcDbEntity
  8
GR1-1
  6
CONTINUOUS
 62
     7
100
AcDbLine
 10
469.020082
 20
112.456483
 30
0.0
 11
468.474902
 21
112.572365
 31
0.0
  0
LINE
  5
3CE
330
1F
100
AcDbEntity
  8
GR1-1
  6
CONTINUOUS
 62
     7
100
AcDbLine
 10
473.324058
 20
111.337177
 30
0.0
 11
472.737169
 21
111.461924
 31
0.0
  0
LINE
  5
3CF
330
1F
100
AcDbEntity
  8
GR1-1
  6
CONTINUOUS
 62
     7
100
AcDbLine
 10
469.174129
 20
112.219272
 30
0.0
 11
468.237691
 21
112.418318
 31
0.0
  0
LINE
  5
3D0
330
1F
100
AcDbEntity
  8
GR1-1
  6
CONTINUOUS
 62
     7
100
AcDbLine
 10
473.478105
 20
111.099965
 30
0.0
 11
472.695587
 21
111.266294
 31
0.0
  0
LINE
  5
3D1
330
1F
100
AcDbEntity
  8
GR1-1
  6
CONTINUOUS
 62
     7
100
AcDbLine
 10
469.328176
 20
111.98206
 30
0.0
 11
468.913184
 21
112.070269
 31
0.0
  0
LINE
  5
3D2
330
1F
100
AcDbEntity
  8
GR1-1
  6
CONTINUOUS
 62
     7
100
AcDbLine
 10
468.782997
 20
112.097941
 30
0.0
 11
468.000479
 21
112.264271
 31
0.0
  0
LINE
  5
3D3
330
1F
100
AcDbEntity
  8
GR1-1
  6
CONTINUOUS
 62
     7
100
AcDbLine
 10
473.632152
 20
110.862753
 30
0.0
 11
472.654005
 21
111.070665
 31
0.0
  0
LINE
  5
3D4
330
1F
100
AcDbEntity
  8
GR1-1
  6
CONTINUOUS
 62
     7
100
AcDbLine
 10
469.482224
 20
111.744848
 30
0.0
 11
469.067231
 21
111.833057
 31
0.0
  0
LINE
  5
3D5
330
1F
100
AcDbEntity
  8
GR1-1
  6
CONTINUOUS
 62
     7
100
AcDbLine
 10
468.741414
 20
111.902312
 30
0.0
 11
467.763267
 21
112.110223
 31
0.0
  0
LINE
  5
3D6
330
1F
100
AcDbEntity
  8
GR1-1
  6
CONTINUOUS
 62
     7
100
AcDbLine
 10
473.7862
 20
110.625541
 30
0.0
 11
472.612422
 21
110.875035
 31
0.0
  0
LINE
  5
3D7
330
1F
100
AcDbEntity
  8
GR1-1
  6
CONTINUOUS
 62
     7
100
AcDbLine
 10
469.636271
 20
111.507636
 30
0.0
 11
469.221278
 21
111.595845
 31
0.0
  0
LINE
  5
3D8
330
1F
100
AcDbEntity
  8
GR1-1
  6
CONTINUOUS
 62
     7
100
AcDbLine
 10
468.699832
 20
111.706682
 30
0.0
 11
467.526055
 21
111.956176
 31
0.0
  0
LINE
  5
3D9
330
1F
100
AcDbEntity
  8
GR1-1
  6
CONTINUOUS
 62
     7
100
AcDbLine
 10
473.940247
 20
110.388329
 30
0.0
 11
472.57084
 21
110.679406
 31
0.0
  0
LINE
  5
3DA
330
1F
100
AcDbEntity
  8
GR1-1
  6
CONTINUOUS
 62
     7
100
AcDbLine
 10
471.592693
 20
110.887318
 30
0.0
 11
470.484074
 21
111.122962
 31
0.0
  0
LINE
  5
3DB
330
1F
100
AcDbEntity
  8
GR1-1
  6
CONTINUOUS
 62
     7
100
AcDbLine
 10
469.790318
 20
111.270424
 30
0.0
 11
469.375325
 21
111.358634
 31
0.0
  0
LINE
  5
3DC
330
1F
100
AcDbEntity
  8
GR1-1
  6
CONTINUOUS
 62
     7
100
AcDbLine
 10
468.65825
 20
111.511053
 30
0.0
 11
467.288843
 21
111.802129
 31
0.0
  0
LINE
  5
3DD
330
1F
100
AcDbEntity
  8
GR1-1
  6
CONTINUOUS
 62
     7
100
AcDbLine
 10
474.094294
 20
110.151118
 30
0.0
 11
472.529258
 21
110.483776
 31
0.0
  0
LINE
  5
3DE
330
1F
100
AcDbEntity
  8
GR1-1
  6
CONTINUOUS
 62
     7
100
AcDbLine
 10
471.55111
 20
110.691688
 30
0.0
 11
470.63602
 21
110.886196
 31
0.0
  0
LINE
  5
3DF
330
1F
100
AcDbEntity
  8
GR1-1
  6
CONTINUOUS
 62
     7
100
AcDbLine
 10
469.944365
 20
111.033212
 30
0.0
 11
469.529372
 21
111.121422
 31
0.0
  0
LINE
  5
3E0
330
1F
100
AcDbEntity
  8
GR1-1
  6
CONTINUOUS
 62
     7
100
AcDbLine
 10
468.616667
 20
111.315423
 30
0.0
 11
467.051631
 21
111.648082
 31
0.0
  0
LINE
  5
3E1
330
1F
100
AcDbEntity
  8
GR1-1
  6
CONTINUOUS
 62
     7
100
AcDbLine
 10
474.248341
 20
109.913906
 30
0.0
 11
472.487675
 21
110.288147
 31
0.0
  0
LINE
  5
3E2
330
1F
100
AcDbEntity
  8
GR1-1
  6
CONTINUOUS
 62
     7
100
AcDbLine
 10
471.509528
 20
110.496058
 30
0.0
 11
470.790067
 21
110.648985
 31
0.0
  0
LINE
  5
3E3
330
1F
100
AcDbEntity
  8
GR1-1
  6
CONTINUOUS
 62
     7
100
AcDbLine
 10
470.098412
 20
110.796
 30
0.0
 11
469.553233
 21
110.911882
 31
0.0
  0
LINE
  5
3E4
330
1F
100
AcDbEntity
  8
GR1-1
  6
CONTINUOUS
 62
     7
100
AcDbLine
 10
468.575085
 20
111.119794
 30
0.0
 11
466.814419
 21
111.494035
 31
0.0
  0
LINE
  5
3E5
330
1F
100
AcDbEntity
  8
GR1-1
  6
CONTINUOUS
 62
     7
100
AcDbLine
 10
474.402388
 20
109.676694
 30
0.0
 11
472.446093
 21
110.092517
 31
0.0
  0
LINE
  5
3E6
330
1F
100
AcDbEntity
  8
GR1-1
  6
CONTINUOUS
 62
     7
100
AcDbLine
 10
471.467946
 20
110.300429
 30
0.0
 11
470.727136
 21
110.457893
 31
0.0
  0
LINE
  5
3E7
330
1F
100
AcDbEntity
  8
GR1-1
  6
CONTINUOUS
 62
     7
100
AcDbLine
 10
470.25246
 20
110.558789
 30
0.0
 11
469.51165
 21
110.716252
 31
0.0
  0
LINE
  5
3E8
330
1F
100
AcDbEntity
  8
GR1-1
  6
CONTINUOUS
 62
     7
100
AcDbLine
 10
468.533503
 20
110.924164
 30
0.0
 11
466.577208
 21
111.339987
 31
0.0
  0
LINE
  5
3E9
330
1F
100
AcDbEntity
  8
GR1-1
  6
CONTINUOUS
 62
     7
100
AcDbLine
 10
474.556436
 20
109.439482
 30
0.0
 11
472.404511
 21
109.896888
 31
0.0
  0
LINE
  5
3EA
330
1F
100
AcDbEntity
  8
GR1-1
  6
CONTINUOUS
 62
     7
100
AcDbLine
 10
471.426363
 20
110.104799
 30
0.0
 11
470.489924
 21
110.303846
 31
0.0
  0
LINE
  5
3EB
330
1F
100
AcDbEntity
  8
GR1-1
  6
CONTINUOUS
 62
     7
100
AcDbLine
 10
470.406507
 20
110.321577
 30
0.0
 11
469.470068
 21
110.520623
 31
0.0
  0
LINE
  5
3EC
330
1F
100
AcDbEntity
  8
GR1-1
  6
CONTINUOUS
 62
     7
100
AcDbLine
 10
468.49192
 20
110.728535
 30
0.0
 11
466.339996
 21
111.18594
 31
0.0
  0
LINE
  5
3ED
330
1F
100
AcDbEntity
  8
GR1-1
  6
CONTINUOUS
 62
     7
100
AcDbLine
 10
474.402641
 20
109.267704
 30
0.0
 11
472.362928
 21
109.701258
 31
0.0
  0
LINE
  5
3EE
330
1F
100
AcDbEntity
  8
GR1-1
  6
CONTINUOUS
 62
     7
100
AcDbLine
 10
471.384781
 20
109.90917
 30
0.0
 11
469.428486
 21
110.324993
 31
0.0
  0
LINE
  5
3EF
330
1F
100
AcDbEntity
  8
GR1-1
  6
CONTINUOUS
 62
     7
100
AcDbLine
 10
468.450338
 20
110.532905
 30
0.0
 11
466.410625
 21
110.966459
 31
0.0
  0
LINE
  5
3F0
330
1F
100
AcDbEntity
  8
GR1-1
  6
CONTINUOUS
 62
     7
100
AcDbLine
 10
474.16543
 20
109.113657
 30
0.0
 11
472.321346
 21
109.505629
 31
0.0
  0
LINE
  5
3F1
330
1F
100
AcDbEntity
  8
GR1-1
  6
CONTINUOUS
 62
     7
100
AcDbLine
 10
471.343199
 20
109.71354
 30
0.0
 11
469.386903
 21
110.129364
 31
0.0
  0
LINE
  5
3F2
330
1F
100
AcDbEntity
  8
GR1-1
  6
CONTINUOUS
 62
     7
100
AcDbLine
 10
468.408756
 20
110.337275
 30
0.0
 11
466.564672
 21
110.729248
 31
0.0
  0
LINE
  5
3F3
330
1F
100
AcDbEntity
  8
GR1-1
  6
CONTINUOUS
 62
     7
100
AcDbLine
 10
473.928218
 20
108.95961
 30
0.0
 11
472.279764
 21
109.309999
 31
0.0
  0
LINE
  5
3F4
330
1F
100
AcDbEntity
  8
GR1-1
  6
CONTINUOUS
 62
     7
100
AcDbLine
 10
471.301616
 20
109.517911
 30
0.0
 11
469.345321
 21
109.933734
 31
0.0
  0
LINE
  5
3F5
330
1F
100
AcDbEntity
  8
GR1-1
  6
CONTINUOUS
 62
     7
100
AcDbLine
 10
468.367173
 20
110.141646
 30
0.0
 11
466.718719
 21
110.492036
 31
0.0
  0
LINE
  5
3F6
330
1F
100
AcDbEntity
  8
GR1-1
  6
CONTINUOUS
 62
     7
100
AcDbLine
 10
473.691006
 20
108.805562
 30
0.0
 11
472.238181
 21
109.11437
 31
0.0
  0
LINE
  5
3F7
330
1F
100
AcDbEntity
  8
GR1-1
  6
CONTINUOUS
 62
     7
100
AcDbLine
 10
471.260034
 20
109.322281
 30
0.0
 11
469.303739
 21
109.738105
 31
0.0
  0
LINE
  5
3F8
330
1F
100
AcDbEntity
  8
GR1-1
  6
CONTINUOUS
 62
     7
100
AcDbLine
 10
468.325591
 20
109.946016
 30
0.0
 11
466.872767
 21
110.254824
 31
0.0
  0
LINE
  5
3F9
330
1F
100
AcDbEntity
  8
GR1-1
  6
CONTINUOUS
 62
     7
100
AcDbLine
 10
473.453794
 20
108.651515
 30
0.0
 11
472.196599
 21
108.91874
 31
0.0
  0
LINE
  5
3FA
330
1F
100
AcDbEntity
  8
GR1-1
  6
CONTINUOUS
 62
     7
100
AcDbLine
 10
471.218451
 20
109.126652
 30
0.0
 11
469.262156
 21
109.542475
 31
0.0
  0
LINE
  5
3FB
330
1F
100
AcDbEntity
  8
GR1-1
  6
CONTINUOUS
 62
     7
100
AcDbLine
 10
468.284009
 20
109.750387
 30
0.0
 11
467.026814
 21
110.017612
 31
0.0
  0
LINE
  5
3FC
330
1F
100
AcDbEntity
  8
GR1-1
  6
CONTINUOUS
 62
     7
100
AcDbLine
 10
473.216582
 20
108.497468
 30
0.0
 11
472.155017
 21
108.723111
 31
0.0
  0
LINE
  5
3FD
330
1F
100
AcDbEntity
  8
GR1-1
  6
CONTINUOUS
 62
     7
100
AcDbLine
 10
468.242426
 20
109.554757
 30
0.0
 11
467.180861
 21
109.7804
 31
0.0
  0
LINE
  5
3FE
330
1F
100
AcDbEntity
  8
GR1-1
  6
CONTINUOUS
 62
     7
100
AcDbLine
 10
472.97937
 20
108.343421
 30
0.0
 11
472.113434
 21
108.527481
 31
0.0
  0
LINE
  5
3FF
330
1F
100
AcDbEntity
  8
GR1-1
  6
CONTINUOUS
 62
     7
100
AcDbLine
 10
468.200844
 20
109.359128
 30
0.0
 11
467.334908
 21
109.543188
 31
0.0
  0
LINE
  5
400
330
1F
100
AcDbEntity
  8
GR1-1
  6
CONTINUOUS
 62
     7
100
AcDbLine
 10
472.742158
 20
108.189374
 30
0.0
 11
472.071852
 21
108.331852
 31
0.0
  0
LINE
  5
401
330
1F
100
AcDbEntity
  8
GR1-1
  6
CONTINUOUS
 62
     7
100
AcDbLine
 10
468.159262
 20
109.163498
 30
0.0
 11
467.488955
 21
109.305976
 31
0.0
  0
LINE
  5
402
330
1F
100
AcDbEntity
  8
GR1-1
  6
CONTINUOUS
 62
     7
100
AcDbLine
 10
472.504947
 20
108.035326
 30
0.0
 11
472.03027
 21
108.136222
 31
0.0
  0
LINE
  5
403
330
1F
100
AcDbEntity
  8
GR1-1
  6
CONTINUOUS
 62
     7
100
AcDbLine
 10
468.117679
 20
108.967869
 30
0.0
 11
467.643003
 21
109.068765
 31
0.0
  0
LINE
  5
404
330
1F
100
AcDbEntity
  8
GR1-1
  6
CONTINUOUS
 62
     7
100
AcDbLine
 10
472.267735
 20
107.881279
 30
0.0
 11
471.988687
 21
107.940593
 31
0.0
  0
LINE
  5
405
330
1F
100
AcDbEntity
  8
GR1-1
  6
CONTINUOUS
 62
     7
100
AcDbLine
 10
468.076097
 20
108.772239
 30
0.0
 11
467.79705
 21
108.831553
 31
0.0
  0
LINE
  5
406
330
1F
100
AcDbEntity
  8
GR1-1
  6
CONTINUOUS
 62
     7
100
AcDbLine
 10
472.030523
 20
107.727232
 30
0.0
 11
467.951097
 21
108.594341
 31
0.0
  0
LINE
  5
407
330
1F
100
AcDbEntity
  8
GR1-1
  6
CONTINUOUS
 62
     7
100
AcDbLine
 10
471.793311
 20
107.573185
 30
0.0
 11
468.105144
 21
108.357129
 31
0.0
  0
LINE
  5
408
330
1F
100
AcDbEntity
  8
GR1-1
  6
CONTINUOUS
 62
     7
100
AcDbLine
 10
471.556099
 20
107.419138
 30
0.0
 11
468.259191
 21
108.119917
 31
0.0
  0
LINE
  5
409
330
1F
100
AcDbEntity
  8
GR1-1
  6
CONTINUOUS
 62
     7
100
AcDbLine
 10
471.318887
 20
107.265091
 30
0.0
 11
468.413238
 21
107.882705
 31
0.0
  0
LINE
  5
40A
330
1F
100
AcDbEntity
  8
GR1-1
  6
CONTINUOUS
 62
     7
100
AcDbLine
 10
471.081675
 20
107.111043
 30
0.0
 11
468.567286
 21
107.645493
 31
0.0
  0
LINE
  5
40B
330
1F
100
AcDbEntity
  8
GR1-1
  6
CONTINUOUS
 62
     7
100
AcDbLine
 10
470.844464
 20
106.956996
 30
0.0
 11
468.721333
 21
107.408282
 31
0.0
  0
LINE
  5
40C
330
1F
100
AcDbEntity
  8
GR1-1
  6
CONTINUOUS
 62
     7
100
AcDbLine
 10
470.607252
 20
106.802949
 30
0.0
 11
468.87538
 21
107.17107
 31
0.0
  0
LINE
  5
40D
330
1F
100
AcDbEntity
  8
GR1-1
  6
CONTINUOUS
 62
     7
100
AcDbLine
 10
470.37004
 20
106.648902
 30
0.0
 11
469.029427
 21
106.933858
 31
0.0
  0
LINE
  5
40E
330
1F
100
AcDbEntity
  8
GR1-1
  6
CONTINUOUS
 62
     7
100
AcDbLine
 10
470.132828
 20
106.494855
 30
0.0
 11
469.183474
 21
106.696646
 31
0.0
  0
LINE
  5
40F
330
1F
100
AcDbEntity
  8
GR1-1
  6
CONTINUOUS
 62
     7
100
AcDbLine
 10
469.895616
 20
106.340807
 30
0.0
 11
469.337522
 21
106.459434
 31
0.0
  0
LINE
  5
410
330
1F
100
AcDbEntity
  8
GR1-1
  6
CONTINUOUS
 62
     7
100
AcDbLine
 10
469.658404
 20
106.18676
 30
0.0
 11
469.491569
 21
106.222222
 31
0.0
  0
LINE
  5
412
330
1F
100
AcDbEntity
  8
0-1
  6
CONTINUOUS
 62
     7
100
AcDbLine
 10
755.8019
 20
27.913462
 30
0.0
 11
749.8019
 21
27.913462
 31
0.0
  0
LINE
  5
413
330
1F
100
AcDbEntity
  8
0-1
  6
CONTINUOUS
 62
     7
100
AcDbLine
 10
749.8019
 20
27.913462
 30
0.0
 11
749.8019
 21
21.913462
 31
0.0
  0
LINE
  5
414
330
1F
100
AcDbEntity
  8
0-1
  6
CONTINUOUS
 62
     7
100
AcDbLine
 10
749.8019
 20
21.913462
 30
0.0
 11
755.8019
 21
21.913462
 31
0.0
  0
LINE
  5
415
330
1F
100
AcDbEntity
  8
0-1
  6
CONTINUOUS
 62
     7
100
AcDbLine
 10
755.8019
 20
21.913462
 30
0.0
 11
755.8019
 21
27.913462
 31
0.0
  0
LINE
  5
416
330
1F
100
AcDbEntity
  8
0-1
  6
CONTINUOUS
 62
     7
100
AcDbLine
 10
755.224977
 20
25.346154
 30
0.0
 11
752.8019
 21
27.769231
 31
0.0
  0
LINE
  5
417
330
1F
100
AcDbEntity
  8
0-1
  6
CONTINUOUS
 62
     7
100
AcDbLine
 10
752.8019
 20
27.769231
 30
0.0
 11
749.946131
 21
24.913462
 31
0.0
  0
LINE
  5
418
330
1F
100
AcDbEntity
  8
0-1
  6
CONTINUOUS
 62
     7
100
AcDbLine
 10
749.946131
 20
24.913462
 30
0.0
 11
752.8019
 21
22.057692
 31
0.0
  0
LINE
  5
419
330
1F
100
AcDbEntity
  8
0-1
  6
CONTINUOUS
 62
     7
100
AcDbLine
 10
752.8019
 20
22.057692
 30
0.0
 11
754.359592
 21
23.615385
 31
0.0
  0
LINE
  5
41A
330
1F
100
AcDbEntity
  8
0-1
  6
CONTINUOUS
 62
     7
100
AcDbLine
 10
754.359592
 20
23.615385
 30
0.0
 11
754.359592
 21
22.980769
 31
0.0
  0
LINE
  5
41B
330
1F
100
AcDbEntity
  8
0-1
  6
CONTINUOUS
 62
     7
100
AcDbLine
 10
754.359592
 20
22.980769
 30
0.0
 11
755.224977
 21
22.980769
 31
0.0
  0
LINE
  5
41C
330
1F
100
AcDbEntity
  8
0-1
  6
CONTINUOUS
 62
     7
100
AcDbLine
 10
755.224977
 20
22.980769
 30
0.0
 11
755.224977
 21
25.0
 31
0.0
  0
LINE
  5
41D
330
1F
100
AcDbEntity
  8
0-1
  6
CONTINUOUS
 62
     7
100
AcDbLine
 10
755.224977
 20
25.0
 30
0.0
 11
752.8019
 21
25.0
 31
0.0
  0
LINE
  5
41E
330
1F
100
AcDbEntity
  8
0-1
  6
CONTINUOUS
 62
     7
100
AcDbLine
 10
752.8019
 20
25.0
 30
0.0
 11
752.8019
 21
24.134615
 31
0.0
  0
LINE
  5
41F
330
1F
100
AcDbEntity
  8
0-1
  6
CONTINUOUS
 62
     7
100
AcDbLine
 10
752.8019
 20
24.134615
 30
0.0
 11
753.246131
 21
24.134615
 31
0.0
  0
LINE
  5
420
330
1F
100
AcDbEntity
  8
0-1
  6
CONTINUOUS
 62
     7
100
AcDbLine
 10
753.246131
 20
24.134615
 30
0.0
 11
752.8019
 21
23.690385
 31
0.0
  0
LINE
  5
421
330
1F
100
AcDbEntity
  8
0-1
  6
CONTINUOUS
 62
     7
100
AcDbLine
 10
752.8019
 20
23.690385
 30
0.0
 11
751.578823
 21
24.913462
 31
0.0
  0
LINE
  5
422
330
1F
100
AcDbEntity
  8
0-1
  6
CONTINUOUS
 62
     7
100
AcDbLine
 10
751.578823
 20
24.913462
 30
0.0
 11
752.8019
 21
26.136538
 31
0.0
  0
LINE
  5
423
330
1F
100
AcDbEntity
  8
0-1
  6
CONTINUOUS
 62
     7
100
AcDbLine
 10
752.8019
 20
26.136538
 30
0.0
 11
753.592284
 21
25.346154
 31
0.0
  0
LINE
  5
424
330
1F
100
AcDbEntity
  8
0-1
  6
CONTINUOUS
 62
     7
100
AcDbLine
 10
753.592284
 20
25.346154
 30
0.0
 11
755.224977
 21
25.346154
 31
0.0
  0
LINE
  5
425
330
1F
100
AcDbEntity
  8
GR1-1
  6
CONTINUOUS
 62
     7
100
AcDbLine
 10
750.72238
 20
21.913462
 30
0.0
 11
751.834255
 21
23.025337
 31
0.0
  0
LINE
  5
426
330
1F
100
AcDbEntity
  8
GR1-1
  6
CONTINUOUS
 62
     7
100
AcDbLine
 10
752.650601
 20
23.841683
 30
0.0
 11
752.943534
 21
24.134615
 31
0.0
  0
LINE
  5
427
330
1F
100
AcDbEntity
  8
GR1-1
  6
CONTINUOUS
 62
     7
100
AcDbLine
 10
753.808918
 20
25.0
 30
0.0
 11
754.155072
 21
25.346154
 31
0.0
  0
LINE
  5
428
330
1F
100
AcDbEntity
  8
GR1-1
  6
CONTINUOUS
 62
     7
100
AcDbLine
 10
754.690024
 20
25.881106
 30
0.0
 11
755.8019
 21
26.992981
 31
0.0
  0
LINE
  5
429
330
1F
100
AcDbEntity
  8
GR1-1
  6
CONTINUOUS
 62
     7
100
AcDbLine
 10
750.651669
 20
21.913462
 30
0.0
 11
751.7989
 21
23.060692
 31
0.0
  0
LINE
  5
42A
330
1F
100
AcDbEntity
  8
GR1-1
  6
CONTINUOUS
 62
     7
100
AcDbLine
 10
752.615246
 20
23.877038
 30
0.0
 11
752.872823
 21
24.134615
 31
0.0
  0
LINE
  5
42B
330
1F
100
AcDbEntity
  8
GR1-1
  6
CONTINUOUS
 62
     7
100
AcDbLine
 10
753.738208
 20
25.0
 30
0.0
 11
754.084362
 21
25.346154
 31
0.0
  0
LINE
  5
42C
330
1F
100
AcDbEntity
  8
GR1-1
  6
CONTINUOUS
 62
     7
100
AcDbLine
 10
754.654669
 20
25.916461
 30
0.0
 11
755.8019
 21
27.063692
 31
0.0
  0
LINE
  5
42D
330
1F
100
AcDbEntity
  8
GR1-1
  6
CONTINUOUS
 62
     7
100
AcDbLine
 10
750.580959
 20
21.913462
 30
0.0
 11
751.763545
 21
23.096047
 31
0.0
  0
LINE
  5
42E
330
1F
100
AcDbEntity
  8
GR1-1
  6
CONTINUOUS
 62
     7
100
AcDbLine
 10
752.579891
 20
23.912394
 30
0.0
 11
752.802112
 21
24.134615
 31
0.0
  0
LINE
  5
42F
330
1F
100
AcDbEntity
  8
GR1-1
  6
CONTINUOUS
 62
     7
100
AcDbLine
 10
753.667497
 20
25.0
 30
0.0
 11
754.013651
 21
25.346154
 31
0.0
  0
LINE
  5
430
330
1F
100
AcDbEntity
  8
GR1-1
  6
CONTINUOUS
 62
     7
100
AcDbLine
 10
754.619314
 20
25.951817
 30
0.0
 11
755.8019
 21
27.134403
 31
0.0
  0
LINE
  5
431
330
1F
100
AcDbEntity
  8
GR1-1
  6
CONTINUOUS
 62
     7
100
AcDbLine
 10
750.510248
 20
21.913462
 30
0.0
 11
751.728189
 21
23.131403
 31
0.0
  0
LINE
  5
432
330
1F
100
AcDbEntity
  8
GR1-1
  6
CONTINUOUS
 62
     7
100
AcDbLine
 10
752.544535
 20
23.947749
 30
0.0
 11
752.8019
 21
24.205113
 31
0.0
  0
LINE
  5
433
330
1F
100
AcDbEntity
  8
GR1-1
  6
CONTINUOUS
 62
     7
100
AcDbLine
 10
753.596786
 20
25.0
 30
0.0
 11
753.94294
 21
25.346154
 31
0.0
  0
LINE
  5
434
330
1F
100
AcDbEntity
  8
GR1-1
  6
CONTINUOUS
 62
     7
100
AcDbLine
 10
754.583958
 20
25.987172
 30
0.0
 11
755.8019
 21
27.205113
 31
0.0
  0
LINE
  5
435
330
1F
100
AcDbEntity
  8
GR1-1
  6
CONTINUOUS
 62
     7
100
AcDbLine
 10
750.439537
 20
21.913462
 30
0.0
 11
751.692834
 21
23.166758
 31
0.0
  0
LINE
  5
436
330
1F
100
AcDbEntity
  8
GR1-1
  6
CONTINUOUS
 62
     7
100
AcDbLine
 10
752.50918
 20
23.983104
 30
0.0
 11
752.8019
 21
24.275824
 31
0.0
  0
LINE
  5
437
330
1F
100
AcDbEntity
  8
GR1-1
  6
CONTINUOUS
 62
     7
100
AcDbLine
 10
753.526076
 20
25.0
 30
0.0
 11
753.87223
 21
25.346154
 31
0.0
  0
LINE
  5
438
330
1F
100
AcDbEntity
  8
GR1-1
  6
CONTINUOUS
 62
     7
100
AcDbLine
 10
754.548603
 20
26.022527
 30
0.0
 11
755.8019
 21
27.275824
 31
0.0
  0
LINE
  5
439
330
1F
100
AcDbEntity
  8
GR1-1
  6
CONTINUOUS
 62
     7
100
AcDbLine
 10
750.368827
 20
21.913462
 30
0.0
 11
751.657479
 21
23.202114
 31
0.0
  0
LINE
  5
43A
330
1F
100
AcDbEntity
  8
GR1-1
  6
CONTINUOUS
 62
     7
100
AcDbLine
 10
752.473825
 20
24.01846
 30
0.0
 11
752.8019
 21
24.346535
 31
0.0
  0
LINE
  5
43B
330
1F
100
AcDbEntity
  8
GR1-1
  6
CONTINUOUS
 62
     7
100
AcDbLine
 10
753.455365
 20
25.0
 30
0.0
 11
753.801519
 21
25.346154
 31
0.0
  0
LINE
  5
43C
330
1F
100
AcDbEntity
  8
GR1-1
  6
CONTINUOUS
 62
     7
100
AcDbLine
 10
754.513248
 20
26.057883
 30
0.0
 11
755.8019
 21
27.346535
 31
0.0
  0
LINE
  5
43D
330
1F
100
AcDbEntity
  8
GR1-1
  6
CONTINUOUS
 62
     7
100
AcDbLine
 10
750.298116
 20
21.913462
 30
0.0
 11
751.622123
 21
23.237469
 31
0.0
  0
LINE
  5
43E
330
1F
100
AcDbEntity
  8
GR1-1
  6
CONTINUOUS
 62
     7
100
AcDbLine
 10
752.438469
 20
24.053815
 30
0.0
 11
752.8019
 21
24.417245
 31
0.0
  0
LINE
  5
43F
330
1F
100
AcDbEntity
  8
GR1-1
  6
CONTINUOUS
 62
     7
100
AcDbLine
 10
753.384654
 20
25.0
 30
0.0
 11
753.730808
 21
25.346154
 31
0.0
  0
LINE
  5
440
330
1F
100
AcDbEntity
  8
GR1-1
  6
CONTINUOUS
 62
     7
100
AcDbLine
 10
754.477892
 20
26.093238
 30
0.0
 11
755.8019
 21
27.417245
 31
0.0
  0
LINE
  5
441
330
1F
100
AcDbEntity
  8
GR1-1
  6
CONTINUOUS
 62
     7
100
AcDbLine
 10
750.227405
 20
21.913462
 30
0.0
 11
751.586768
 21
23.272824
 31
0.0
  0
LINE
  5
442
330
1F
100
AcDbEntity
  8
GR1-1
  6
CONTINUOUS
 62
     7
100
AcDbLine
 10
752.403114
 20
24.08917
 30
0.0
 11
752.8019
 21
24.487956
 31
0.0
  0
LINE
  5
443
330
1F
100
AcDbEntity
  8
GR1-1
  6
CONTINUOUS
 62
     7
100
AcDbLine
 10
753.313944
 20
25.0
 30
0.0
 11
753.660097
 21
25.346154
 31
0.0
  0
LINE
  5
444
330
1F
100
AcDbEntity
  8
GR1-1
  6
CONTINUOUS
 62
     7
100
AcDbLine
 10
754.442537
 20
26.128593
 30
0.0
 11
755.8019
 21
27.487956
 31
0.0
  0
LINE
  5
445
330
1F
100
AcDbEntity
  8
GR1-1
  6
CONTINUOUS
 62
     7
100
AcDbLine
 10
750.156695
 20
21.913462
 30
0.0
 11
751.551413
 21
23.30818
 31
0.0
  0
LINE
  5
446
330
1F
100
AcDbEntity
  8
GR1-1
  6
CONTINUOUS
 62
     7
100
AcDbLine
 10
752.367759
 20
24.124526
 30
0.0
 11
752.8019
 21
24.558667
 31
0.0
  0
LINE
  5
447
330
1F
100
AcDbEntity
  8
GR1-1
  6
CONTINUOUS
 62
     7
100
AcDbLine
 10
753.243233
 20
25.0
 30
0.0
 11
753.590836
 21
25.347603
 31
0.0
  0
LINE
  5
448
330
1F
100
AcDbEntity
  8
GR1-1
  6
CONTINUOUS
 62
     7
100
AcDbLine
 10
754.407182
 20
26.163949
 30
0.0
 11
755.8019
 21
27.558667
 31
0.0
  0
LINE
  5
449
330
1F
100
AcDbEntity
  8
GR1-1
  6
CONTINUOUS
 62
     7
100
AcDbLine
 10
750.085984
 20
21.913462
 30
0.0
 11
751.516057
 21
23.343535
 31
0.0
  0
LINE
  5
44A
330
1F
100
AcDbEntity
  8
GR1-1
  6
CONTINUOUS
 62
     7
100
AcDbLine
 10
752.332403
 20
24.159881
 30
0.0
 11
752.8019
 21
24.629377
 31
0.0
  0
LINE
  5
44B
330
1F
100
AcDbEntity
  8
GR1-1
  6
CONTINUOUS
 62
     7
100
AcDbLine
 10
753.172522
 20
25.0
 30
0.0
 11
753.55548
 21
25.382958
 31
0.0
  0
LINE
  5
44C
330
1F
100
AcDbEntity
  8
GR1-1
  6
CONTINUOUS
 62
     7
100
AcDbLine
 10
754.371826
 20
26.199304
 30
0.0
 11
755.8019
 21
27.629377
 31
0.0
  0
LINE
  5
44D
330
1F
100
AcDbEntity
  8
GR1-1
  6
CONTINUOUS
 62
     7
100
AcDbLine
 10
750.015273
 20
21.913462
 30
0.0
 11
751.480702
 21
23.37889
 31
0.0
  0
LINE
  5
44E
330
1F
100
AcDbEntity
  8
GR1-1
  6
CONTINUOUS
 62
     7
100
AcDbLine
 10
752.297048
 20
24.195236
 30
0.0
 11
752.8019
 21
24.700088
 31
0.0
  0
LINE
  5
44F
330
1F
100
AcDbEntity
  8
GR1-1
  6
CONTINUOUS
 62
     7
100
AcDbLine
 10
753.101812
 20
25.0
 30
0.0
 11
753.520125
 21
25.418313
 31
0.0
  0
LINE
  5
450
330
1F
100
AcDbEntity
  8
GR1-1
  6
CONTINUOUS
 62
     7
100
AcDbLine
 10
754.336471
 20
26.234659
 30
0.0
 11
755.8019
 21
27.700088
 31
0.0
  0
LINE
  5
451
330
1F
100
AcDbEntity
  8
GR1-1
  6
CONTINUOUS
 62
     7
100
AcDbLine
 10
749.944563
 20
21.913462
 30
0.0
 11
751.445347
 21
23.414246
 31
0.0
  0
LINE
  5
452
330
1F
100
AcDbEntity
  8
GR1-1
  6
CONTINUOUS
 62
     7
100
AcDbLine
 10
752.261693
 20
24.230592
 30
0.0
 11
752.8019
 21
24.770799
 31
0.0
  0
LINE
  5
453
330
1F
100
AcDbEntity
  8
GR1-1
  6
CONTINUOUS
 62
     7
100
AcDbLine
 10
753.031101
 20
25.0
 30
0.0
 11
753.48477
 21
25.453669
 31
0.0
  0
LINE
  5
454
330
1F
100
AcDbEntity
  8
GR1-1
  6
CONTINUOUS
 62
     7
100
AcDbLine
 10
754.301116
 20
26.270015
 30
0.0
 11
755.8019
 21
27.770799
 31
0.0
  0
LINE
  5
455
330
1F
100
AcDbEntity
  8
GR1-1
  6
CONTINUOUS
 62
     7
100
AcDbLine
 10
749.873852
 20
21.913462
 30
0.0
 11
751.409991
 21
23.449601
 31
0.0
  0
LINE
  5
456
330
1F
100
AcDbEntity
  8
GR1-1
  6
CONTINUOUS
 62
     7
100
AcDbLine
 10
752.226337
 20
24.265947
 30
0.0
 11
752.8019
 21
24.841509
 31
0.0
  0
LINE
  5
457
330
1F
100
AcDbEntity
  8
GR1-1
  6
CONTINUOUS
 62
     7
100
AcDbLine
 10
752.96039
 20
25.0
 30
0.0
 11
753.449414
 21
25.489024
 31
0.0
  0
LINE
  5
458
330
1F
100
AcDbEntity
  8
GR1-1
  6
CONTINUOUS
 62
     7
100
AcDbLine
 10
754.26576
 20
26.30537
 30
0.0
 11
755.8019
 21
27.841509
 31
0.0
  0
LINE
  5
459
330
1F
100
AcDbEntity
  8
GR1-1
  6
CONTINUOUS
 62
     7
100
AcDbLine
 10
749.803141
 20
21.913462
 30
0.0
 11
751.374636
 21
23.484956
 31
0.0
  0
LINE
  5
45A
330
1F
100
AcDbEntity
  8
GR1-1
  6
CONTINUOUS
 62
     7
100
AcDbLine
 10
752.190982
 20
24.301302
 30
0.0
 11
752.8019
 21
24.91222
 31
0.0
  0
LINE
  5
45B
330
1F
100
AcDbEntity
  8
GR1-1
  6
CONTINUOUS
 62
     7
100
AcDbLine
 10
752.88968
 20
25.0
 30
0.0
 11
753.414059
 21
25.524379
 31
0.0
  0
LINE
  5
45C
330
1F
100
AcDbEntity
  8
GR1-1
  6
CONTINUOUS
 62
     7
100
AcDbLine
 10
754.230405
 20
26.340725
 30
0.0
 11
755.8019
 21
27.91222
 31
0.0
  0
LINE
  5
45D
330
1F
100
AcDbEntity
  8
GR1-1
  6
CONTINUOUS
 62
     7
100
AcDbLine
 10
749.8019
 20
21.982931
 30
0.0
 11
751.339281
 21
23.520312
 31
0.0
  0
LINE
  5
45E
330
1F
100
AcDbEntity
  8
GR1-1
  6
CONTINUOUS
 62
     7
100
AcDbLine
 10
752.155627
 20
24.336658
 30
0.0
 11
752.8019
 21
24.982931
 31
0.0
  0
LINE
  5
45F
330
1F
100
AcDbEntity
  8
GR1-1
  6
CONTINUOUS
 62
     7
100
AcDbLine
 10
752.818969
 20
25.0
 30
0.0
 11
753.378704
 21
25.559735
 31
0.0
  0
LINE
  5
460
330
1F
100
AcDbEntity
  8
GR1-1
  6
CONTINUOUS
 62
     7
100
AcDbLine
 10
754.19505
 20
26.376081
 30
0.0
 11
755.73243
 21
27.913462
 31
0.0
  0
LINE
  5
461
330
1F
100
AcDbEntity
  8
GR1-1
  6
CONTINUOUS
 62
     7
100
AcDbLine
 10
749.8019
 20
22.053642
 30
0.0
 11
751.303925
 21
23.555667
 31
0.0
  0
LINE
  5
462
330
1F
100
AcDbEntity
  8
GR1-1
  6
CONTINUOUS
 62
     7
100
AcDbLine
 10
752.120271
 20
24.372013
 30
0.0
 11
753.343348
 21
25.59509
 31
0.0
  0
LINE
  5
463
330
1F
100
AcDbEntity
  8
GR1-1
  6
CONTINUOUS
 62
     7
100
AcDbLine
 10
754.159694
 20
26.411436
 30
0.0
 11
755.66172
 21
27.913462
 31
0.0
  0
LINE
  5
464
330
1F
100
AcDbEntity
  8
GR1-1
  6
CONTINUOUS
 62
     7
100
AcDbLine
 10
749.8019
 20
22.124352
 30
0.0
 11
751.26857
 21
23.591022
 31
0.0
  0
LINE
  5
465
330
1F
100
AcDbEntity
  8
GR1-1
  6
CONTINUOUS
 62
     7
100
AcDbLine
 10
752.084916
 20
24.407368
 30
0.0
 11
753.307993
 21
25.630445
 31
0.0
  0
LINE
  5
466
330
1F
100
AcDbEntity
  8
GR1-1
  6
CONTINUOUS
 62
     7
100
AcDbLine
 10
754.124339
 20
26.446791
 30
0.0
 11
755.591009
 21
27.913462
 31
0.0
  0
LINE
  5
467
330
1F
100
AcDbEntity
  8
GR1-1
  6
CONTINUOUS
 62
     7
100
AcDbLine
 10
749.8019
 20
22.195063
 30
0.0
 11
751.233214
 21
23.626378
 31
0.0
  0
LINE
  5
468
330
1F
100
AcDbEntity
  8
GR1-1
  6
CONTINUOUS
 62
     7
100
AcDbLine
 10
752.049561
 20
24.442724
 30
0.0
 11
753.272638
 21
25.665801
 31
0.0
  0
LINE
  5
469
330
1F
100
AcDbEntity
  8
GR1-1
  6
CONTINUOUS
 62
     7
100
AcDbLine
 10
754.088984
 20
26.482147
 30
0.0
 11
755.520298
 21
27.913462
 31
0.0
  0
LINE
  5
46A
330
1F
100
AcDbEntity
  8
GR1-1
  6
CONTINUOUS
 62
     7
100
AcDbLine
 10
749.8019
 20
22.265774
 30
0.0
 11
751.197859
 21
23.661733
 31
0.0
  0
LINE
  5
46B
330
1F
100
AcDbEntity
  8
GR1-1
  6
CONTINUOUS
 62
     7
100
AcDbLine
 10
752.014205
 20
24.478079
 30
0.0
 11
753.237282
 21
25.701156
 31
0.0
  0
LINE
  5
46C
330
1F
100
AcDbEntity
  8
GR1-1
  6
CONTINUOUS
 62
     7
100
AcDbLine
 10
754.053628
 20
26.517502
 30
0.0
 11
755.449588
 21
27.913462
 31
0.0
  0
LINE
  5
46D
330
1F
100
AcDbEntity
  8
GR1-1
  6
CONTINUOUS
 62
     7
100
AcDbLine
 10
749.8019
 20
22.336484
 30
0.0
 11
751.162504
 21
23.697088
 31
0.0
  0
LINE
  5
46E
330
1F
100
AcDbEntity
  8
GR1-1
  6
CONTINUOUS
 62
     7
100
AcDbLine
 10
751.97885
 20
24.513434
 30
0.0
 11
753.201927
 21
25.736511
 31
0.0
  0
LINE
  5
46F
330
1F
100
AcDbEntity
  8
GR1-1
  6
CONTINUOUS
 62
     7
100
AcDbLine
 10
754.018273
 20
26.552857
 30
0.0
 11
755.378877
 21
27.913462
 31
0.0
  0
LINE
  5
470
330
1F
100
AcDbEntity
  8
GR1-1
  6
CONTINUOUS
 62
     7
100
AcDbLine
 10
749.8019
 20
22.407195
 30
0.0
 11
751.127148
 21
23.732444
 31
0.0
  0
LINE
  5
471
330
1F
100
AcDbEntity
  8
GR1-1
  6
CONTINUOUS
 62
     7
100
AcDbLine
 10
751.943495
 20
24.54879
 30
0.0
 11
753.166572
 21
25.771867
 31
0.0
  0
LINE
  5
472
330
1F
100
AcDbEntity
  8
GR1-1
  6
CONTINUOUS
 62
     7
100
AcDbLine
 10
753.982918
 20
26.588213
 30
0.0
 11
755.308166
 21
27.913462
 31
0.0
  0
LINE
  5
473
330
1F
100
AcDbEntity
  8
GR1-1
  6
CONTINUOUS
 62
     7
100
AcDbLine
 10
749.8019
 20
22.477906
 30
0.0
 11
751.091793
 21
23.767799
 31
0.0
  0
LINE
  5
474
330
1F
100
AcDbEntity
  8
GR1-1
  6
CONTINUOUS
 62
     7
100
AcDbLine
 10
751.908139
 20
24.584145
 30
0.0
 11
753.131216
 21
25.807222
 31
0.0
  0
LINE
  5
475
330
1F
100
AcDbEntity
  8
GR1-1
  6
CONTINUOUS
 62
     7
100
AcDbLine
 10
753.947562
 20
26.623568
 30
0.0
 11
755.237456
 21
27.913462
 31
0.0
  0
LINE
  5
476
330
1F
100
AcDbEntity
  8
GR1-1
  6
CONTINUOUS
 62
     7
100
AcDbLine
 10
749.8019
 20
22.548616
 30
0.0
 11
751.056438
 21
23.803154
 31
0.0
  0
LINE
  5
477
330
1F
100
AcDbEntity
  8
GR1-1
  6
CONTINUOUS
 62
     7
100
AcDbLine
 10
751.872784
 20
24.6195
 30
0.0
 11
753.095861
 21
25.842577
 31
0.0
  0
LINE
  5
478
330
1F
100
AcDbEntity
  8
GR1-1
  6
CONTINUOUS
 62
     7
100
AcDbLine
 10
753.912207
 20
26.658923
 30
0.0
 11
755.166745
 21
27.913462
 31
0.0
  0
LINE
  5
479
330
1F
100
AcDbEntity
  8
GR1-1
  6
CONTINUOUS
 62
     7
100
AcDbLine
 10
749.8019
 20
22.619327
 30
0.0
 11
751.021082
 21
23.83851
 31
0.0
  0
LINE
  5
47A
330
1F
100
AcDbEntity
  8
GR1-1
  6
CONTINUOUS
 62
     7
100
AcDbLine
 10
751.837429
 20
24.654856
 30
0.0
 11
753.060506
 21
25.877933
 31
0.0
  0
LINE
  5
47B
330
1F
100
AcDbEntity
  8
GR1-1
  6
CONTINUOUS
 62
     7
100
AcDbLine
 10
753.876852
 20
26.694279
 30
0.0
 11
755.096034
 21
27.913462
 31
0.0
  0
LINE
  5
47C
330
1F
100
AcDbEntity
  8
GR1-1
  6
CONTINUOUS
 62
     7
100
AcDbLine
 10
749.8019
 20
22.690038
 30
0.0
 11
750.985727
 21
23.873865
 31
0.0
  0
LINE
  5
47D
330
1F
100
AcDbEntity
  8
GR1-1
  6
CONTINUOUS
 62
     7
100
AcDbLine
 10
751.802073
 20
24.690211
 30
0.0
 11
753.02515
 21
25.913288
 31
0.0
  0
LINE
  5
47E
330
1F
100
AcDbEntity
  8
GR1-1
  6
CONTINUOUS
 62
     7
100
AcDbLine
 10
753.841496
 20
26.729634
 30
0.0
 11
755.025324
 21
27.913462
 31
0.0
  0
LINE
  5
47F
330
1F
100
AcDbEntity
  8
GR1-1
  6
CONTINUOUS
 62
     7
100
AcDbLine
 10
749.8019
 20
22.760748
 30
0.0
 11
750.950372
 21
23.90922
 31
0.0
  0
LINE
  5
480
330
1F
100
AcDbEntity
  8
GR1-1
  6
CONTINUOUS
 62
     7
100
AcDbLine
 10
751.766718
 20
24.725566
 30
0.0
 11
752.989795
 21
25.948643
 31
0.0
  0
LINE
  5
481
330
1F
100
AcDbEntity
  8
GR1-1
  6
CONTINUOUS
 62
     7
100
AcDbLine
 10
753.806141
 20
26.76499
 30
0.0
 11
754.954613
 21
27.913462
 31
0.0
  0
LINE
  5
482
330
1F
100
AcDbEntity
  8
GR1-1
  6
CONTINUOUS
 62
     7
100
AcDbLine
 10
749.8019
 20
22.831459
 30
0.0
 11
750.915016
 21
23.944576
 31
0.0
  0
LINE
  5
483
330
1F
100
AcDbEntity
  8
GR1-1
  6
CONTINUOUS
 62
     7
100
AcDbLine
 10
751.731363
 20
24.760922
 30
0.0
 11
752.95444
 21
25.983999
 31
0.0
  0
LINE
  5
484
330
1F
100
AcDbEntity
  8
GR1-1
  6
CONTINUOUS
 62
     7
100
AcDbLine
 10
753.770786
 20
26.800345
 30
0.0
 11
754.883902
 21
27.913462
 31
0.0
  0
LINE
  5
485
330
1F
100
AcDbEntity
  8
GR1-1
  6
CONTINUOUS
 62
     7
100
AcDbLine
 10
749.8019
 20
22.90217
 30
0.0
 11
750.879661
 21
23.979931
 31
0.0
  0
LINE
  5
486
330
1F
100
AcDbEntity
  8
GR1-1
  6
CONTINUOUS
 62
     7
100
AcDbLine
 10
751.696007
 20
24.796277
 30
0.0
 11
752.919084
 21
26.019354
 31
0.0
  0
LINE
  5
487
330
1F
100
AcDbEntity
  8
GR1-1
  6
CONTINUOUS
 62
     7
100
AcDbLine
 10
753.73543
 20
26.8357
 30
0.0
 11
754.813192
 21
27.913462
 31
0.0
  0
LINE
  5
488
330
1F
100
AcDbEntity
  8
GR1-1
  6
CONTINUOUS
 62
     7
100
AcDbLine
 10
749.8019
 20
22.97288
 30
0.0
 11
750.844306
 21
24.015286
 31
0.0
  0
LINE
  5
489
330
1F
100
AcDbEntity
  8
GR1-1
  6
CONTINUOUS
 62
     7
100
AcDbLine
 10
751.660652
 20
24.831632
 30
0.0
 11
752.883729
 21
26.054709
 31
0.0
  0
LINE
  5
48A
330
1F
100
AcDbEntity
  8
GR1-1
  6
CONTINUOUS
 62
     7
100
AcDbLine
 10
753.700075
 20
26.871056
 30
0.0
 11
754.742481
 21
27.913462
 31
0.0
  0
LINE
  5
48B
330
1F
100
AcDbEntity
  8
GR1-1
  6
CONTINUOUS
 62
     7
100
AcDbLine
 10
749.8019
 20
23.043591
 30
0.0
 11
750.80895
 21
24.050642
 31
0.0
  0
LINE
  5
48C
330
1F
100
AcDbEntity
  8
GR1-1
  6
CONTINUOUS
 62
     7
100
AcDbLine
 10
751.625297
 20
24.866988
 30
0.0
 11
752.848373
 21
26.090065
 31
0.0
  0
LINE
  5
48D
330
1F
100
AcDbEntity
  8
GR1-1
  6
CONTINUOUS
 62
     7
100
AcDbLine
 10
753.66472
 20
26.906411
 30
0.0
 11
754.67177
 21
27.913462
 31
0.0
  0
LINE
  5
48E
330
1F
100
AcDbEntity
  8
GR1-1
  6
CONTINUOUS
 62
     7
100
AcDbLine
 10
749.8019
 20
23.114302
 30
0.0
 11
750.773595
 21
24.085997
 31
0.0
  0
LINE
  5
48F
330
1F
100
AcDbEntity
  8
GR1-1
  6
CONTINUOUS
 62
     7
100
AcDbLine
 10
751.589941
 20
24.902343
 30
0.0
 11
752.813018
 21
26.12542
 31
0.0
  0
LINE
  5
490
330
1F
100
AcDbEntity
  8
GR1-1
  6
CONTINUOUS
 62
     7
100
AcDbLine
 10
753.629364
 20
26.941766
 30
0.0
 11
754.60106
 21
27.913462
 31
0.0
  0
LINE
  5
491
330
1F
100
AcDbEntity
  8
GR1-1
  6
CONTINUOUS
 62
     7
100
AcDbLine
 10
749.8019
 20
23.185012
 30
0.0
 11
750.73824
 21
24.121352
 31
0.0
  0
LINE
  5
492
330
1F
100
AcDbEntity
  8
GR1-1
  6
CONTINUOUS
 62
     7
100
AcDbLine
 10
753.594009
 20
26.977122
 30
0.0
 11
754.530349
 21
27.913462
 31
0.0
  0
LINE
  5
493
330
1F
100
AcDbEntity
  8
GR1-1
  6
CONTINUOUS
 62
     7
100
AcDbLine
 10
749.8019
 20
23.255723
 30
0.0
 11
750.702884
 21
24.156708
 31
0.0
  0
LINE
  5
494
330
1F
100
AcDbEntity
  8
GR1-1
  6
CONTINUOUS
 62
     7
100
AcDbLine
 10
753.558654
 20
27.012477
 30
0.0
 11
754.459638
 21
27.913462
 31
0.0
  0
LINE
  5
495
330
1F
100
AcDbEntity
  8
GR1-1
  6
CONTINUOUS
 62
     7
100
AcDbLine
 10
749.8019
 20
23.326434
 30
0.0
 11
750.667529
 21
24.192063
 31
0.0
  0
LINE
  5
496
330
1F
100
AcDbEntity
  8
GR1-1
  6
CONTINUOUS
 62
     7
100
AcDbLine
 10
753.523298
 20
27.047832
 30
0.0
 11
754.388928
 21
27.913462
 31
0.0
  0
LINE
  5
497
330
1F
100
AcDbEntity
  8
GR1-1
  6
CONTINUOUS
 62
     7
100
AcDbLine
 10
749.8019
 20
23.397144
 30
0.0
 11
750.632174
 21
24.227418
 31
0.0
  0
LINE
  5
498
330
1F
100
AcDbEntity
  8
GR1-1
  6
CONTINUOUS
 62
     7
100
AcDbLine
 10
753.487943
 20
27.083188
 30
0.0
 11
754.318217
 21
27.913462
 31
0.0
  0
LINE
  5
499
330
1F
100
AcDbEntity
  8
GR1-1
  6
CONTINUOUS
 62
     7
100
AcDbLine
 10
749.8019
 20
23.467855
 30
0.0
 11
750.596818
 21
24.262774
 31
0.0
  0
LINE
  5
49A
330
1F
100
AcDbEntity
  8
GR1-1
  6
CONTINUOUS
 62
     7
100
AcDbLine
 10
753.452588
 20
27.118543
 30
0.0
 11
754.247506
 21
27.913462
 31
0.0
  0
LINE
  5
49B
330
1F
100
AcDbEntity
  8
GR1-1
  6
CONTINUOUS
 62
     7
100
AcDbLine
 10
749.8019
 20
23.538566
 30
0.0
 11
750.561463
 21
24.298129
 31
0.0
  0
LINE
  5
49C
330
1F
100
AcDbEntity
  8
GR1-1
  6
CONTINUOUS
 62
     7
100
AcDbLine
 10
753.417232
 20
27.153898
 30
0.0
 11
754.176796
 21
27.913462
 31
0.0
  0
LINE
  5
49D
330
1F
100
AcDbEntity
  8
GR1-1
  6
CONTINUOUS
 62
     7
100
AcDbLine
 10
749.8019
 20
23.609276
 30
0.0
 11
750.526108
 21
24.333484
 31
0.0
  0
LINE
  5
49E
330
1F
100
AcDbEntity
  8
GR1-1
  6
CONTINUOUS
 62
     7
100
AcDbLine
 10
753.381877
 20
27.189254
 30
0.0
 11
754.106085
 21
27.913462
 31
0.0
  0
LINE
  5
49F
330
1F
100
AcDbEntity
  8
GR1-1
  6
CONTINUOUS
 62
     7
100
AcDbLine
 10
749.8019
 20
23.679987
 30
0.0
 11
750.490752
 21
24.36884
 31
0.0
  0
LINE
  5
4A0
330
1F
100
AcDbEntity
  8
GR1-1
  6
CONTINUOUS
 62
     7
100
AcDbLine
 10
753.346522
 20
27.224609
 30
0.0
 11
754.035374
 21
27.913462
 31
0.0
  0
LINE
  5
4A1
330
1F
100
AcDbEntity
  8
GR1-1
  6
CONTINUOUS
 62
     7
100
AcDbLine
 10
749.8019
 20
23.750698
 30
0.0
 11
750.455397
 21
24.404195
 31
0.0
  0
LINE
  5
4A2
330
1F
100
AcDbEntity
  8
GR1-1
  6
CONTINUOUS
 62
     7
100
AcDbLine
 10
753.311166
 20
27.259964
 30
0.0
 11
753.964664
 21
27.913462
 31
0.0
  0
LINE
  5
4A3
330
1F
100
AcDbEntity
  8
GR1-1
  6
CONTINUOUS
 62
     7
100
AcDbLine
 10
749.8019
 20
23.821408
 30
0.0
 11
750.420042
 21
24.43955
 31
0.0
  0
LINE
  5
4A4
330
1F
100
AcDbEntity
  8
GR1-1
  6
CONTINUOUS
 62
     7
100
AcDbLine
 10
753.275811
 20
27.29532
 30
0.0
 11
753.893953
 21
27.913462
 31
0.0
  0
LINE
  5
4A5
330
1F
100
AcDbEntity
  8
GR1-1
  6
CONTINUOUS
 62
     7
100
AcDbLine
 10
749.8019
 20
23.892119
 30
0.0
 11
750.384686
 21
24.474906
 31
0.0
  0
LINE
  5
4A6
330
1F
100
AcDbEntity
  8
GR1-1
  6
CONTINUOUS
 62
     7
100
AcDbLine
 10
753.240456
 20
27.330675
 30
0.0
 11
753.823242
 21
27.913462
 31
0.0
  0
LINE
  5
4A7
330
1F
100
AcDbEntity
  8
GR1-1
  6
CONTINUOUS
 62
     7
100
AcDbLine
 10
749.8019
 20
23.96283
 30
0.0
 11
750.349331
 21
24.510261
 31
0.0
  0
LINE
  5
4A8
330
1F
100
AcDbEntity
  8
GR1-1
  6
CONTINUOUS
 62
     7
100
AcDbLine
 10
753.2051
 20
27.36603
 30
0.0
 11
753.752531
 21
27.913462
 31
0.0
  0
LINE
  5
4A9
330
1F
100
AcDbEntity
  8
GR1-1
  6
CONTINUOUS
 62
     7
100
AcDbLine
 10
749.8019
 20
24.033541
 30
0.0
 11
750.313976
 21
24.545616
 31
0.0
  0
LINE
  5
4AA
330
1F
100
AcDbEntity
  8
GR1-1
  6
CONTINUOUS
 62
     7
100
AcDbLine
 10
753.169745
 20
27.401386
 30
0.0
 11
753.681821
 21
27.913462
 31
0.0
  0
LINE
  5
4AB
330
1F
100
AcDbEntity
  8
GR1-1
  6
CONTINUOUS
 62
     7
100
AcDbLine
 10
749.8019
 20
24.104251
 30
0.0
 11
750.27862
 21
24.580972
 31
0.0
  0
LINE
  5
4AC
330
1F
100
AcDbEntity
  8
GR1-1
  6
CONTINUOUS
 62
     7
100
AcDbLine
 10
753.13439
 20
27.436741
 30
0.0
 11
753.61111
 21
27.913462
 31
0.0
  0
LINE
  5
4AD
330
1F
100
AcDbEntity
  8
GR1-1
  6
CONTINUOUS
 62
     7
100
AcDbLine
 10
749.8019
 20
24.174962
 30
0.0
 11
750.243265
 21
24.616327
 31
0.0
  0
LINE
  5
4AE
330
1F
100
AcDbEntity
  8
GR1-1
  6
CONTINUOUS
 62
     7
100
AcDbLine
 10
753.099034
 20
27.472096
 30
0.0
 11
753.540399
 21
27.913462
 31
0.0
  0
LINE
  5
4AF
330
1F
100
AcDbEntity
  8
GR1-1
  6
CONTINUOUS
 62
     7
100
AcDbLine
 10
749.8019
 20
24.245673
 30
0.0
 11
750.20791
 21
24.651682
 31
0.0
  0
LINE
  5
4B0
330
1F
100
AcDbEntity
  8
GR1-1
  6
CONTINUOUS
 62
     7
100
AcDbLine
 10
753.063679
 20
27.507452
 30
0.0
 11
753.469689
 21
27.913462
 31
0.0
  0
LINE
  5
4B1
330
1F
100
AcDbEntity
  8
GR1-1
  6
CONTINUOUS
 62
     7
100
AcDbLine
 10
749.8019
 20
24.316383
 30
0.0
 11
750.172554
 21
24.687038
 31
0.0
  0
LINE
  5
4B2
330
1F
100
AcDbEntity
  8
GR1-1
  6
CONTINUOUS
 62
     7
100
AcDbLine
 10
753.028324
 20
27.542807
 30
0.0
 11
753.398978
 21
27.913462
 31
0.0
  0
LINE
  5
4B3
330
1F
100
AcDbEntity
  8
GR1-1
  6
CONTINUOUS
 62
     7
100
AcDbLine
 10
749.8019
 20
24.387094
 30
0.0
 11
750.137199
 21
24.722393
 31
0.0
  0
LINE
  5
4B4
330
1F
100
AcDbEntity
  8
GR1-1
  6
CONTINUOUS
 62
     7
100
AcDbLine
 10
752.992968
 20
27.578162
 30
0.0
 11
753.328267
 21
27.913462
 31
0.0
  0
LINE
  5
4B5
330
1F
100
AcDbEntity
  8
GR1-1
  6
CONTINUOUS
 62
     7
100
AcDbLine
 10
749.8019
 20
24.457805
 30
0.0
 11
750.101844
 21
24.757748
 31
0.0
  0
LINE
  5
4B6
330
1F
100
AcDbEntity
  8
GR1-1
  6
CONTINUOUS
 62
     7
100
AcDbLine
 10
752.957613
 20
27.613518
 30
0.0
 11
753.257557
 21
27.913462
 31
0.0
  0
LINE
  5
4B7
330
1F
100
AcDbEntity
  8
GR1-1
  6
CONTINUOUS
 62
     7
100
AcDbLine
 10
749.8019
 20
24.528515
 30
0.0
 11
750.066488
 21
24.793104
 31
0.0
  0
LINE
  5
4B8
330
1F
100
AcDbEntity
  8
GR1-1
  6
CONTINUOUS
 62
     7
100
AcDbLine
 10
752.922258
 20
27.648873
 30
0.0
 11
753.186846
 21
27.913462
 31
0.0
  0
LINE
  5
4B9
330
1F
100
AcDbEntity
  8
GR1-1
  6
CONTINUOUS
 62
     7
100
AcDbLine
 10
749.8019
 20
24.599226
 30
0.0
 11
750.031133
 21
24.828459
 31
0.0
  0
LINE
  5
4BA
330
1F
100
AcDbEntity
  8
GR1-1
  6
CONTINUOUS
 62
     7
100
AcDbLine
 10
752.886902
 20
27.684228
 30
0.0
 11
753.116135
 21
27.913462
 31
0.0
  0
LINE
  5
4BB
330
1F
100
AcDbEntity
  8
GR1-1
  6
CONTINUOUS
 62
     7
100
AcDbLine
 10
749.8019
 20
24.669937
 30
0.0
 11
749.995778
 21
24.863814
 31
0.0
  0
LINE
  5
4BC
330
1F
100
AcDbEntity
  8
GR1-1
  6
CONTINUOUS
 62
     7
100
AcDbLine
 10
752.851547
 20
27.719584
 30
0.0
 11
753.045425
 21
27.913462
 31
0.0
  0
LINE
  5
4BD
330
1F
100
AcDbEntity
  8
GR1-1
  6
CONTINUOUS
 62
     7
100
AcDbLine
 10
749.8019
 20
24.740647
 30
0.0
 11
749.960422
 21
24.89917
 31
0.0
  0
LINE
  5
4BE
330
1F
100
AcDbEntity
  8
GR1-1
  6
CONTINUOUS
 62
     7
100
AcDbLine
 10
752.816192
 20
27.754939
 30
0.0
 11
752.974714
 21
27.913462
 31
0.0
  0
LINE
  5
4BF
330
1F
100
AcDbEntity
  8
GR1-1
  6
CONTINUOUS
 62
     7
100
AcDbLine
 10
749.8019
 20
24.811358
 30
0.0
 11
752.904003
 21
27.913462
 31
0.0
  0
LINE
  5
4C0
330
1F
100
AcDbEntity
  8
GR1-1
  6
CONTINUOUS
 62
     7
100
AcDbLine
 10
749.8019
 20
24.882069
 30
0.0
 11
752.833293
 21
27.913462
 31
0.0
  0
LINE
  5
4C1
330
1F
100
AcDbEntity
  8
GR1-1
  6
CONTINUOUS
 62
     7
100
AcDbLine
 10
749.8019
 20
24.952779
 30
0.0
 11
752.762582
 21
27.913462
 31
0.0
  0
LINE
  5
4C2
330
1F
100
AcDbEntity
  8
GR1-1
  6
CONTINUOUS
 62
     7
100
AcDbLine
 10
749.8019
 20
25.02349
 30
0.0
 11
752.691871
 21
27.913462
 31
0.0
  0
LINE
  5
4C3
330
1F
100
AcDbEntity
  8
GR1-1
  6
CONTINUOUS
 62
     7
100
AcDbLine
 10
749.8019
 20
25.094201
 30
0.0
 11
752.621161
 21
27.913462
 31
0.0
  0
LINE
  5
4C4
330
1F
100
AcDbEntity
  8
GR1-1
  6
CONTINUOUS
 62
     7
100
AcDbLine
 10
749.8019
 20
25.164911
 30
0.0
 11
752.55045
 21
27.913462
 31
0.0
  0
LINE
  5
4C5
330
1F
100
AcDbEntity
  8
GR1-1
  6
CONTINUOUS
 62
     7
100
AcDbLine
 10
749.8019
 20
25.235622
 30
0.0
 11
752.479739
 21
27.913462
 31
0.0
  0
LINE
  5
4C6
330
1F
100
AcDbEntity
  8
GR1-1
  6
CONTINUOUS
 62
     7
100
AcDbLine
 10
749.8019
 20
25.306333
 30
0.0
 11
752.409029
 21
27.913462
 31
0.0
  0
LINE
  5
4C7
330
1F
100
AcDbEntity
  8
GR1-1
  6
CONTINUOUS
 62
     7
100
AcDbLine
 10
749.8019
 20
25.377043
 30
0.0
 11
752.338318
 21
27.913462
 31
0.0
  0
LINE
  5
4C8
330
1F
100
AcDbEntity
  8
GR1-1
  6
CONTINUOUS
 62
     7
100
AcDbLine
 10
749.8019
 20
25.447754
 30
0.0
 11
752.267607
 21
27.913462
 31
0.0
  0
LINE
  5
4C9
330
1F
100
AcDbEntity
  8
GR1-1
  6
CONTINUOUS
 62
     7
100
AcDbLine
 10
749.8019
 20
25.518465
 30
0.0
 11
752.196897
 21
27.913462
 31
0.0
  0
LINE
  5
4CA
330
1F
100
AcDbEntity
  8
GR1-1
  6
CONTINUOUS
 62
     7
100
AcDbLine
 10
749.8019
 20
25.589175
 30
0.0
 11
752.126186
 21
27.913462
 31
0.0
  0
LINE
  5
4CB
330
1F
100
AcDbEntity
  8
GR1-1
  6
CONTINUOUS
 62
     7
100
AcDbLine
 10
749.8019
 20
25.659886
 30
0.0
 11
752.055475
 21
27.913462
 31
0.0
  0
LINE
  5
4CC
330
1F
100
AcDbEntity
  8
GR1-1
  6
CONTINUOUS
 62
     7
100
AcDbLine
 10
749.8019
 20
25.730597
 30
0.0
 11
751.984765
 21
27.913462
 31
0.0
  0
LINE
  5
4CD
330
1F
100
AcDbEntity
  8
GR1-1
  6
CONTINUOUS
 62
     7
100
AcDbLine
 10
749.8019
 20
25.801307
 30
0.0
 11
751.914054
 21
27.913462
 31
0.0
  0
LINE
  5
4CE
330
1F
100
AcDbEntity
  8
GR1-1
  6
CONTINUOUS
 62
     7
100
AcDbLine
 10
749.8019
 20
25.872018
 30
0.0
 11
751.843343
 21
27.913462
 31
0.0
  0
LINE
  5
4CF
330
1F
100
AcDbEntity
  8
GR1-1
  6
CONTINUOUS
 62
     7
100
AcDbLine
 10
749.8019
 20
25.942729
 30
0.0
 11
751.772632
 21
27.913462
 31
0.0
  0
LINE
  5
4D0
330
1F
100
AcDbEntity
  8
GR1-1
  6
CONTINUOUS
 62
     7
100
AcDbLine
 10
749.8019
 20
26.013439
 30
0.0
 11
751.701922
 21
27.913462
 31
0.0
  0
LINE
  5
4D1
330
1F
100
AcDbEntity
  8
GR1-1
  6
CONTINUOUS
 62
     7
100
AcDbLine
 10
749.8019
 20
26.08415
 30
0.0
 11
751.631211
 21
27.913462
 31
0.0
  0
LINE
  5
4D2
330
1F
100
AcDbEntity
  8
GR1-1
  6
CONTINUOUS
 62
     7
100
AcDbLine
 10
749.8019
 20
26.154861
 30
0.0
 11
751.5605
 21
27.913462
 31
0.0
  0
LINE
  5
4D3
330
1F
100
AcDbEntity
  8
GR1-1
  6
CONTINUOUS
 62
     7
100
AcDbLine
 10
749.8019
 20
26.225572
 30
0.0
 11
751.48979
 21
27.913462
 31
0.0
  0
LINE
  5
4D4
330
1F
100
AcDbEntity
  8
GR1-1
  6
CONTINUOUS
 62
     7
100
AcDbLine
 10
749.8019
 20
26.296282
 30
0.0
 11
751.419079
 21
27.913462
 31
0.0
  0
LINE
  5
4D5
330
1F
100
AcDbEntity
  8
GR1-1
  6
CONTINUOUS
 62
     7
100
AcDbLine
 10
749.8019
 20
26.366993
 30
0.0
 11
751.348368
 21
27.913462
 31
0.0
  0
LINE
  5
4D6
330
1F
100
AcDbEntity
  8
GR1-1
  6
CONTINUOUS
 62
     7
100
AcDbLine
 10
749.8019
 20
26.437704
 30
0.0
 11
751.277658
 21
27.913462
 31
0.0
  0
LINE
  5
4D7
330
1F
100
AcDbEntity
  8
GR1-1
  6
CONTINUOUS
 62
     7
100
AcDbLine
 10
749.8019
 20
26.508414
 30
0.0
 11
751.206947
 21
27.913462
 31
0.0
  0
LINE
  5
4D8
330
1F
100
AcDbEntity
  8
GR1-1
  6
CONTINUOUS
 62
     7
100
AcDbLine
 10
749.8019
 20
26.579125
 30
0.0
 11
751.136236
 21
27.913462
 31
0.0
  0
LINE
  5
4D9
330
1F
100
AcDbEntity
  8
GR1-1
  6
CONTINUOUS
 62
     7
100
AcDbLine
 10
749.8019
 20
26.649836
 30
0.0
 11
751.065526
 21
27.913462
 31
0.0
  0
LINE
  5
4DA
330
1F
100
AcDbEntity
  8
GR1-1
  6
CONTINUOUS
 62
     7
100
AcDbLine
 10
749.8019
 20
26.720546
 30
0.0
 11
750.994815
 21
27.913462
 31
0.0
  0
LINE
  5
4DB
330
1F
100
AcDbEntity
  8
GR1-1
  6
CONTINUOUS
 62
     7
100
AcDbLine
 10
749.8019
 20
26.791257
 30
0.0
 11
750.924104
 21
27.913462
 31
0.0
  0
LINE
  5
4DC
330
1F
100
AcDbEntity
  8
GR1-1
  6
CONTINUOUS
 62
     7
100
AcDbLine
 10
749.8019
 20
26.861968
 30
0.0
 11
750.853394
 21
27.913462
 31
0.0
  0
LINE
  5
4DD
330
1F
100
AcDbEntity
  8
GR1-1
  6
CONTINUOUS
 62
     7
100
AcDbLine
 10
749.8019
 20
26.932678
 30
0.0
 11
750.782683
 21
27.913462
 31
0.0
  0
LINE
  5
4DE
330
1F
100
AcDbEntity
  8
GR1-1
  6
CONTINUOUS
 62
     7
100
AcDbLine
 10
749.8019
 20
27.003389
 30
0.0
 11
750.711972
 21
27.913462
 31
0.0
  0
LINE
  5
4DF
330
1F
100
AcDbEntity
  8
GR1-1
  6
CONTINUOUS
 62
     7
100
AcDbLine
 10
749.8019
 20
27.0741
 30
0.0
 11
750.641262
 21
27.913462
 31
0.0
  0
LINE
  5
4E0
330
1F
100
AcDbEntity
  8
GR1-1
  6
CONTINUOUS
 62
     7
100
AcDbLine
 10
749.8019
 20
27.14481
 30
0.0
 11
750.570551
 21
27.913462
 31
0.0
  0
LINE
  5
4E1
330
1F
100
AcDbEntity
  8
GR1-1
  6
CONTINUOUS
 62
     7
100
AcDbLine
 10
749.8019
 20
27.215521
 30
0.0
 11
750.49984
 21
27.913462
 31
0.0
  0
LINE
  5
4E2
330
1F
100
AcDbEntity
  8
GR1-1
  6
CONTINUOUS
 62
     7
100
AcDbLine
 10
749.8019
 20
27.286232
 30
0.0
 11
750.42913
 21
27.913462
 31
0.0
  0
LINE
  5
4E3
330
1F
100
AcDbEntity
  8
GR1-1
  6
CONTINUOUS
 62
     7
100
AcDbLine
 10
749.8019
 20
27.356942
 30
0.0
 11
750.358419
 21
27.913462
 31
0.0
  0
LINE
  5
4E4
330
1F
100
AcDbEntity
  8
GR1-1
  6
CONTINUOUS
 62
     7
100
AcDbLine
 10
749.8019
 20
27.427653
 30
0.0
 11
750.287708
 21
27.913462
 31
0.0
  0
LINE
  5
4E5
330
1F
100
AcDbEntity
  8
GR1-1
  6
CONTINUOUS
 62
     7
100
AcDbLine
 10
749.8019
 20
27.498364
 30
0.0
 11
750.216998
 21
27.913462
 31
0.0
  0
LINE
  5
4E6
330
1F
100
AcDbEntity
  8
GR1-1
  6
CONTINUOUS
 62
     7
100
AcDbLine
 10
749.8019
 20
27.569074
 30
0.0
 11
750.146287
 21
27.913462
 31
0.0
  0
LINE
  5
4E7
330
1F
100
AcDbEntity
  8
GR1-1
  6
CONTINUOUS
 62
     7
100
AcDbLine
 10
749.8019
 20
27.639785
 30
0.0
 11
750.075576
 21
27.913462
 31
0.0
  0
LINE
  5
4E8
330
1F
100
AcDbEntity
  8
GR1-1
  6
CONTINUOUS
 62
     7
100
AcDbLine
 10
749.8019
 20
27.710496
 30
0.0
 11
750.004866
 21
27.913462
 31
0.0
  0
LINE
  5
4E9
330
1F
100
AcDbEntity
  8
GR1-1
  6
CONTINUOUS
 62
     7
100
AcDbLine
 10
749.8019
 20
27.781206
 30
0.0
 11
749.934155
 21
27.913462
 31
0.0
  0
LINE
  5
4EA
330
1F
100
AcDbEntity
  8
GR1-1
  6
CONTINUOUS
 62
     7
100
AcDbLine
 10
749.8019
 20
27.851917
 30
0.0
 11
749.863444
 21
27.913462
 31
0.0
  0
LINE
  5
4EB
330
1F
100
AcDbEntity
  8
GR1-1
  6
CONTINUOUS
 62
     7
100
AcDbLine
 10
750.793091
 20
21.913462
 30
0.0
 11
751.869611
 21
22.989981
 31
0.0
  0
LINE
  5
4EC
330
1F
100
AcDbEntity
  8
GR1-1
  6
CONTINUOUS
 62
     7
100
AcDbLine
 10
752.685957
 20
23.806328
 30
0.0
 11
753.014245
 21
24.134615
 31
0.0
  0
LINE
  5
4ED
330
1F
100
AcDbEntity
  8
GR1-1
  6
CONTINUOUS
 62
     7
100
AcDbLine
 10
753.879629
 20
25.0
 30
0.0
 11
754.225783
 21
25.346154
 31
0.0
  0
LINE
  5
4EE
330
1F
100
AcDbEntity
  8
GR1-1
  6
CONTINUOUS
 62
     7
100
AcDbLine
 10
754.72538
 20
25.845751
 30
0.0
 11
755.8019
 21
26.922271
 31
0.0
  0
LINE
  5
4EF
330
1F
100
AcDbEntity
  8
GR1-1
  6
CONTINUOUS
 62
     7
100
AcDbLine
 10
750.863801
 20
21.913462
 30
0.0
 11
751.904966
 21
22.954626
 31
0.0
  0
LINE
  5
4F0
330
1F
100
AcDbEntity
  8
GR1-1
  6
CONTINUOUS
 62
     7
100
AcDbLine
 10
752.721312
 20
23.770972
 30
0.0
 11
753.084955
 21
24.134615
 31
0.0
  0
LINE
  5
4F1
330
1F
100
AcDbEntity
  8
GR1-1
  6
CONTINUOUS
 62
     7
100
AcDbLine
 10
753.95034
 20
25.0
 30
0.0
 11
754.296494
 21
25.346154
 31
0.0
  0
LINE
  5
4F2
330
1F
100
AcDbEntity
  8
GR1-1
  6
CONTINUOUS
 62
     7
100
AcDbLine
 10
754.760735
 20
25.810395
 30
0.0
 11
755.8019
 21
26.85156
 31
0.0
  0
LINE
  5
4F3
330
1F
100
AcDbEntity
  8
GR1-1
  6
CONTINUOUS
 62
     7
100
AcDbLine
 10
750.934512
 20
21.913462
 30
0.0
 11
751.940321
 21
22.919271
 31
0.0
  0
LINE
  5
4F4
330
1F
100
AcDbEntity
  8
GR1-1
  6
CONTINUOUS
 62
     7
100
AcDbLine
 10
752.756667
 20
23.735617
 30
0.0
 11
753.155666
 21
24.134615
 31
0.0
  0
LINE
  5
4F5
330
1F
100
AcDbEntity
  8
GR1-1
  6
CONTINUOUS
 62
     7
100
AcDbLine
 10
754.02105
 20
25.0
 30
0.0
 11
754.367204
 21
25.346154
 31
0.0
  0
LINE
  5
4F6
330
1F
100
AcDbEntity
  8
GR1-1
  6
CONTINUOUS
 62
     7
100
AcDbLine
 10
754.79609
 20
25.77504
 30
0.0
 11
755.8019
 21
26.780849
 31
0.0
  0
LINE
  5
4F7
330
1F
100
AcDbEntity
  8
GR1-1
  6
CONTINUOUS
 62
     7
100
AcDbLine
 10
751.005223
 20
21.913462
 30
0.0
 11
751.975677
 21
22.883915
 31
0.0
  0
LINE
  5
4F8
330
1F
100
AcDbEntity
  8
GR1-1
  6
CONTINUOUS
 62
     7
100
AcDbLine
 10
752.792023
 20
23.700262
 30
0.0
 11
753.226377
 21
24.134615
 31
0.0
  0
LINE
  5
4F9
330
1F
100
AcDbEntity
  8
GR1-1
  6
CONTINUOUS
 62
     7
100
AcDbLine
 10
754.091761
 20
25.0
 30
0.0
 11
754.437915
 21
25.346154
 31
0.0
  0
LINE
  5
4FA
330
1F
100
AcDbEntity
  8
GR1-1
  6
CONTINUOUS
 62
     7
100
AcDbLine
 10
754.831446
 20
25.739685
 30
0.0
 11
755.8019
 21
26.710139
 31
0.0
  0
LINE
  5
4FB
330
1F
100
AcDbEntity
  8
GR1-1
  6
CONTINUOUS
 62
     7
100
AcDbLine
 10
751.075933
 20
21.913462
 30
0.0
 11
752.011032
 21
22.84856
 31
0.0
  0
LINE
  5
4FC
330
1F
100
AcDbEntity
  8
GR1-1
  6
CONTINUOUS
 62
     7
100
AcDbLine
 10
754.162472
 20
25.0
 30
0.0
 11
754.508626
 21
25.346154
 31
0.0
  0
LINE
  5
4FD
330
1F
100
AcDbEntity
  8
GR1-1
  6
CONTINUOUS
 62
     7
100
AcDbLine
 10
754.866801
 20
25.704329
 30
0.0
 11
755.8019
 21
26.639428
 31
0.0
  0
LINE
  5
4FE
330
1F
100
AcDbEntity
  8
GR1-1
  6
CONTINUOUS
 62
     7
100
AcDbLine
 10
751.146644
 20
21.913462
 30
0.0
 11
752.046387
 21
22.813205
 31
0.0
  0
LINE
  5
4FF
330
1F
100
AcDbEntity
  8
GR1-1
  6
CONTINUOUS
 62
     7
100
AcDbLine
 10
754.233183
 20
25.0
 30
0.0
 11
754.579336
 21
25.346154
 31
0.0
  0
LINE
  5
500
330
1F
100
AcDbEntity
  8
GR1-1
  6
CONTINUOUS
 62
     7
100
AcDbLine
 10
754.902157
 20
25.668974
 30
0.0
 11
755.8019
 21
26.568717
 31
0.0
  0
LINE
  5
501
330
1F
100
AcDbEntity
  8
GR1-1
  6
CONTINUOUS
 62
     7
100
AcDbLine
 10
751.217355
 20
21.913462
 30
0.0
 11
752.081743
 21
22.777849
 31
0.0
  0
LINE
  5
502
330
1F
100
AcDbEntity
  8
GR1-1
  6
CONTINUOUS
 62
     7
100
AcDbLine
 10
754.303893
 20
25.0
 30
0.0
 11
754.650047
 21
25.346154
 31
0.0
  0
LINE
  5
503
330
1F
100
AcDbEntity
  8
GR1-1
  6
CONTINUOUS
 62
     7
100
AcDbLine
 10
754.937512
 20
25.633619
 30
0.0
 11
755.8019
 21
26.498007
 31
0.0
  0
LINE
  5
504
330
1F
100
AcDbEntity
  8
GR1-1
  6
CONTINUOUS
 62
     7
100
AcDbLine
 10
751.288065
 20
21.913462
 30
0.0
 11
752.117098
 21
22.742494
 31
0.0
  0
LINE
  5
505
330
1F
100
AcDbEntity
  8
GR1-1
  6
CONTINUOUS
 62
     7
100
AcDbLine
 10
754.374604
 20
25.0
 30
0.0
 11
754.720758
 21
25.346154
 31
0.0
  0
LINE
  5
506
330
1F
100
AcDbEntity
  8
GR1-1
  6
CONTINUOUS
 62
     7
100
AcDbLine
 10
754.972867
 20
25.598263
 30
0.0
 11
755.8019
 21
26.427296
 31
0.0
  0
LINE
  5
507
330
1F
100
AcDbEntity
  8
GR1-1
  6
CONTINUOUS
 62
     7
100
AcDbLine
 10
751.358776
 20
21.913462
 30
0.0
 11
752.152453
 21
22.707139
 31
0.0
  0
LINE
  5
508
330
1F
100
AcDbEntity
  8
GR1-1
  6
CONTINUOUS
 62
     7
100
AcDbLine
 10
754.445315
 20
25.0
 30
0.0
 11
754.791468
 21
25.346154
 31
0.0
  0
LINE
  5
509
330
1F
100
AcDbEntity
  8
GR1-1
  6
CONTINUOUS
 62
     7
100
AcDbLine
 10
755.008223
 20
25.562908
 30
0.0
 11
755.8019
 21
26.356585
 31
0.0
  0
LINE
  5
50A
330
1F
100
AcDbEntity
  8
GR1-1
  6
CONTINUOUS
 62
     7
100
AcDbLine
 10
751.429487
 20
21.913462
 30
0.0
 11
752.187809
 21
22.671783
 31
0.0
  0
LINE
  5
50B
330
1F
100
AcDbEntity
  8
GR1-1
  6
CONTINUOUS
 62
     7
100
AcDbLine
 10
754.516025
 20
25.0
 30
0.0
 11
754.862179
 21
25.346154
 31
0.0
  0
LINE
  5
50C
330
1F
100
AcDbEntity
  8
GR1-1
  6
CONTINUOUS
 62
     7
100
AcDbLine
 10
755.043578
 20
25.527553
 30
0.0
 11
755.8019
 21
26.285875
 31
0.0
  0
LINE
  5
50D
330
1F
100
AcDbEntity
  8
GR1-1
  6
CONTINUOUS
 62
     7
100
AcDbLine
 10
751.500197
 20
21.913462
 30
0.0
 11
752.223164
 21
22.636428
 31
0.0
  0
LINE
  5
50E
330
1F
100
AcDbEntity
  8
GR1-1
  6
CONTINUOUS
 62
     7
100
AcDbLine
 10
754.586736
 20
25.0
 30
0.0
 11
754.93289
 21
25.346154
 31
0.0
  0
LINE
  5
50F
330
1F
100
AcDbEntity
  8
GR1-1
  6
CONTINUOUS
 62
     7
100
AcDbLine
 10
755.078933
 20
25.492197
 30
0.0
 11
755.8019
 21
26.215164
 31
0.0
  0
LINE
  5
510
330
1F
100
AcDbEntity
  8
GR1-1
  6
CONTINUOUS
 62
     7
100
AcDbLine
 10
751.570908
 20
21.913462
 30
0.0
 11
752.258519
 21
22.601073
 31
0.0
  0
LINE
  5
511
330
1F
100
AcDbEntity
  8
GR1-1
  6
CONTINUOUS
 62
     7
100
AcDbLine
 10
754.657447
 20
25.0
 30
0.0
 11
755.0036
 21
25.346154
 31
0.0
  0
LINE
  5
512
330
1F
100
AcDbEntity
  8
GR1-1
  6
CONTINUOUS
 62
     7
100
AcDbLine
 10
755.114289
 20
25.456842
 30
0.0
 11
755.8019
 21
26.144453
 31
0.0
  0
LINE
  5
513
330
1F
100
AcDbEntity
  8
GR1-1
  6
CONTINUOUS
 62
     7
100
AcDbLine
 10
751.641619
 20
21.913462
 30
0.0
 11
752.293875
 21
22.565717
 31
0.0
  0
LINE
  5
514
330
1F
100
AcDbEntity
  8
GR1-1
  6
CONTINUOUS
 62
     7
100
AcDbLine
 10
754.728157
 20
25.0
 30
0.0
 11
755.074311
 21
25.346154
 31
0.0
  0
LINE
  5
515
330
1F
100
AcDbEntity
  8
GR1-1
  6
CONTINUOUS
 62
     7
100
AcDbLine
 10
755.149644
 20
25.421487
 30
0.0
 11
755.8019
 21
26.073743
 31
0.0
  0
LINE
  5
516
330
1F
100
AcDbEntity
  8
GR1-1
  6
CONTINUOUS
 62
     7
100
AcDbLine
 10
751.712329
 20
21.913462
 30
0.0
 11
752.32923
 21
22.530362
 31
0.0
  0
LINE
  5
517
330
1F
100
AcDbEntity
  8
GR1-1
  6
CONTINUOUS
 62
     7
100
AcDbLine
 10
754.798868
 20
25.0
 30
0.0
 11
755.145022
 21
25.346154
 31
0.0
  0
LINE
  5
518
330
1F
100
AcDbEntity
  8
GR1-1
  6
CONTINUOUS
 62
     7
100
AcDbLine
 10
755.184999
 20
25.386131
 30
0.0
 11
755.8019
 21
26.003032
 31
0.0
  0
LINE
  5
519
330
1F
100
AcDbEntity
  8
GR1-1
  6
CONTINUOUS
 62
     7
100
AcDbLine
 10
751.78304
 20
21.913462
 30
0.0
 11
752.364585
 21
22.495007
 31
0.0
  0
LINE
  5
51A
330
1F
100
AcDbEntity
  8
GR1-1
  6
CONTINUOUS
 62
     7
100
AcDbLine
 10
754.869579
 20
25.0
 30
0.0
 11
755.215732
 21
25.346154
 31
0.0
  0
LINE
  5
51B
330
1F
100
AcDbEntity
  8
GR1-1
  6
CONTINUOUS
 62
     7
100
AcDbLine
 10
755.220355
 20
25.350776
 30
0.0
 11
755.8019
 21
25.932321
 31
0.0
  0
LINE
  5
51C
330
1F
100
AcDbEntity
  8
GR1-1
  6
CONTINUOUS
 62
     7
100
AcDbLine
 10
751.853751
 20
21.913462
 30
0.0
 11
752.399941
 21
22.459651
 31
0.0
  0
LINE
  5
51D
330
1F
100
AcDbEntity
  8
GR1-1
  6
CONTINUOUS
 62
     7
100
AcDbLine
 10
754.940289
 20
25.0
 30
0.0
 11
755.8019
 21
25.86161
 31
0.0
  0
LINE
  5
51E
330
1F
100
AcDbEntity
  8
GR1-1
  6
CONTINUOUS
 62
     7
100
AcDbLine
 10
751.924461
 20
21.913462
 30
0.0
 11
752.435296
 21
22.424296
 31
0.0
  0
LINE
  5
51F
330
1F
100
AcDbEntity
  8
GR1-1
  6
CONTINUOUS
 62
     7
100
AcDbLine
 10
755.011
 20
25.0
 30
0.0
 11
755.8019
 21
25.7909
 31
0.0
  0
LINE
  5
520
330
1F
100
AcDbEntity
  8
GR1-1
  6
CONTINUOUS
 62
     7
100
AcDbLine
 10
751.995172
 20
21.913462
 30
0.0
 11
752.470651
 21
22.388941
 31
0.0
  0
LINE
  5
521
330
1F
100
AcDbEntity
  8
GR1-1
  6
CONTINUOUS
 62
     7
100
AcDbLine
 10
755.081711
 20
25.0
 30
0.0
 11
755.8019
 21
25.720189
 31
0.0
  0
LINE
  5
522
330
1F
100
AcDbEntity
  8
GR1-1
  6
CONTINUOUS
 62
     7
100
AcDbLine
 10
752.065883
 20
21.913462
 30
0.0
 11
752.506007
 21
22.353585
 31
0.0
  0
LINE
  5
523
330
1F
100
AcDbEntity
  8
GR1-1
  6
CONTINUOUS
 62
     7
100
AcDbLine
 10
755.152421
 20
25.0
 30
0.0
 11
755.8019
 21
25.649478
 31
0.0
  0
LINE
  5
524
330
1F
100
AcDbEntity
  8
GR1-1
  6
CONTINUOUS
 62
     7
100
AcDbLine
 10
752.136594
 20
21.913462
 30
0.0
 11
752.541362
 21
22.31823
 31
0.0
  0
LINE
  5
525
330
1F
100
AcDbEntity
  8
GR1-1
  6
CONTINUOUS
 62
     7
100
AcDbLine
 10
755.223132
 20
25.0
 30
0.0
 11
755.8019
 21
25.578768
 31
0.0
  0
LINE
  5
526
330
1F
100
AcDbEntity
  8
GR1-1
  6
CONTINUOUS
 62
     7
100
AcDbLine
 10
752.207304
 20
21.913462
 30
0.0
 11
752.576717
 21
22.282875
 31
0.0
  0
LINE
  5
527
330
1F
100
AcDbEntity
  8
GR1-1
  6
CONTINUOUS
 62
     7
100
AcDbLine
 10
755.224977
 20
24.931134
 30
0.0
 11
755.8019
 21
25.508057
 31
0.0
  0
LINE
  5
528
330
1F
100
AcDbEntity
  8
GR1-1
  6
CONTINUOUS
 62
     7
100
AcDbLine
 10
752.278015
 20
21.913462
 30
0.0
 11
752.612073
 21
22.247519
 31
0.0
  0
LINE
  5
529
330
1F
100
AcDbEntity
  8
GR1-1
  6
CONTINUOUS
 62
     7
100
AcDbLine
 10
755.224977
 20
24.860423
 30
0.0
 11
755.8019
 21
25.437346
 31
0.0
  0
LINE
  5
52A
330
1F
100
AcDbEntity
  8
GR1-1
  6
CONTINUOUS
 62
     7
100
AcDbLine
 10
752.348726
 20
21.913462
 30
0.0
 11
752.647428
 21
22.212164
 31
0.0
  0
LINE
  5
52B
330
1F
100
AcDbEntity
  8
GR1-1
  6
CONTINUOUS
 62
     7
100
AcDbLine
 10
755.224977
 20
24.789713
 30
0.0
 11
755.8019
 21
25.366636
 31
0.0
  0
LINE
  5
52C
330
1F
100
AcDbEntity
  8
GR1-1
  6
CONTINUOUS
 62
     7
100
AcDbLine
 10
752.419436
 20
21.913462
 30
0.0
 11
752.682783
 21
22.176809
 31
0.0
  0
LINE
  5
52D
330
1F
100
AcDbEntity
  8
GR1-1
  6
CONTINUOUS
 62
     7
100
AcDbLine
 10
755.224977
 20
24.719002
 30
0.0
 11
755.8019
 21
25.295925
 31
0.0
  0
LINE
  5
52E
330
1F
100
AcDbEntity
  8
GR1-1
  6
CONTINUOUS
 62
     7
100
AcDbLine
 10
752.490147
 20
21.913462
 30
0.0
 11
752.718139
 21
22.141453
 31
0.0
  0
LINE
  5
52F
330
1F
100
AcDbEntity
  8
GR1-1
  6
CONTINUOUS
 62
     7
100
AcDbLine
 10
755.224977
 20
24.648291
 30
0.0
 11
755.8019
 21
25.225214
 31
0.0
  0
LINE
  5
530
330
1F
100
AcDbEntity
  8
GR1-1
  6
CONTINUOUS
 62
     7
100
AcDbLine
 10
752.560858
 20
21.913462
 30
0.0
 11
752.753494
 21
22.106098
 31
0.0
  0
LINE
  5
531
330
1F
100
AcDbEntity
  8
GR1-1
  6
CONTINUOUS
 62
     7
100
AcDbLine
 10
755.224977
 20
24.577581
 30
0.0
 11
755.8019
 21
25.154504
 31
0.0
  0
LINE
  5
532
330
1F
100
AcDbEntity
  8
GR1-1
  6
CONTINUOUS
 62
     7
100
AcDbLine
 10
752.631568
 20
21.913462
 30
0.0
 11
752.788849
 21
22.070743
 31
0.0
  0
LINE
  5
533
330
1F
100
AcDbEntity
  8
GR1-1
  6
CONTINUOUS
 62
     7
100
AcDbLine
 10
755.224977
 20
24.50687
 30
0.0
 11
755.8019
 21
25.083793
 31
0.0
  0
LINE
  5
534
330
1F
100
AcDbEntity
  8
GR1-1
  6
CONTINUOUS
 62
     7
100
AcDbLine
 10
752.702279
 20
21.913462
 30
0.0
 11
754.359592
 21
23.570775
 31
0.0
  0
LINE
  5
535
330
1F
100
AcDbEntity
  8
GR1-1
  6
CONTINUOUS
 62
     7
100
AcDbLine
 10
755.224977
 20
24.436159
 30
0.0
 11
755.8019
 21
25.013082
 31
0.0
  0
LINE
  5
536
330
1F
100
AcDbEntity
  8
GR1-1
  6
CONTINUOUS
 62
     7
100
AcDbLine
 10
752.77299
 20
21.913462
 30
0.0
 11
754.359592
 21
23.500064
 31
0.0
  0
LINE
  5
537
330
1F
100
AcDbEntity
  8
GR1-1
  6
CONTINUOUS
 62
     7
100
AcDbLine
 10
755.224977
 20
24.365449
 30
0.0
 11
755.8019
 21
24.942372
 31
0.0
  0
LINE
  5
538
330
1F
100
AcDbEntity
  8
GR1-1
  6
CONTINUOUS
 62
     7
100
AcDbLine
 10
752.8437
 20
21.913462
 30
0.0
 11
754.359592
 21
23.429353
 31
0.0
  0
LINE
  5
539
330
1F
100
AcDbEntity
  8
GR1-1
  6
CONTINUOUS
 62
     7
100
AcDbLine
 10
755.224977
 20
24.294738
 30
0.0
 11
755.8019
 21
24.871661
 31
0.0
  0
LINE
  5
53A
330
1F
100
AcDbEntity
  8
GR1-1
  6
CONTINUOUS
 62
     7
100
AcDbLine
 10
752.914411
 20
21.913462
 30
0.0
 11
754.359592
 21
23.358643
 31
0.0
  0
LINE
  5
53B
330
1F
100
AcDbEntity
  8
GR1-1
  6
CONTINUOUS
 62
     7
100
AcDbLine
 10
755.224977
 20
24.224027
 30
0.0
 11
755.8019
 21
24.80095
 31
0.0
  0
LINE
  5
53C
330
1F
100
AcDbEntity
  8
GR1-1
  6
CONTINUOUS
 62
     7
100
AcDbLine
 10
752.985122
 20
21.913462
 30
0.0
 11
754.359592
 21
23.287932
 31
0.0
  0
LINE
  5
53D
330
1F
100
AcDbEntity
  8
GR1-1
  6
CONTINUOUS
 62
     7
100
AcDbLine
 10
755.224977
 20
24.153317
 30
0.0
 11
755.8019
 21
24.73024
 31
0.0
  0
LINE
  5
53E
330
1F
100
AcDbEntity
  8
GR1-1
  6
CONTINUOUS
 62
     7
100
AcDbLine
 10
753.055832
 20
21.913462
 30
0.0
 11
754.359592
 21
23.217221
 31
0.0
  0
LINE
  5
53F
330
1F
100
AcDbEntity
  8
GR1-1
  6
CONTINUOUS
 62
     7
100
AcDbLine
 10
755.224977
 20
24.082606
 30
0.0
 11
755.8019
 21
24.659529
 31
0.0
  0
LINE
  5
540
330
1F
100
AcDbEntity
  8
GR1-1
  6
CONTINUOUS
 62
     7
100
AcDbLine
 10
753.126543
 20
21.913462
 30
0.0
 11
754.359592
 21
23.146511
 31
0.0
  0
LINE
  5
541
330
1F
100
AcDbEntity
  8
GR1-1
  6
CONTINUOUS
 62
     7
100
AcDbLine
 10
755.224977
 20
24.011895
 30
0.0
 11
755.8019
 21
24.588818
 31
0.0
  0
LINE
  5
542
330
1F
100
AcDbEntity
  8
GR1-1
  6
CONTINUOUS
 62
     7
100
AcDbLine
 10
753.197254
 20
21.913462
 30
0.0
 11
754.359592
 21
23.0758
 31
0.0
  0
LINE
  5
543
330
1F
100
AcDbEntity
  8
GR1-1
  6
CONTINUOUS
 62
     7
100
AcDbLine
 10
755.224977
 20
23.941185
 30
0.0
 11
755.8019
 21
24.518108
 31
0.0
  0
LINE
  5
544
330
1F
100
AcDbEntity
  8
GR1-1
  6
CONTINUOUS
 62
     7
100
AcDbLine
 10
753.267964
 20
21.913462
 30
0.0
 11
754.359592
 21
23.005089
 31
0.0
  0
LINE
  5
545
330
1F
100
AcDbEntity
  8
GR1-1
  6
CONTINUOUS
 62
     7
100
AcDbLine
 10
755.224977
 20
23.870474
 30
0.0
 11
755.8019
 21
24.447397
 31
0.0
  0
LINE
  5
546
330
1F
100
AcDbEntity
  8
GR1-1
  6
CONTINUOUS
 62
     7
100
AcDbLine
 10
753.338675
 20
21.913462
 30
0.0
 11
754.405983
 21
22.980769
 31
0.0
  0
LINE
  5
547
330
1F
100
AcDbEntity
  8
GR1-1
  6
CONTINUOUS
 62
     7
100
AcDbLine
 10
755.224977
 20
23.799763
 30
0.0
 11
755.8019
 21
24.376686
 31
0.0
  0
LINE
  5
548
330
1F
100
AcDbEntity
  8
GR1-1
  6
CONTINUOUS
 62
     7
100
AcDbLine
 10
753.409386
 20
21.913462
 30
0.0
 11
754.476693
 21
22.980769
 31
0.0
  0
LINE
  5
549
330
1F
100
AcDbEntity
  8
GR1-1
  6
CONTINUOUS
 62
     7
100
AcDbLine
 10
755.224977
 20
23.729052
 30
0.0
 11
755.8019
 21
24.305976
 31
0.0
  0
LINE
  5
54A
330
1F
100
AcDbEntity
  8
GR1-1
  6
CONTINUOUS
 62
     7
100
AcDbLine
 10
753.480096
 20
21.913462
 30
0.0
 11
754.547404
 21
22.980769
 31
0.0
  0
LINE
  5
54B
330
1F
100
AcDbEntity
  8
GR1-1
  6
CONTINUOUS
 62
     7
100
AcDbLine
 10
755.224977
 20
23.658342
 30
0.0
 11
755.8019
 21
24.235265
 31
0.0
  0
LINE
  5
54C
330
1F
100
AcDbEntity
  8
GR1-1
  6
CONTINUOUS
 62
     7
100
AcDbLine
 10
753.550807
 20
21.913462
 30
0.0
 11
754.618115
 21
22.980769
 31
0.0
  0
LINE
  5
54D
330
1F
100
AcDbEntity
  8
GR1-1
  6
CONTINUOUS
 62
     7
100
AcDbLine
 10
755.224977
 20
23.587631
 30
0.0
 11
755.8019
 21
24.164554
 31
0.0
  0
LINE
  5
54E
330
1F
100
AcDbEntity
  8
GR1-1
  6
CONTINUOUS
 62
     7
100
AcDbLine
 10
753.621518
 20
21.913462
 30
0.0
 11
754.688825
 21
22.980769
 31
0.0
  0
LINE
  5
54F
330
1F
100
AcDbEntity
  8
GR1-1
  6
CONTINUOUS
 62
     7
100
AcDbLine
 10
755.224977
 20
23.51692
 30
0.0
 11
755.8019
 21
24.093844
 31
0.0
  0
LINE
  5
550
330
1F
100
AcDbEntity
  8
GR1-1
  6
CONTINUOUS
 62
     7
100
AcDbLine
 10
753.692228
 20
21.913462
 30
0.0
 11
754.759536
 21
22.980769
 31
0.0
  0
LINE
  5
551
330
1F
100
AcDbEntity
  8
GR1-1
  6
CONTINUOUS
 62
     7
100
AcDbLine
 10
755.224977
 20
23.44621
 30
0.0
 11
755.8019
 21
24.023133
 31
0.0
  0
LINE
  5
552
330
1F
100
AcDbEntity
  8
GR1-1
  6
CONTINUOUS
 62
     7
100
AcDbLine
 10
753.762939
 20
21.913462
 30
0.0
 11
754.830247
 21
22.980769
 31
0.0
  0
LINE
  5
553
330
1F
100
AcDbEntity
  8
GR1-1
  6
CONTINUOUS
 62
     7
100
AcDbLine
 10
755.224977
 20
23.375499
 30
0.0
 11
755.8019
 21
23.952422
 31
0.0
  0
LINE
  5
554
330
1F
100
AcDbEntity
  8
GR1-1
  6
CONTINUOUS
 62
     7
100
AcDbLine
 10
753.83365
 20
21.913462
 30
0.0
 11
754.900958
 21
22.980769
 31
0.0
  0
LINE
  5
555
330
1F
100
AcDbEntity
  8
GR1-1
  6
CONTINUOUS
 62
     7
100
AcDbLine
 10
755.224977
 20
23.304788
 30
0.0
 11
755.8019
 21
23.881712
 31
0.0
  0
LINE
  5
556
330
1F
100
AcDbEntity
  8
GR1-1
  6
CONTINUOUS
 62
     7
100
AcDbLine
 10
753.90436
 20
21.913462
 30
0.0
 11
754.971668
 21
22.980769
 31
0.0
  0
LINE
  5
557
330
1F
100
AcDbEntity
  8
GR1-1
  6
CONTINUOUS
 62
     7
100
AcDbLine
 10
755.224977
 20
23.234078
 30
0.0
 11
755.8019
 21
23.811001
 31
0.0
  0
LINE
  5
558
330
1F
100
AcDbEntity
  8
GR1-1
  6
CONTINUOUS
 62
     7
100
AcDbLine
 10
753.975071
 20
21.913462
 30
0.0
 11
755.042379
 21
22.980769
 31
0.0
  0
LINE
  5
559
330
1F
100
AcDbEntity
  8
GR1-1
  6
CONTINUOUS
 62
     7
100
AcDbLine
 10
755.224977
 20
23.163367
 30
0.0
 11
755.8019
 21
23.74029
 31
0.0
  0
LINE
  5
55A
330
1F
100
AcDbEntity
  8
GR1-1
  6
CONTINUOUS
 62
     7
100
AcDbLine
 10
754.045782
 20
21.913462
 30
0.0
 11
755.11309
 21
22.980769
 31
0.0
  0
LINE
  5
55B
330
1F
100
AcDbEntity
  8
GR1-1
  6
CONTINUOUS
 62
     7
100
AcDbLine
 10
755.224977
 20
23.092656
 30
0.0
 11
755.8019
 21
23.669579
 31
0.0
  0
LINE
  5
55C
330
1F
100
AcDbEntity
  8
GR1-1
  6
CONTINUOUS
 62
     7
100
AcDbLine
 10
754.116493
 20
21.913462
 30
0.0
 11
755.1838
 21
22.980769
 31
0.0
  0
LINE
  5
55D
330
1F
100
AcDbEntity
  8
GR1-1
  6
CONTINUOUS
 62
     7
100
AcDbLine
 10
755.224977
 20
23.021946
 30
0.0
 11
755.8019
 21
23.598869
 31
0.0
  0
LINE
  5
55E
330
1F
100
AcDbEntity
  8
GR1-1
  6
CONTINUOUS
 62
     7
100
AcDbLine
 10
754.187203
 20
21.913462
 30
0.0
 11
755.8019
 21
23.528158
 31
0.0
  0
LINE
  5
55F
330
1F
100
AcDbEntity
  8
GR1-1
  6
CONTINUOUS
 62
     7
100
AcDbLine
 10
754.257914
 20
21.913462
 30
0.0
 11
755.8019
 21
23.457447
 31
0.0
  0
LINE
  5
560
330
1F
100
AcDbEntity
  8
GR1-1
  6
CONTINUOUS
 62
     7
100
AcDbLine
 10
754.328625
 20
21.913462
 30
0.0
 11
755.8019
 21
23.386737
 31
0.0
  0
LINE
  5
561
330
1F
100
AcDbEntity
  8
GR1-1
  6
CONTINUOUS
 62
     7
100
AcDbLine
 10
754.399335
 20
21.913462
 30
0.0
 11
755.8019
 21
23.316026
 31
0.0
  0
LINE
  5
562
330
1F
100
AcDbEntity
  8
GR1-1
  6
CONTINUOUS
 62
     7
100
AcDbLine
 10
754.470046
 20
21.913462
 30
0.0
 11
755.8019
 21
23.245315
 31
0.0
  0
LINE
  5
563
330
1F
100
AcDbEntity
  8
GR1-1
  6
CONTINUOUS
 62
     7
100
AcDbLine
 10
754.540757
 20
21.913462
 30
0.0
 11
755.8019
 21
23.174605
 31
0.0
  0
LINE
  5
564
330
1F
100
AcDbEntity
  8
GR1-1
  6
CONTINUOUS
 62
     7
100
AcDbLine
 10
754.611467
 20
21.913462
 30
0.0
 11
755.8019
 21
23.103894
 31
0.0
  0
LINE
  5
565
330
1F
100
AcDbEntity
  8
GR1-1
  6
CONTINUOUS
 62
     7
100
AcDbLine
 10
754.682178
 20
21.913462
 30
0.0
 11
755.8019
 21
23.033183
 31
0.0
  0
LINE
  5
566
330
1F
100
AcDbEntity
  8
GR1-1
  6
CONTINUOUS
 62
     7
100
AcDbLine
 10
754.752889
 20
21.913462
 30
0.0
 11
755.8019
 21
22.962473
 31
0.0
  0
LINE
  5
567
330
1F
100
AcDbEntity
  8
GR1-1
  6
CONTINUOUS
 62
     7
100
AcDbLine
 10
754.823599
 20
21.913462
 30
0.0
 11
755.8019
 21
22.891762
 31
0.0
  0
LINE
  5
568
330
1F
100
AcDbEntity
  8
GR1-1
  6
CONTINUOUS
 62
     7
100
AcDbLine
 10
754.89431
 20
21.913462
 30
0.0
 11
755.8019
 21
22.821051
 31
0.0
  0
LINE
  5
569
330
1F
100
AcDbEntity
  8
GR1-1
  6
CONTINUOUS
 62
     7
100
AcDbLine
 10
754.965021
 20
21.913462
 30
0.0
 11
755.8019
 21
22.750341
 31
0.0
  0
LINE
  5
56A
330
1F
100
AcDbEntity
  8
GR1-1
  6
CONTINUOUS
 62
     7
100
AcDbLine
 10
755.035731
 20
21.913462
 30
0.0
 11
755.8019
 21
22.67963
 31
0.0
  0
LINE
  5
56B
330
1F
100
AcDbEntity
  8
GR1-1
  6
CONTINUOUS
 62
     7
100
AcDbLine
 10
755.106442
 20
21.913462
 30
0.0
 11
755.8019
 21
22.608919
 31
0.0
  0
LINE
  5
56C
330
1F
100
AcDbEntity
  8
GR1-1
  6
CONTINUOUS
 62
     7
100
AcDbLine
 10
755.177153
 20
21.913462
 30
0.0
 11
755.8019
 21
22.538209
 31
0.0
  0
LINE
  5
56D
330
1F
100
AcDbEntity
  8
GR1-1
  6
CONTINUOUS
 62
     7
100
AcDbLine
 10
755.247863
 20
21.913462
 30
0.0
 11
755.8019
 21
22.467498
 31
0.0
  0
LINE
  5
56E
330
1F
100
AcDbEntity
  8
GR1-1
  6
CONTINUOUS
 62
     7
100
AcDbLine
 10
755.318574
 20
21.913462
 30
0.0
 11
755.8019
 21
22.396787
 31
0.0
  0
LINE
  5
56F
330
1F
100
AcDbEntity
  8
GR1-1
  6
CONTINUOUS
 62
     7
100
AcDbLine
 10
755.389285
 20
21.913462
 30
0.0
 11
755.8019
 21
22.326077
 31
0.0
  0
LINE
  5
570
330
1F
100
AcDbEntity
  8
GR1-1
  6
CONTINUOUS
 62
     7
100
AcDbLine
 10
755.459995
 20
21.913462
 30
0.0
 11
755.8019
 21
22.255366
 31
0.0
  0
LINE
  5
571
330
1F
100
AcDbEntity
  8
GR1-1
  6
CONTINUOUS
 62
     7
100
AcDbLine
 10
755.530706
 20
21.913462
 30
0.0
 11
755.8019
 21
22.184655
 31
0.0
  0
LINE
  5
572
330
1F
100
AcDbEntity
  8
GR1-1
  6
CONTINUOUS
 62
     7
100
AcDbLine
 10
755.601417
 20
21.913462
 30
0.0
 11
755.8019
 21
22.113945
 31
0.0
  0
LINE
  5
573
330
1F
100
AcDbEntity
  8
GR1-1
  6
CONTINUOUS
 62
     7
100
AcDbLine
 10
755.672127
 20
21.913462
 30
0.0
 11
755.8019
 21
22.043234
 31
0.0
  0
LINE
  5
574
330
1F
100
AcDbEntity
  8
GR1-1
  6
CONTINUOUS
 62
     7
100
AcDbLine
 10
755.742838
 20
21.913462
 30
0.0
 11
755.8019
 21
21.972523
 31
0.0
  0
ENDSEC
  0
SECTION
  2
OBJECTS
  0
DICTIONARY
  5
C
330
0
100
AcDbDictionary
  3
ACAD_GROUP
350
D
  3
ACAD_LAYOUT
350
1A
  3
ACAD_MLINESTYLE
350
17
  3
ACAD_PLOTSETTINGS
350
19
  3
ACDBHEADERROUNDTRIPXREC
350
575
  0
DICTIONARY
  5
D
102
{ACAD_REACTORS
330
C
102
}
330
C
100
AcDbDictionary
  0
DICTIONARY
  5
1A
102
{ACAD_REACTORS
330
C
102
}
330
C
100
AcDbDictionary
  0
DICTIONARY
  5
17
102
{ACAD_REACTORS
330
C
102
}
330
C
100
AcDbDictionary
  3
STANDARD
350
18
  0
DICTIONARY
  5
19
102
{ACAD_REACTORS
330
C
102
}
330
C
100
AcDbDictionary
  0
DICTIONARY
  5
575
102
{ACAD_REACTORS
330
C
102
}
330
C
100
AcDbDictionary
  3
CEPSNTYPE
350
57E
  3
DIMSTYLEDATA
350
594
  3
FINGERPRINTGUID
350
57F
  3
HYPERLINKBASE
350
578
  3
INSUNITS
350
57D
  3
LAYOUTDICT
350
57A
  3
LWETCUNION
350
57C
  3
PLOTSETDICT
350
57B
  3
PSVPSCALE
350
581
  3
PUCSBASE
350
584
  3
PUCSORGBACK
350
58A
  3
PUCSORGBOTTOM
350
586
  3
PUCSORGFRONT
350
589
  3
PUCSORGLEFT
350
587
  3
PUCSORGRIGHT
350
588
  3
PUCSORGTOP
350
585
  3
PUCSORTHOREF
350
582
  3
PUCSORTHOVIEW
350
583
  3
STYLESHEET
350
579
  3
TSTACKALIGN
350
576
  3
TSTACKSIZE
350
577
  3
UCSBASE
350
58D
  3
UCSORGBACK
350
593
  3
UCSORGBOTTOM
350
58F
  3
UCSORGFRONT
350
592
  3
UCSORGLEFT
350
590
  3
UCSORGRIGHT
350
591
  3
UCSORGTOP
350
58E
  3
UCSORTHOREF
350
58B
  3
UCSORTHOVIEW
350
58C
  3
VERSIONGUID
350
580
  0
MLINESTYLE
  5
18
102
{ACAD_REACTORS
330
17
102
}
330
17
100
AcDbMlineStyle
  2
Standard
 70
     0
  3

 62
   256
 51
90.0
 52
90.0
 71
     2
 49
0.5
 62
   256
  6
BYLAYER
 49
-0.5
 62
   256
  6
BYLAYER
  0
XRECORD
  5
57E
102
{ACAD_REACTORS
330
575
102
}
330
575
100
AcDbXrecord
 90
        0
  0
XRECORD
  5
594
102
{ACAD_REACTORS
330
575
102
}
330
575
100
AcDbXrecord
1000
DSTYLE
1002
{
1070
   179
 70
     2
1070
   171
 70
     3
1070
   143
 40
0.03937
1070
   274
 70
     3
1070
    41
 40
4.0
1070
   343
340
41
1070
   344
340
47
1070
   141
 40
2.5
1070
   176
 70
     7
1070
   177
 70
     7
1070
   178
 70
     7
1070
   271
 70
     2
1070
    46
 40
6.0
1070
    43
 40
10.0
1070
    44
 40
1.0
1070
    42
 40
1.0
1070
   147
 40
1.0
1070
   341
340
41
1070
   173
 70
     1
1070
    77
 70
     1
1070
   272
 70
     2
1070
    73
 70
     0
1070
   172
 70
     1
1070
    74
 70
     0
1070
   283
 70
     0
1070
   340
340
3F
1070
   140
 40
4.0
1070
   284
 70
     8
1070
    78
 70
     8
1002
}
  0
XRECORD
  5
57F
102
{ACAD_REACTORS
330
575
102
}
330
575
100
AcDbXrecord
  1
{54B1A811-F7C1-46D1-931A-8C6C24BD37FC}
  0
XRECORD
  5
578
102
{ACAD_REACTORS
330
575
102
}
330
575
100
AcDbXrecord
  1

  0
XRECORD
  5
57D
102
{ACAD_REACTORS
330
575
102
}
330
575
100
AcDbXrecord
 90
        1
  0
XRECORD
  5
57A
102
{ACAD_REACTORS
330
575
102
}
330
575
100
AcDbXrecord
340
1A
  0
XRECORD
  5
57C
102
{ACAD_REACTORS
330
575
102
}
330
575
100
AcDbXrecord
 90
    10781
  0
XRECORD
  5
57B
102
{ACAD_REACTORS
330
575
102
}
330
575
100
AcDbXrecord
340
19
  0
XRECORD
  5
581
102
{ACAD_REACTORS
330
575
102
}
330
575
100
AcDbXrecord
 40
0.0
  0
XRECORD
  5
584
102
{ACAD_REACTORS
330
575
102
}
330
575
100
AcDbXrecord
340
0
  0
XRECORD
  5
58A
102
{ACAD_REACTORS
330
575
102
}
330
575
100
AcDbXrecord
 10
0.0
 20
0.0
 30
0.0
  0
XRECORD
  5
586
102
{ACAD_REACTORS
330
575
102
}
330
575
100
AcDbXrecord
 10
0.0
 20
0.0
 30
0.0
  0
XRECORD
  5
589
102
{ACAD_REACTORS
330
575
102
}
330
575
100
AcDbXrecord
 10
0.0
 20
0.0
 30
0.0
  0
XRECORD
  5
587
102
{ACAD_REACTORS
330
575
102
}
330
575
100
AcDbXrecord
 10
0.0
 20
0.0
 30
0.0
  0
XRECORD
  5
588
102
{ACAD_REACTORS
330
575
102
}
330
575
100
AcDbXrecord
 10
0.0
 20
0.0
 30
0.0
  0
XRECORD
  5
585
102
{ACAD_REACTORS
330
575
102
}
330
575
100
AcDbXrecord
 10
0.0
 20
0.0
 30
0.0
  0
XRECORD
  5
582
102
{ACAD_REACTORS
330
575
102
}
330
575
100
AcDbXrecord
340
0
  0
XRECORD
  5
583
102
{ACAD_REACTORS
330
575
102
}
330
575
100
AcDbXrecord
 70
     0
  0
XRECORD
  5
579
102
{ACAD_REACTORS
330
575
102
}
330
575
100
AcDbXrecord
  1

  0
XRECORD
  5
576
102
{ACAD_REACTORS
330
575
102
}
330
575
100
AcDbXrecord
 90
        1
  0
XRECORD
  5
577
102
{ACAD_REACTORS
330
575
102
}
330
575
100
AcDbXrecord
 90
       70
  0
XRECORD
  5
58D
102
{ACAD_REACTORS
330
575
102
}
330
575
100
AcDbXrecord
340
0
  0
XRECORD
  5
593
102
{ACAD_REACTORS
330
575
102
}
330
575
100
AcDbXrecord
 10
0.0
 20
0.0
 30
0.0
  0
XRECORD
  5
58F
102
{ACAD_REACTORS
330
575
102
}
330
575
100
AcDbXrecord
 10
0.0
 20
0.0
 30
0.0
  0
XRECORD
  5
592
102
{ACAD_REACTORS
330
575
102
}
330
575
100
AcDbXrecord
 10
0.0
 20
0.0
 30
0.0
  0
XRECORD
  5
590
102
{ACAD_REACTORS
330
575
102
}
330
575
100
AcDbXrecord
 10
0.0
 20
0.0
 30
0.0
  0
XRECORD
  5
591
102
{ACAD_REACTORS
330
575
102
}
330
575
100
AcDbXrecord
 10
0.0
 20
0.0
 30
0.0
  0
XRECORD
  5
58E
102
{ACAD_REACTORS
330
575
102
}
330
575
100
AcDbXrecord
 10
0.0
 20
0.0
 30
0.0
  0
XRECORD
  5
58B
102
{ACAD_REACTORS
330
575
102
}
330
575
100
AcDbXrecord
340
0
  0
XRECORD
  5
58C
102
{ACAD_REACTORS
330
575
102
}
330
575
100
AcDbXrecord
 70
     0
  0
XRECORD
  5
580
102
{ACAD_REACTORS
330
575
102
}
330
575
100
AcDbXrecord
  1
{FAEB1C32-E019-11D5-929B-00C0DF256EC4}
  0
ENDSEC
  0
EOF
