  0
SECTION
  2
HEADER
  9
$ACADVER
  1
AC1015
  9
$ACADMAINTVER
 70
     6
  9
$DWGCODEPAGE
  3
ANSI_932
  9
$INSBASE
 10
0.0
 20
0.0
 30
0.0
  9
$EXTMIN
 10
0.0
 20
0.0
 30
0.0
  9
$EXTMAX
 10
594.0
 20
420.0
 30
0.0
  9
$LIMMIN
 10
0.0
 20
0.0
  9
$LIMMAX
 10
594.0
 20
420.0
  9
$ORTHOMODE
 70
     0
  9
$REGENMODE
 70
     1
  9
$FILLMODE
 70
     1
  9
$QTEXTMODE
 70
     0
  9
$MIRRTEXT
 70
     1
  9
$LTSCALE
 40
1.0
  9
$ATTMODE
 70
     1
  9
$TEXTSIZE
 40
2.5
  9
$TRACEWID
 40
1.0
  9
$TEXTSTYLE
  7
FX_VECTOR
  9
$CLAYER
  8
0
  9
$CELTYPE
  6
ByLayer
  9
$CECOLOR
 62
   256
  9
$CELTSCALE
 40
1.0
  9
$DISPSILH
 70
     0
  9
$DIMSCALE
 40
1.0
  9
$DIMASZ
 40
4.0
  9
$DIMEXO
 40
1.0
  9
$DIMDLI
 40
10.0
  9
$DIMRND
 40
0.0
  9
$DIMDLE
 40
6.0
  9
$DIMEXE
 40
1.0
  9
$DIMTP
 40
0.0
  9
$DIMTM
 40
0.0
  9
$DIMTXT
 40
4.0
  9
$DIMCEN
 40
2.5
  9
$DIMTSZ
 40
0.0
  9
$DIMTOL
 70
     0
  9
$DIMLIM
 70
     0
  9
$DIMTIH
 70
     0
  9
$DIMTOH
 70
     0
  9
$DIMSE1
 70
     0
  9
$DIMSE2
 70
     0
  9
$DIMTAD
 70
     1
  9
$DIMZIN
 70
     8
  9
$DIMBLK
  1

  9
$DIMASO
 70
     1
  9
$DIMSHO
 70
     1
  9
$DIMPOST
  1

  9
$DIMAPOST
  1

  9
$DIMALT
 70
     0
  9
$DIMALTD
 70
     3
  9
$DIMALTF
 40
0.03937
  9
$DIMLFAC
 40
1.0
  9
$DIMTOFL
 70
     1
  9
$DIMTVP
 40
0.0
  9
$DIMTIX
 70
     0
  9
$DIMSOXD
 70
     0
  9
$DIMSAH
 70
     1
  9
$DIMBLK1
  1
FXTIP_ARROW_S
  9
$DIMBLK2
  1
FXTIP_ARROW_E
  9
$DIMSTYLE
  2
FX_DIMINFO
  9
$DIMCLRD
 70
     7
  9
$DIMCLRE
 70
     7
  9
$DIMCLRT
 70
     7
  9
$DIMTFAC
 40
1.0
  9
$DIMGAP
 40
1.0
  9
$DIMJUST
 70
     0
  9
$DIMSD1
 70
     0
  9
$DIMSD2
 70
     0
  9
$DIMTOLJ
 70
     1
  9
$DIMTZIN
 70
     8
  9
$DIMALTZ
 70
     0
  9
$DIMALTTZ
 70
     0
  9
$DIMUPT
 70
     0
  9
$DIMDEC
 70
     2
  9
$DIMTDEC
 70
     2
  9
$DIMALTU
 70
     2
  9
$DIMALTTD
 70
     3
  9
$DIMTXSTY
  7
FX_VECTOR
  9
$DIMAUNIT
 70
     0
  9
$DIMADEC
 70
     2
  9
$DIMALTRND
 40
0.0
  9
$DIMAZIN
 70
     2
  9
$DIMDSEP
 70
    46
  9
$DIMATFIT
 70
     3
  9
$DIMFRAC
 70
     0
  9
$DIMLDRBLK
  1
FXTIP_ARROW_S
  9
$DIMLUNIT
 70
     2
  9
$DIMLWD
 70
    -2
  9
$DIMLWE
 70
    -2
  9
$DIMTMOVE
 70
     0
  9
$LUNITS
 70
     2
  9
$LUPREC
 70
     4
  9
$SKETCHINC
 40
1.0
  9
$FILLETRAD
 40
10.0
  9
$AUNITS
 70
     0
  9
$AUPREC
 70
     0
  9
$MENU
  1
.
  9
$ELEVATION
 40
0.0
  9
$PELEVATION
 40
0.0
  9
$THICKNESS
 40
0.0
  9
$LIMCHECK
 70
     0
  9
$CHAMFERA
 40
0.0
  9
$CHAMFERB
 40
0.0
  9
$CHAMFERC
 40
0.0
  9
$CHAMFERD
 40
0.0
  9
$SKPOLY
 70
     0
  9
$TDCREATE
 40
2457871.719233542
  9
$TDUCREATE
 40
2457871.344233542
  9
$TDUPDATE
 40
2457871.719234445
  9
$TDUUPDATE
 40
2457871.344234445
  9
$TDINDWG
 40
0.0000000116
  9
$TDUSRTIMER
 40
0.0000000116
  9
$USRTIMER
 70
     1
  9
$ANGBASE
 50
0.0
  9
$ANGDIR
 70
     0
  9
$PDMODE
 70
     0
  9
$PDSIZE
 40
0.0
  9
$PLINEWID
 40
0.0
  9
$SPLFRAME
 70
     0
  9
$SPLINETYPE
 70
     6
  9
$SPLINESEGS
 70
     8
  9
$HANDSEED
  5
404
  9
$SURFTAB1
 70
     6
  9
$SURFTAB2
 70
     6
  9
$SURFTYPE
 70
     6
  9
$SURFU
 70
     6
  9
$SURFV
 70
     6
  9
$UCSBASE
  2

  9
$UCSNAME
  2

  9
$UCSORG
 10
0.0
 20
0.0
 30
0.0
  9
$UCSXDIR
 10
1.0
 20
0.0
 30
0.0
  9
$UCSYDIR
 10
0.0
 20
1.0
 30
0.0
  9
$UCSORTHOREF
  2

  9
$UCSORTHOVIEW
 70
     0
  9
$UCSORGTOP
 10
0.0
 20
0.0
 30
0.0
  9
$UCSORGBOTTOM
 10
0.0
 20
0.0
 30
0.0
  9
$UCSORGLEFT
 10
0.0
 20
0.0
 30
0.0
  9
$UCSORGRIGHT
 10
0.0
 20
0.0
 30
0.0
  9
$UCSORGFRONT
 10
0.0
 20
0.0
 30
0.0
  9
$UCSORGBACK
 10
0.0
 20
0.0
 30
0.0
  9
$PUCSBASE
  2

  9
$PUCSNAME
  2

  9
$PUCSORG
 10
0.0
 20
0.0
 30
0.0
  9
$PUCSXDIR
 10
1.0
 20
0.0
 30
0.0
  9
$PUCSYDIR
 10
0.0
 20
1.0
 30
0.0
  9
$PUCSORTHOREF
  2

  9
$PUCSORTHOVIEW
 70
     0
  9
$PUCSORGTOP
 10
0.0
 20
0.0
 30
0.0
  9
$PUCSORGBOTTOM
 10
0.0
 20
0.0
 30
0.0
  9
$PUCSORGLEFT
 10
0.0
 20
0.0
 30
0.0
  9
$PUCSORGRIGHT
 10
0.0
 20
0.0
 30
0.0
  9
$PUCSORGFRONT
 10
0.0
 20
0.0
 30
0.0
  9
$PUCSORGBACK
 10
0.0
 20
0.0
 30
0.0
  9
$USERI1
 70
     0
  9
$USERI2
 70
     0
  9
$USERI3
 70
     0
  9
$USERI4
 70
     0
  9
$USERI5
 70
     0
  9
$USERR1
 40
0.0
  9
$USERR2
 40
0.0
  9
$USERR3
 40
0.0
  9
$USERR4
 40
0.0
  9
$USERR5
 40
0.0
  9
$WORLDVIEW
 70
     1
  9
$SHADEDGE
 70
     3
  9
$SHADEDIF
 70
    70
  9
$TILEMODE
 70
     1
  9
$MAXACTVP
 70
    64
  9
$PINSBASE
 10
0.0
 20
0.0
 30
0.0
  9
$PLIMCHECK
 70
     0
  9
$PEXTMIN
 10
1.000000000000000E+20
 20
1.000000000000000E+20
 30
1.000000000000000E+20
  9
$PEXTMAX
 10
-1.000000000000000E+20
 20
-1.000000000000000E+20
 30
-1.000000000000000E+20
  9
$PLIMMIN
 10
0.0
 20
0.0
  9
$PLIMMAX
 10
420.0
 20
297.0
  9
$UNITMODE
 70
     0
  9
$VISRETAIN
 70
     1
  9
$PLINEGEN
 70
     0
  9
$PSLTSCALE
 70
     1
  9
$TREEDEPTH
 70
  3020
  9
$CMLSTYLE
  2
Standard
  9
$CMLJUST
 70
     0
  9
$CMLSCALE
 40
20.0
  9
$PROXYGRAPHICS
 70
     1
  9
$MEASUREMENT
 70
     1
  9
$CELWEIGHT
370
    -1
  9
$ENDCAPS
280
     0
  9
$JOINSTYLE
280
     0
  9
$LWDISPLAY
290
     0
  9
$INSUNITS
 70
     4
  9
$HYPERLINKBASE
  1

  9
$STYLESHEET
  1

  9
$XEDIT
290
     1
  9
$CEPSNTYPE
380
     0
  9
$PSTYLEMODE
290
     1
  9
$FINGERPRINTGUID
  2
{AD556B7D-0C28-451D-89EC-2334D0D8811F}
  9
$VERSIONGUID
  2
{FAEB1C32-E019-11D5-929B-00C0DF256EC4}
  9
$EXTNAMES
290
     1
  9
$PSVPSCALE
 40
0.0
  9
$OLESTARTUP
290
     0
  0
ENDSEC
  0
SECTION
  2
CLASSES
  0
CLASS
  1
ACDBDICTIONARYWDFLT
  2
AcDbDictionaryWithDefault
  3
ObjectDBX Classes
 90
        0
280
     0
281
     0
  0
CLASS
  1
VISUALSTYLE
  2
AcDbVisualStyle
  3
ObjectDBX Classes
 90
     4095
280
     0
281
     0
  0
CLASS
  1
MATERIAL
  2
AcDbMaterial
  3
ObjectDBX Classes
 90
     1153
280
     0
281
     0
  0
CLASS
  1
SCALE
  2
AcDbScale
  3
ObjectDBX Classes
 90
     1153
280
     0
281
     0
  0
CLASS
  1
TABLESTYLE
  2
AcDbTableStyle
  3
ObjectDBX Classes
 90
     4095
280
     0
281
     0
  0
CLASS
  1
MLEADERSTYLE
  2
AcDbMLeaderStyle
  3
ACDB_MLEADERSTYLE_CLASS
 90
     4095
280
     0
281
     0
  0
CLASS
  1
SUN
  2
AcDbSun
  3
SCENEOE
 90
     1153
280
     0
281
     0
  0
CLASS
  1
DICTIONARYVAR
  2
AcDbDictionaryVar
  3
ObjectDBX Classes
 90
        0
280
     0
281
     0
  0
CLASS
  1
ACDBPLACEHOLDER
  2
AcDbPlaceHolder
  3
ObjectDBX Classes
 90
        0
280
     0
281
     0
  0
CLASS
  1
LAYOUT
  2
AcDbLayout
  3
ObjectDBX Classes
 90
        0
280
     0
281
     0
  0
ENDSEC
  0
SECTION
  2
TABLES
  0
TABLE
  2
VPORT
  5
8
102
{ACAD_XDICTIONARY
360
3C7
102
}
330
0
100
AcDbSymbolTable
 70
     1
  0
VPORT
  5
29
330
8
100
AcDbSymbolTableRecord
100
AcDbViewportTableRecord
  2
*Active
 70
     0
 10
0.0
 20
0.0
 11
1.0
 21
1.0
 12
297.0
 22
210.0
 13
0.0
 23
0.0
 14
10.0
 24
10.0
 15
10.0
 25
10.0
 16
0.0
 26
0.0
 36
1.0
 17
0.0
 27
0.0
 37
0.0
 40
420.0
 41
1.414285714285714
 42
50.0
 43
0.0
 44
0.0
 50
0.0
 51
0.0
 71
     0
 72
   100
 73
     1
 74
     3
 75
     0
 76
     0
 77
     0
 78
     0
281
     0
 65
     1
110
0.0
120
0.0
130
0.0
111
1.0
121
0.0
131
0.0
112
0.0
122
1.0
132
0.0
 79
     0
146
0.0
  0
ENDTAB
  0
TABLE
  2
LTYPE
  5
5
330
0
100
AcDbSymbolTable
 70
     5
  0
LTYPE
  5
14
330
5
100
AcDbSymbolTableRecord
100
AcDbLinetypeTableRecord
  2
ByBlock
 70
     0
  3

 72
    65
 73
     0
 40
0.0
  0
LTYPE
  5
15
330
5
100
AcDbSymbolTableRecord
100
AcDbLinetypeTableRecord
  2
ByLayer
 70
     0
  3

 72
    65
 73
     0
 40
0.0
  0
LTYPE
  5
16
330
5
100
AcDbSymbolTableRecord
100
AcDbLinetypeTableRecord
  2
Continuous
 70
     0
  3
Continuous
 72
    65
 73
     0
 40
0.0
  0
LTYPE
  5
6E
330
5
100
AcDbSymbolTableRecord
100
AcDbLinetypeTableRecord
  2
DASHDOT
 70
     0
  3
Dash dot __ . __ . __ . __ . __ . __ . __ . __
 72
    65
 73
     4
 40
13.0
 49
10.0
 74
     0
 49
-1.0
 74
     0
 49
1.0
 74
     0
 49
-1.0
 74
     0
  0
LTYPE
  5
71
330
5
100
AcDbSymbolTableRecord
100
AcDbLinetypeTableRecord
  2
DASHED
 70
     0
  3
Dashed __ __ __ __ __ __ __ __ __ __ __ __ __ _
 72
    65
 73
     2
 40
2.0
 49
1.0
 74
     0
 49
-1.0
 74
     0
  0
ENDTAB
  0
TABLE
  2
LAYER
  5
2
330
0
100
AcDbSymbolTable
 70
     7
  0
LAYER
  5
10
330
2
100
AcDbSymbolTableRecord
100
AcDbLayerTableRecord
  2
0
 70
     0
 62
     7
  6
Continuous
370
    -3
390
F
  0
LAYER
  5
DF
330
2
100
AcDbSymbolTableRecord
100
AcDbLayerTableRecord
  2
Defpoints
 70
     0
 62
     7
  6
Continuous
290
     0
370
    -3
390
F
  0
LAYER
  5
E4
330
2
100
AcDbSymbolTableRecord
100
AcDbLayerTableRecord
  2
図面枠ﾚｲﾔ
 70
     0
 62
     7
  6
Continuous
370
    -3
390
F
  0
LAYER
  5
109
330
2
100
AcDbSymbolTableRecord
100
AcDbLayerTableRecord
  2
GR1
 70
     0
 62
     7
  6
Continuous
370
    -3
390
F
  0
LAYER
  5
2C5
330
2
100
AcDbSymbolTableRecord
100
AcDbLayerTableRecord
  2
基準ﾚｲﾔｸﾞﾙｰﾌﾟ
 70
     0
 62
     7
  6
Continuous
370
    -3
390
F
  0
ENDTAB
  0
TABLE
  2
STYLE
  5
3
330
0
100
AcDbSymbolTable
 70
     3
  0
STYLE
  5
11
330
3
100
AcDbSymbolTableRecord
100
AcDbTextStyleTableRecord
  2
Standard
 70
     0
 40
0.0
 41
1.0
 50
0.0
 71
     0
 42
2.5
  3
txt
  4

  0
STYLE
  5
74
330
3
100
AcDbSymbolTableRecord
100
AcDbTextStyleTableRecord
  2
FX_VECTOR
 70
     0
 40
0.0
 41
1.0
 50
0.0
 71
     0
 42
2.5
  3
MONOTXT.SHX
  4
BigFont.shx
  0
STYLE
  5
E0
330
3
100
AcDbSymbolTableRecord
100
AcDbTextStyleTableRecord
  2
DEFAULT
 70
     0
 40
0.0
 41
1.0
 50
0.0
 71
     0
 42
2.5
  3

  4

1001
ACAD
1000
ＭＳ ゴシック
1071
    32817
  0
ENDTAB
  0
TABLE
  2
VIEW
  5
6
330
0
100
AcDbSymbolTable
 70
     0
  0
ENDTAB
  0
TABLE
  2
UCS
  5
7
330
0
100
AcDbSymbolTable
 70
     0
  0
ENDTAB
  0
TABLE
  2
APPID
  5
9
330
0
100
AcDbSymbolTable
 70
     2
  0
APPID
  5
12
330
9
100
AcDbSymbolTableRecord
100
AcDbRegAppTableRecord
  2
ACAD
 70
     0
  0
APPID
  5
401
330
9
100
AcDbSymbolTableRecord
100
AcDbRegAppTableRecord
  2
ACAD_MLEADERVER
 70
     0
  0
ENDTAB
  0
TABLE
  2
DIMSTYLE
  5
A
330
0
100
AcDbSymbolTable
 70
     2
100
AcDbDimStyleTable
  0
DIMSTYLE
105
27
330
A
100
AcDbSymbolTableRecord
100
AcDbDimStyleTableRecord
  2
ISO-25
 70
     0
 41
2.5
 42
0.625
 43
3.75
 44
1.25
 73
     0
 74
     0
 77
     1
 78
     8
140
2.5
141
2.5
143
0.03937007874016
147
0.625
171
     3
172
     1
178
     0
271
     2
272
     2
274
     3
278
    44
283
     0
284
     8
340
11
  0
DIMSTYLE
105
DE
330
A
100
AcDbSymbolTableRecord
100
AcDbDimStyleTableRecord
  2
FX_DIMINFO
 70
     0
 41
4.0
 42
1.0
 43
10.0
 44
1.0
 46
6.0
 73
     0
 74
     0
 77
     1
 78
     8
 79
     2
140
4.0
141
2.5
143
0.03937
147
1.0
171
     3
172
     1
173
     1
176
     7
177
     7
271
     2
178
     7
179
     2
271
     2
272
     2
274
     3
284
     8
340
74
341
78
343
78
344
7E
  0
ENDTAB
  0
TABLE
  2
BLOCK_RECORD
  5
1
330
0
100
AcDbSymbolTable
 70
    26
  0
BLOCK_RECORD
  5
1F
330
1
100
AcDbSymbolTableRecord
100
AcDbBlockTableRecord
  2
*Model_Space
340
22
  0
BLOCK_RECORD
  5
1B
330
1
100
AcDbSymbolTableRecord
100
AcDbBlockTableRecord
  2
*Paper_Space
340
1E
  0
BLOCK_RECORD
  5
23
330
1
100
AcDbSymbolTableRecord
100
AcDbBlockTableRecord
  2
*Paper_Space0
340
26
  0
BLOCK_RECORD
  5
75
330
1
100
AcDbSymbolTableRecord
100
AcDbBlockTableRecord
  2
FXTIP_NONE
340
0
  0
BLOCK_RECORD
  5
78
330
1
100
AcDbSymbolTableRecord
100
AcDbBlockTableRecord
  2
FXTIP_ARROW_S
340
0
102
{BLKREFS
331
116
331
11D
331
123
331
129
331
12F
331
135
331
13B
331
141
331
146
331
14C
331
2ED
331
36C
331
372
102
}
  0
BLOCK_RECORD
  5
7E
330
1
100
AcDbSymbolTableRecord
100
AcDbBlockTableRecord
  2
FXTIP_ARROW_E
340
0
102
{BLKREFS
331
117
331
11E
331
124
331
12A
331
130
331
136
331
13C
331
142
331
147
331
14D
331
2EE
331
36D
331
373
102
}
  0
BLOCK_RECORD
  5
84
330
1
100
AcDbSymbolTableRecord
100
AcDbBlockTableRecord
  2
FXTIP_BLACKDOT_S
340
0
  0
BLOCK_RECORD
  5
8A
330
1
100
AcDbSymbolTableRecord
100
AcDbBlockTableRecord
  2
FXTIP_BLACKDOT_E
340
0
  0
BLOCK_RECORD
  5
90
330
1
100
AcDbSymbolTableRecord
100
AcDbBlockTableRecord
  2
FXTIP_TRIANGLE_S
340
0
  0
BLOCK_RECORD
  5
97
330
1
100
AcDbSymbolTableRecord
100
AcDbBlockTableRecord
  2
FXTIP_TRIANGLE_E
340
0
  0
BLOCK_RECORD
  5
9E
330
1
100
AcDbSymbolTableRecord
100
AcDbBlockTableRecord
  2
FXTIP_ARCHITECT_S
340
0
  0
BLOCK_RECORD
  5
A4
330
1
100
AcDbSymbolTableRecord
100
AcDbBlockTableRecord
  2
FXTIP_ARCHITECT_E
340
0
  0
BLOCK_RECORD
  5
AA
330
1
100
AcDbSymbolTableRecord
100
AcDbBlockTableRecord
  2
FXTIP_CIVIL_S
340
0
  0
BLOCK_RECORD
  5
B0
330
1
100
AcDbSymbolTableRecord
100
AcDbBlockTableRecord
  2
FXTIP_CIVIL_E
340
0
  0
BLOCK_RECORD
  5
B6
330
1
100
AcDbSymbolTableRecord
100
AcDbBlockTableRecord
  2
FXTIP_WHITEDOT_S
340
0
  0
BLOCK_RECORD
  5
BB
330
1
100
AcDbSymbolTableRecord
100
AcDbBlockTableRecord
  2
FXTIP_WHITEDOT_E
340
0
  0
BLOCK_RECORD
  5
C0
330
1
100
AcDbSymbolTableRecord
100
AcDbBlockTableRecord
  2
FXTIP_UPARROW_S
340
0
  0
BLOCK_RECORD
  5
C5
330
1
100
AcDbSymbolTableRecord
100
AcDbBlockTableRecord
  2
FXTIP_UPARROW_E
340
0
  0
BLOCK_RECORD
  5
CA
330
1
100
AcDbSymbolTableRecord
100
AcDbBlockTableRecord
  2
FXTIP_DOWNARROW_S
340
0
  0
BLOCK_RECORD
  5
CF
330
1
100
AcDbSymbolTableRecord
100
AcDbBlockTableRecord
  2
FXTIP_DOWNARROW_E
340
0
  0
BLOCK_RECORD
  5
D4
330
1
100
AcDbSymbolTableRecord
100
AcDbBlockTableRecord
  2
FXTIP_BLACKTRIANGLE_S
340
0
  0
BLOCK_RECORD
  5
D9
330
1
100
AcDbSymbolTableRecord
100
AcDbBlockTableRecord
  2
FXTIP_BLACKTRIANGLE_E
340
0
  0
BLOCK_RECORD
  5
E1
330
1
100
AcDbSymbolTableRecord
100
AcDbBlockTableRecord
  2
BLKF023
340
0
102
{BLKREFS
331
E5
102
}
  0
BLOCK_RECORD
  5
EE
330
1
100
AcDbSymbolTableRecord
100
AcDbBlockTableRecord
  2
BLKF024
340
0
102
{BLKREFS
331
F1
102
}
  0
BLOCK_RECORD
  5
F6
330
1
100
AcDbSymbolTableRecord
100
AcDbBlockTableRecord
  2
BLKF025
340
0
102
{BLKREFS
331
F9
102
}
  0
BLOCK_RECORD
  5
334
330
1
100
AcDbSymbolTableRecord
100
AcDbBlockTableRecord
  2
BLKF026
340
0
102
{BLKREFS
331
337
102
}
  0
BLOCK_RECORD
  5
396
330
1
100
AcDbSymbolTableRecord
100
AcDbBlockTableRecord
  2
BLKF027
340
0
102
{BLKREFS
331
399
102
}
  0
BLOCK_RECORD
  5
3A8
330
1
100
AcDbSymbolTableRecord
100
AcDbBlockTableRecord
  2
BLKF028
340
0
102
{BLKREFS
331
3AB
102
}
  0
ENDTAB
  0
ENDSEC
  0
SECTION
  2
BLOCKS
  0
BLOCK
  5
20
330
1F
100
AcDbEntity
  8
0
100
AcDbBlockBegin
  2
*Model_Space
 70
     0
 10
0.0
 20
0.0
 30
0.0
  3
*Model_Space
  1

  0
ENDBLK
  5
21
330
1F
100
AcDbEntity
  8
0
100
AcDbBlockEnd
  0
BLOCK
  5
1C
330
1B
100
AcDbEntity
 67
     1
  8
0
100
AcDbBlockBegin
  2
*Paper_Space
 70
     0
 10
0.0
 20
0.0
 30
0.0
  3
*Paper_Space
  1

  0
ENDBLK
  5
1D
330
1B
100
AcDbEntity
 67
     1
  8
0
100
AcDbBlockEnd
  0
BLOCK
  5
24
330
23
100
AcDbEntity
  8
0
100
AcDbBlockBegin
  2
*Paper_Space0
 70
     0
 10
0.0
 20
0.0
 30
0.0
  3
*Paper_Space0
  1

  0
ENDBLK
  5
25
330
23
100
AcDbEntity
  8
0
100
AcDbBlockEnd
  0
BLOCK
  5
76
330
75
100
AcDbEntity
  8
0
100
AcDbBlockBegin
  2
FXTIP_NONE
 70
     0
 10
0.0
 20
0.0
 30
0.0
  3
FXTIP_NONE
  1

  0
ENDBLK
  5
77
330
75
100
AcDbEntity
  8
0
100
AcDbBlockEnd
  0
BLOCK
  5
79
330
78
100
AcDbEntity
  8
0
100
AcDbBlockBegin
  2
FXTIP_ARROW_S
 70
     0
 10
0.0
 20
0.0
 30
0.0
  3
FXTIP_ARROW_S
  1

  0
LINE
  5
7B
330
78
100
AcDbEntity
  8
0
  6
Continuous
 62
     0
370
    -2
100
AcDbLine
 10
0.0
 20
0.0
 30
0.0
 11
-1.0
 21
0.0000000000000001
 31
0.0
  0
LINE
  5
7C
330
78
100
AcDbEntity
  8
0
  6
Continuous
 62
     0
370
    -2
100
AcDbLine
 10
0.0
 20
0.0
 30
0.0
 11
-0.9659258262890683
 21
-0.2588190451025206
 31
0.0
  0
LINE
  5
7D
330
78
100
AcDbEntity
  8
0
  6
Continuous
 62
     0
370
    -2
100
AcDbLine
 10
0.0
 20
0.0
 30
0.0
 11
-0.9659258262890683
 21
0.2588190451025209
 31
0.0
  0
ENDBLK
  5
7A
330
78
100
AcDbEntity
  8
0
100
AcDbBlockEnd
  0
BLOCK
  5
7F
330
7E
100
AcDbEntity
  8
0
100
AcDbBlockBegin
  2
FXTIP_ARROW_E
 70
     0
 10
0.0
 20
0.0
 30
0.0
  3
FXTIP_ARROW_E
  1

  0
LINE
  5
81
330
7E
100
AcDbEntity
  8
0
  6
Continuous
 62
     0
370
    -2
100
AcDbLine
 10
0.0
 20
0.0
 30
0.0
 11
-1.0
 21
0.0
 31
0.0
  0
LINE
  5
82
330
7E
100
AcDbEntity
  8
0
  6
Continuous
 62
     0
370
    -2
100
AcDbLine
 10
0.0
 20
0.0
 30
0.0
 11
-0.9659258262890683
 21
0.2588190451025207
 31
0.0
  0
LINE
  5
83
330
7E
100
AcDbEntity
  8
0
  6
Continuous
 62
     0
370
    -2
100
AcDbLine
 10
0.0
 20
0.0
 30
0.0
 11
-0.9659258262890683
 21
-0.2588190451025207
 31
0.0
  0
ENDBLK
  5
80
330
7E
100
AcDbEntity
  8
0
100
AcDbBlockEnd
  0
BLOCK
  5
85
330
84
100
AcDbEntity
  8
0
100
AcDbBlockBegin
  2
FXTIP_BLACKDOT_S
 70
     0
 10
0.0
 20
0.0
 30
0.0
  3
FXTIP_BLACKDOT_S
  1

  0
LINE
  5
87
330
84
100
AcDbEntity
  8
0
  6
Continuous
 62
     0
370
    -2
100
AcDbLine
 10
0.0
 20
0.0
 30
0.0
 11
-1.0
 21
0.0000000000000001
 31
0.0
  0
LWPOLYLINE
  5
88
330
84
100
AcDbEntity
  8
0
  6
Continuous
 62
     0
370
    -2
100
AcDbPolyline
 90
        2
 70
     1
 43
0.0625
 10
-0.03125
 20
0.0
 42
1.0
 10
0.03125
 20
0.0
 42
1.0
  0
CIRCLE
  5
89
330
84
100
AcDbEntity
  8
0
  6
Continuous
 62
     0
370
    -2
100
AcDbCircle
 10
0.0
 20
0.0
 30
0.0
 40
0.0625
  0
ENDBLK
  5
86
330
84
100
AcDbEntity
  8
0
100
AcDbBlockEnd
  0
BLOCK
  5
8B
330
8A
100
AcDbEntity
  8
0
100
AcDbBlockBegin
  2
FXTIP_BLACKDOT_E
 70
     0
 10
0.0
 20
0.0
 30
0.0
  3
FXTIP_BLACKDOT_E
  1

  0
LINE
  5
8D
330
8A
100
AcDbEntity
  8
0
  6
Continuous
 62
     0
370
    -2
100
AcDbLine
 10
0.0
 20
0.0
 30
0.0
 11
-1.0
 21
0.0
 31
0.0
  0
LWPOLYLINE
  5
8E
330
8A
100
AcDbEntity
  8
0
  6
Continuous
 62
     0
370
    -2
100
AcDbPolyline
 90
        2
 70
     1
 43
0.0625
 10
-0.03125
 20
0.0
 42
1.0
 10
0.03125
 20
0.0
 42
1.0
  0
CIRCLE
  5
8F
330
8A
100
AcDbEntity
  8
0
  6
Continuous
 62
     0
370
    -2
100
AcDbCircle
 10
0.0
 20
0.0
 30
0.0
 40
0.0625
  0
ENDBLK
  5
8C
330
8A
100
AcDbEntity
  8
0
100
AcDbBlockEnd
  0
BLOCK
  5
91
330
90
100
AcDbEntity
  8
0
100
AcDbBlockBegin
  2
FXTIP_TRIANGLE_S
 70
     0
 10
0.0
 20
0.0
 30
0.0
  3
FXTIP_TRIANGLE_S
  1

  0
LINE
  5
93
330
90
100
AcDbEntity
  8
0
  6
Continuous
 62
     0
370
    -2
100
AcDbLine
 10
0.0
 20
0.0
 30
0.0
 11
-1.0
 21
0.0000000000000001
 31
0.0
  0
LINE
  5
94
330
90
100
AcDbEntity
  8
0
  6
Continuous
 62
     0
370
    -2
100
AcDbLine
 10
0.0
 20
0.0
 30
0.0
 11
-0.9659258262890683
 21
-0.2588190451025206
 31
0.0
  0
LINE
  5
95
330
90
100
AcDbEntity
  8
0
  6
Continuous
 62
     0
370
    -2
100
AcDbLine
 10
0.0
 20
0.0
 30
0.0
 11
-0.9659258262890683
 21
0.2588190451025209
 31
0.0
  0
LINE
  5
96
330
90
100
AcDbEntity
  8
0
  6
Continuous
 62
     0
370
    -2
100
AcDbLine
 10
-0.9659258262890683
 20
-0.2588190451025206
 30
0.0
 11
-0.9659258262890683
 21
0.2588190451025209
 31
0.0
  0
ENDBLK
  5
92
330
90
100
AcDbEntity
  8
0
100
AcDbBlockEnd
  0
BLOCK
  5
98
330
97
100
AcDbEntity
  8
0
100
AcDbBlockBegin
  2
FXTIP_TRIANGLE_E
 70
     0
 10
0.0
 20
0.0
 30
0.0
  3
FXTIP_TRIANGLE_E
  1

  0
LINE
  5
9A
330
97
100
AcDbEntity
  8
0
  6
Continuous
 62
     0
370
    -2
100
AcDbLine
 10
0.0
 20
0.0
 30
0.0
 11
-1.0
 21
0.0
 31
0.0
  0
LINE
  5
9B
330
97
100
AcDbEntity
  8
0
  6
Continuous
 62
     0
370
    -2
100
AcDbLine
 10
0.0
 20
0.0
 30
0.0
 11
-0.9659258262890683
 21
0.2588190451025207
 31
0.0
  0
LINE
  5
9C
330
97
100
AcDbEntity
  8
0
  6
Continuous
 62
     0
370
    -2
100
AcDbLine
 10
0.0
 20
0.0
 30
0.0
 11
-0.9659258262890683
 21
-0.2588190451025207
 31
0.0
  0
LINE
  5
9D
330
97
100
AcDbEntity
  8
0
  6
Continuous
 62
     0
370
    -2
100
AcDbLine
 10
-0.9659258262890683
 20
0.2588190451025207
 30
0.0
 11
-0.9659258262890683
 21
-0.2588190451025207
 31
0.0
  0
ENDBLK
  5
99
330
97
100
AcDbEntity
  8
0
100
AcDbBlockEnd
  0
BLOCK
  5
9F
330
9E
100
AcDbEntity
  8
0
100
AcDbBlockBegin
  2
FXTIP_ARCHITECT_S
 70
     0
 10
0.0
 20
0.0
 30
0.0
  3
FXTIP_ARCHITECT_S
  1

  0
LINE
  5
A1
330
9E
100
AcDbEntity
  8
0
  6
Continuous
 62
     0
370
    -2
100
AcDbLine
 10
0.0
 20
0.0
 30
0.0
 11
-1.0
 21
0.0000000000000001
 31
0.0
  0
LINE
  5
A2
330
9E
100
AcDbEntity
  8
0
  6
Continuous
 62
     0
370
    -2
100
AcDbLine
 10
0.0
 20
0.0
 30
0.0
 11
-0.7071067811865476
 21
-0.7071067811865474
 31
0.0
  0
LINE
  5
A3
330
9E
100
AcDbEntity
  8
0
  6
Continuous
 62
     0
370
    -2
100
AcDbLine
 10
0.0
 20
0.0
 30
0.0
 11
0.7071067811865476
 21
0.7071067811865474
 31
0.0
  0
ENDBLK
  5
A0
330
9E
100
AcDbEntity
  8
0
100
AcDbBlockEnd
  0
BLOCK
  5
A5
330
A4
100
AcDbEntity
  8
0
100
AcDbBlockBegin
  2
FXTIP_ARCHITECT_E
 70
     0
 10
0.0
 20
0.0
 30
0.0
  3
FXTIP_ARCHITECT_E
  1

  0
LINE
  5
A7
330
A4
100
AcDbEntity
  8
0
  6
Continuous
 62
     0
370
    -2
100
AcDbLine
 10
0.0
 20
0.0
 30
0.0
 11
-1.0
 21
0.0
 31
0.0
  0
LINE
  5
A8
330
A4
100
AcDbEntity
  8
0
  6
Continuous
 62
     0
370
    -2
100
AcDbLine
 10
0.0
 20
0.0
 30
0.0
 11
0.7071067811865475
 21
0.7071067811865475
 31
0.0
  0
LINE
  5
A9
330
A4
100
AcDbEntity
  8
0
  6
Continuous
 62
     0
370
    -2
100
AcDbLine
 10
0.0
 20
0.0
 30
0.0
 11
-0.7071067811865475
 21
-0.7071067811865475
 31
0.0
  0
ENDBLK
  5
A6
330
A4
100
AcDbEntity
  8
0
100
AcDbBlockEnd
  0
BLOCK
  5
AB
330
AA
100
AcDbEntity
  8
0
100
AcDbBlockBegin
  2
FXTIP_CIVIL_S
 70
     0
 10
0.0
 20
0.0
 30
0.0
  3
FXTIP_CIVIL_S
  1

  0
LINE
  5
AD
330
AA
100
AcDbEntity
  8
0
  6
Continuous
 62
     0
370
    -2
100
AcDbLine
 10
0.0
 20
0.0
 30
0.0
 11
-1.0
 21
0.0000000000000001
 31
0.0
  0
LINE
  5
AE
330
AA
100
AcDbEntity
  8
0
  6
Continuous
 62
     0
370
    -2
100
AcDbLine
 10
0.0
 20
-0.0625
 30
0.0
 11
-1.0
 21
-0.0624999999999999
 31
0.0
  0
LINE
  5
AF
330
AA
100
AcDbEntity
  8
0
  6
Continuous
 62
     0
370
    -2
100
AcDbLine
 10
0.0
 20
-0.125
 30
0.0
 11
-1.0
 21
-0.1249999999999999
 31
0.0
  0
ENDBLK
  5
AC
330
AA
100
AcDbEntity
  8
0
100
AcDbBlockEnd
  0
BLOCK
  5
B1
330
B0
100
AcDbEntity
  8
0
100
AcDbBlockBegin
  2
FXTIP_CIVIL_E
 70
     0
 10
0.0
 20
0.0
 30
0.0
  3
FXTIP_CIVIL_E
  1

  0
LINE
  5
B3
330
B0
100
AcDbEntity
  8
0
  6
Continuous
 62
     0
370
    -2
100
AcDbLine
 10
0.0
 20
0.0
 30
0.0
 11
-1.0
 21
0.0
 31
0.0
  0
LINE
  5
B4
330
B0
100
AcDbEntity
  8
0
  6
Continuous
 62
     0
370
    -2
100
AcDbLine
 10
0.0
 20
0.0625
 30
0.0
 11
-1.0
 21
0.0625
 31
0.0
  0
LINE
  5
B5
330
B0
100
AcDbEntity
  8
0
  6
Continuous
 62
     0
370
    -2
100
AcDbLine
 10
0.0
 20
0.125
 30
0.0
 11
-1.0
 21
0.125
 31
0.0
  0
ENDBLK
  5
B2
330
B0
100
AcDbEntity
  8
0
100
AcDbBlockEnd
  0
BLOCK
  5
B7
330
B6
100
AcDbEntity
  8
0
100
AcDbBlockBegin
  2
FXTIP_WHITEDOT_S
 70
     0
 10
0.0
 20
0.0
 30
0.0
  3
FXTIP_WHITEDOT_S
  1

  0
LINE
  5
B9
330
B6
100
AcDbEntity
  8
0
  6
Continuous
 62
     0
370
    -2
100
AcDbLine
 10
0.0
 20
0.0
 30
0.0
 11
-1.0
 21
0.0000000000000001
 31
0.0
  0
CIRCLE
  5
BA
330
B6
100
AcDbEntity
  8
0
  6
Continuous
 62
     0
370
    -2
100
AcDbCircle
 10
0.0
 20
0.0
 30
0.0
 40
0.0625
  0
ENDBLK
  5
B8
330
B6
100
AcDbEntity
  8
0
100
AcDbBlockEnd
  0
BLOCK
  5
BC
330
BB
100
AcDbEntity
  8
0
100
AcDbBlockBegin
  2
FXTIP_WHITEDOT_E
 70
     0
 10
0.0
 20
0.0
 30
0.0
  3
FXTIP_WHITEDOT_E
  1

  0
LINE
  5
BE
330
BB
100
AcDbEntity
  8
0
  6
Continuous
 62
     0
370
    -2
100
AcDbLine
 10
0.0
 20
0.0
 30
0.0
 11
-1.0
 21
0.0
 31
0.0
  0
CIRCLE
  5
BF
330
BB
100
AcDbEntity
  8
0
  6
Continuous
 62
     0
370
    -2
100
AcDbCircle
 10
0.0
 20
0.0
 30
0.0
 40
0.0625
  0
ENDBLK
  5
BD
330
BB
100
AcDbEntity
  8
0
100
AcDbBlockEnd
  0
BLOCK
  5
C1
330
C0
100
AcDbEntity
  8
0
100
AcDbBlockBegin
  2
FXTIP_UPARROW_S
 70
     0
 10
0.0
 20
0.0
 30
0.0
  3
FXTIP_UPARROW_S
  1

  0
LINE
  5
C3
330
C0
100
AcDbEntity
  8
0
  6
Continuous
 62
     0
370
    -2
100
AcDbLine
 10
0.0
 20
0.0
 30
0.0
 11
-1.0
 21
0.0000000000000001
 31
0.0
  0
LINE
  5
C4
330
C0
100
AcDbEntity
  8
0
  6
Continuous
 62
     0
370
    -2
100
AcDbLine
 10
0.0
 20
0.0
 30
0.0
 11
-0.9659258262890683
 21
-0.2588190451025206
 31
0.0
  0
ENDBLK
  5
C2
330
C0
100
AcDbEntity
  8
0
100
AcDbBlockEnd
  0
BLOCK
  5
C6
330
C5
100
AcDbEntity
  8
0
100
AcDbBlockBegin
  2
FXTIP_UPARROW_E
 70
     0
 10
0.0
 20
0.0
 30
0.0
  3
FXTIP_UPARROW_E
  1

  0
LINE
  5
C8
330
C5
100
AcDbEntity
  8
0
  6
Continuous
 62
     0
370
    -2
100
AcDbLine
 10
0.0
 20
0.0
 30
0.0
 11
-1.0
 21
0.0
 31
0.0
  0
LINE
  5
C9
330
C5
100
AcDbEntity
  8
0
  6
Continuous
 62
     0
370
    -2
100
AcDbLine
 10
0.0
 20
0.0
 30
0.0
 11
-0.9659258262890683
 21
0.2588190451025207
 31
0.0
  0
ENDBLK
  5
C7
330
C5
100
AcDbEntity
  8
0
100
AcDbBlockEnd
  0
BLOCK
  5
CB
330
CA
100
AcDbEntity
  8
0
100
AcDbBlockBegin
  2
FXTIP_DOWNARROW_S
 70
     0
 10
0.0
 20
0.0
 30
0.0
  3
FXTIP_DOWNARROW_S
  1

  0
LINE
  5
CD
330
CA
100
AcDbEntity
  8
0
  6
Continuous
 62
     0
370
    -2
100
AcDbLine
 10
0.0
 20
0.0
 30
0.0
 11
-1.0
 21
0.0000000000000001
 31
0.0
  0
LINE
  5
CE
330
CA
100
AcDbEntity
  8
0
  6
Continuous
 62
     0
370
    -2
100
AcDbLine
 10
0.0
 20
0.0
 30
0.0
 11
-0.9659258262890683
 21
0.2588190451025209
 31
0.0
  0
ENDBLK
  5
CC
330
CA
100
AcDbEntity
  8
0
100
AcDbBlockEnd
  0
BLOCK
  5
D0
330
CF
100
AcDbEntity
  8
0
100
AcDbBlockBegin
  2
FXTIP_DOWNARROW_E
 70
     0
 10
0.0
 20
0.0
 30
0.0
  3
FXTIP_DOWNARROW_E
  1

  0
LINE
  5
D2
330
CF
100
AcDbEntity
  8
0
  6
Continuous
 62
     0
370
    -2
100
AcDbLine
 10
0.0
 20
0.0
 30
0.0
 11
-1.0
 21
0.0
 31
0.0
  0
LINE
  5
D3
330
CF
100
AcDbEntity
  8
0
  6
Continuous
 62
     0
370
    -2
100
AcDbLine
 10
0.0
 20
0.0
 30
0.0
 11
-0.9659258262890683
 21
-0.2588190451025207
 31
0.0
  0
ENDBLK
  5
D1
330
CF
100
AcDbEntity
  8
0
100
AcDbBlockEnd
  0
BLOCK
  5
D5
330
D4
100
AcDbEntity
  8
0
100
AcDbBlockBegin
  2
FXTIP_BLACKTRIANGLE_S
 70
     0
 10
0.0
 20
0.0
 30
0.0
  3
FXTIP_BLACKTRIANGLE_S
  1

  0
LINE
  5
D7
330
D4
100
AcDbEntity
  8
0
  6
Continuous
 62
     0
370
    -2
100
AcDbLine
 10
0.0
 20
0.0
 30
0.0
 11
-1.0
 21
0.0000000000000001
 31
0.0
  0
SOLID
  5
D8
330
D4
100
AcDbEntity
  8
0
  6
Continuous
 62
     0
370
    -2
100
AcDbTrace
 10
0.0
 20
0.0
 30
0.0
 11
-0.9659258262890683
 21
-0.2588190451025206
 31
0.0
 12
-0.9659258262890683
 22
0.2588190451025209
 32
0.0
 13
-0.9659258262890683
 23
0.2588190451025209
 33
0.0
  0
ENDBLK
  5
D6
330
D4
100
AcDbEntity
  8
0
100
AcDbBlockEnd
  0
BLOCK
  5
DA
330
D9
100
AcDbEntity
  8
0
100
AcDbBlockBegin
  2
FXTIP_BLACKTRIANGLE_E
 70
     0
 10
0.0
 20
0.0
 30
0.0
  3
FXTIP_BLACKTRIANGLE_E
  1

  0
LINE
  5
DC
330
D9
100
AcDbEntity
  8
0
  6
Continuous
 62
     0
370
    -2
100
AcDbLine
 10
0.0
 20
0.0
 30
0.0
 11
-1.0
 21
0.0
 31
0.0
  0
SOLID
  5
DD
330
D9
100
AcDbEntity
  8
0
  6
Continuous
 62
     0
370
    -2
100
AcDbTrace
 10
0.0
 20
0.0
 30
0.0
 11
-0.9659258262890683
 21
0.2588190451025207
 31
0.0
 12
-0.9659258262890683
 22
-0.2588190451025207
 32
0.0
 13
-0.9659258262890683
 23
-0.2588190451025207
 33
0.0
  0
ENDBLK
  5
DB
330
D9
100
AcDbEntity
  8
0
100
AcDbBlockEnd
  0
BLOCK
  5
E2
330
E1
100
AcDbEntity
  8
0
100
AcDbBlockBegin
  2
BLKF023
 70
     0
 10
0.0
 20
0.0
 30
0.0
  3
BLKF023
  1

  0
LINE
  5
E6
330
E1
100
AcDbEntity
  8
図面枠ﾚｲﾔ
  6
Continuous
 62
     7
370
    50
100
AcDbLine
 10
10.0
 20
10.0
 30
0.0
 11
584.0
 21
10.0
 31
0.0
  0
LINE
  5
E7
330
E1
100
AcDbEntity
  8
図面枠ﾚｲﾔ
  6
Continuous
 62
     7
370
    50
100
AcDbLine
 10
10.0
 20
10.0
 30
0.0
 11
10.0
 21
410.0
 31
0.0
  0
LINE
  5
E8
330
E1
100
AcDbEntity
  8
図面枠ﾚｲﾔ
  6
Continuous
 62
     7
370
    50
100
AcDbLine
 10
10.0
 20
410.0
 30
0.0
 11
584.0
 21
410.0
 31
0.0
  0
LINE
  5
E9
330
E1
100
AcDbEntity
  8
図面枠ﾚｲﾔ
  6
Continuous
 62
     7
370
    50
100
AcDbLine
 10
584.0
 20
410.0
 30
0.0
 11
584.0
 21
10.0
 31
0.0
  0
LINE
  5
EA
330
E1
100
AcDbEntity
  8
図面枠ﾚｲﾔ
  6
Continuous
 62
     7
370
    25
100
AcDbLine
 10
327.0
 20
9.999999999999998
 30
0.0
 11
327.0
 21
20.0
 31
0.0
  0
TEXT
  5
EB
330
E1
100
AcDbEntity
  8
図面枠ﾚｲﾔ
  6
Continuous
 62
     7
370
    25
100
AcDbText
 10
311.7388305664062
 20
11.59687900543213
 30
0.0
 40
6.648748874664307
  1
品名
 41
1.083413404130886
  7
FX_VECTOR
 72
     5
 11
323.05837059021
 21
11.59687900543213
 31
0.0
100
AcDbText
  0
LINE
  5
EC
330
E1
100
AcDbEntity
  8
図面枠ﾚｲﾔ
  6
Continuous
 62
     7
370
    50
100
AcDbLine
 10
407.0
 20
20.0
 30
0.0
 11
407.0
 21
10.0
 31
0.0
  0
LINE
  5
ED
330
E1
100
AcDbEntity
  8
図面枠ﾚｲﾔ
  6
Continuous
 62
     7
370
    50
100
AcDbLine
 10
307.0
 20
20.0
 30
0.0
 11
584.0
 21
20.0
 31
0.0
  0
INSERT
  5
F1
330
E1
100
AcDbEntity
  8
0
  6
Continuous
 62
     7
370
    25
100
AcDbBlockReference
  2
BLKF024
 10
0.0
 20
0.0
 30
0.0
  0
INSERT
  5
F9
330
E1
100
AcDbEntity
  8
0
  6
Continuous
 62
     7
370
    25
100
AcDbBlockReference
  2
BLKF025
 10
0.0
 20
0.0
 30
0.0
  0
HATCH
  5
10A
330
E1
100
AcDbEntity
  8
GR1
  6
Continuous
 62
     7
370
    25
100
AcDbHatch
 10
0.0
 20
0.0
 30
0.0
210
0.0
220
0.0
230
1.0
  2
_USER
 70
     0
 71
     0
 91
        2
 92
        0
 93
        4
 72
     1
 10
512.8018997861325
 20
17.91346152
 11
518.8018997861325
 21
17.91346152
 72
     1
 10
518.8018997861325
 20
17.91346152
 11
518.8018997861325
 21
11.91346152
 72
     1
 10
518.8018997861325
 20
11.91346152
 11
512.8018997861325
 21
11.91346152
 72
     1
 10
512.8018997861325
 20
11.91346152
 11
512.8018997861325
 21
17.91346152
 97
        0
 92
        0
 93
       15
 72
     1
 10
515.8018997861325
 20
17.76923076000002
 11
512.9461305461325
 21
14.91346152
 72
     1
 10
512.9461305461325
 20
14.91346152
 11
515.8018997861325
 21
12.05769228000001
 72
     1
 10
515.8018997861325
 20
12.05769228000001
 11
517.3595920661326
 21
13.61538462
 72
     1
 10
517.3595920661326
 20
13.61538462
 11
517.3595920661326
 21
12.98076924
 72
     1
 10
517.3595920661326
 20
12.98076924
 11
518.2249766861325
 21
12.98076924
 72
     1
 10
518.2249766861325
 20
12.98076924
 11
518.2249766861325
 21
15.00000000000001
 72
     1
 10
518.2249766861325
 20
15.00000000000001
 11
515.8018997861325
 21
15.00000000000001
 72
     1
 10
515.8018997861325
 20
15.00000000000001
 11
515.8018997861325
 21
14.13461538000001
 72
     1
 10
515.8018997861325
 20
14.13461538000001
 11
516.2461305461325
 21
14.13461538000001
 72
     1
 10
516.2461305461325
 20
14.13461538000001
 11
515.8018997861325
 21
13.69038462
 72
     1
 10
515.8018997861325
 20
13.69038462
 11
514.5788228861325
 21
14.91346152
 72
     1
 10
514.5788228861325
 20
14.91346152
 11
515.8018997861325
 21
16.13653842000003
 72
     1
 10
515.8018997861325
 20
16.13653842000003
 11
516.5922844061325
 21
15.3461538
 72
     1
 10
516.5922844061325
 20
15.3461538
 11
518.2249766861325
 21
15.3461538
 72
     1
 10
518.2249766861325
 20
15.3461538
 11
515.8018997861325
 21
17.76923076000002
 97
        0
 75
     0
 76
     0
 52
45.0
 41
0.05
 77
     0
 78
     1
 53
45.0
 43
0.0
 44
0.0
 45
-0.0353553390593274
 46
0.0353553390593274
 79
     0
 98
        0
  0
TEXT
  5
10B
330
E1
100
AcDbEntity
  8
図面枠ﾚｲﾔ
  6
Continuous
 62
     7
370
    25
100
AcDbText
 10
523.2257690429688
 20
11.46128463745117
 30
0.0
 40
7.170907974243164
  1
ＧＯＬＤ　ＣＡＳＴＥＲ
 41
0.702117011671778
  7
FX_VECTOR
 72
     5
 11
569.9776363372803
 21
11.46128463745117
 31
0.0
100
AcDbText
  0
LINE
  5
10C
330
E1
100
AcDbEntity
  8
図面枠ﾚｲﾔ
  6
Continuous
 62
     7
370
    25
100
AcDbLine
 10
427.0
 20
9.999999999999998
 30
0.0
 11
427.0
 21
20.0
 31
0.0
  0
TEXT
  5
10D
330
E1
100
AcDbEntity
  8
図面枠ﾚｲﾔ
  6
Continuous
 62
     7
370
    25
100
AcDbText
 10
411.7388305664062
 20
11.59687900543213
 30
0.0
 40
6.648748874664307
  1
図番
 41
1.083413404130886
  7
FX_VECTOR
 72
     5
 11
423.05837059021
 21
11.59687900543213
 31
0.0
100
AcDbText
  0
LINE
  5
10E
330
E1
100
AcDbEntity
  8
図面枠ﾚｲﾔ
  6
Continuous
 62
     7
370
    50
100
AcDbLine
 10
507.0
 20
20.0
 30
0.0
 11
507.0
 21
10.0
 31
0.0
  0
LINE
  5
10F
330
E1
100
AcDbEntity
  8
図面枠ﾚｲﾔ
  6
Continuous
 62
     7
370
    50
100
AcDbLine
 10
307.0
 20
20.0
 30
0.0
 11
307.0
 21
10.0
 31
0.0
  0
ENDBLK
  5
E3
330
E1
100
AcDbEntity
  8
0
100
AcDbBlockEnd
  0
BLOCK
  5
EF
330
EE
100
AcDbEntity
  8
0
100
AcDbBlockBegin
  2
BLKF024
 70
     0
 10
0.0
 20
0.0
 30
0.0
  3
BLKF024
  1

  0
LINE
  5
F2
330
EE
100
AcDbEntity
  8
0
  6
Continuous
 62
     7
370
    25
100
AcDbLine
 10
518.8018997861325
 20
17.91346152
 30
0.0
 11
512.8018997861325
 21
17.91346152
 31
0.0
  0
LINE
  5
F3
330
EE
100
AcDbEntity
  8
0
  6
Continuous
 62
     7
370
    25
100
AcDbLine
 10
512.8018997861325
 20
17.91346152
 30
0.0
 11
512.8018997861325
 21
11.91346152
 31
0.0
  0
LINE
  5
F4
330
EE
100
AcDbEntity
  8
0
  6
Continuous
 62
     7
370
    25
100
AcDbLine
 10
512.8018997861325
 20
11.91346152
 30
0.0
 11
518.8018997861325
 21
11.91346152
 31
0.0
  0
LINE
  5
F5
330
EE
100
AcDbEntity
  8
0
  6
Continuous
 62
     7
370
    25
100
AcDbLine
 10
518.8018997861325
 20
11.91346152
 30
0.0
 11
518.8018997861325
 21
17.91346152
 31
0.0
  0
ENDBLK
  5
F0
330
EE
100
AcDbEntity
  8
0
100
AcDbBlockEnd
  0
BLOCK
  5
F7
330
F6
100
AcDbEntity
  8
0
100
AcDbBlockBegin
  2
BLKF025
 70
     0
 10
0.0
 20
0.0
 30
0.0
  3
BLKF025
  1

  0
LINE
  5
FA
330
F6
100
AcDbEntity
  8
0
  6
Continuous
 62
     7
370
    25
100
AcDbLine
 10
518.2249766861325
 20
15.3461538
 30
0.0
 11
515.8018997861325
 21
17.76923076000002
 31
0.0
  0
LINE
  5
FB
330
F6
100
AcDbEntity
  8
0
  6
Continuous
 62
     7
370
    25
100
AcDbLine
 10
515.8018997861325
 20
17.76923076000002
 30
0.0
 11
512.9461305461325
 21
14.91346152
 31
0.0
  0
LINE
  5
FC
330
F6
100
AcDbEntity
  8
0
  6
Continuous
 62
     7
370
    25
100
AcDbLine
 10
512.9461305461325
 20
14.91346152
 30
0.0
 11
515.8018997861325
 21
12.05769228000001
 31
0.0
  0
LINE
  5
FD
330
F6
100
AcDbEntity
  8
0
  6
Continuous
 62
     7
370
    25
100
AcDbLine
 10
515.8018997861325
 20
12.05769228000001
 30
0.0
 11
517.3595920661326
 21
13.61538462
 31
0.0
  0
LINE
  5
FE
330
F6
100
AcDbEntity
  8
0
  6
Continuous
 62
     7
370
    25
100
AcDbLine
 10
517.3595920661326
 20
13.61538462
 30
0.0
 11
517.3595920661326
 21
12.98076924
 31
0.0
  0
LINE
  5
FF
330
F6
100
AcDbEntity
  8
0
  6
Continuous
 62
     7
370
    25
100
AcDbLine
 10
517.3595920661326
 20
12.98076924
 30
0.0
 11
518.2249766861325
 21
12.98076924
 31
0.0
  0
LINE
  5
100
330
F6
100
AcDbEntity
  8
0
  6
Continuous
 62
     7
370
    25
100
AcDbLine
 10
518.2249766861325
 20
12.98076924
 30
0.0
 11
518.2249766861325
 21
15.00000000000001
 31
0.0
  0
LINE
  5
101
330
F6
100
AcDbEntity
  8
0
  6
Continuous
 62
     7
370
    25
100
AcDbLine
 10
518.2249766861325
 20
15.00000000000001
 30
0.0
 11
515.8018997861325
 21
15.00000000000001
 31
0.0
  0
LINE
  5
102
330
F6
100
AcDbEntity
  8
0
  6
Continuous
 62
     7
370
    25
100
AcDbLine
 10
515.8018997861325
 20
15.00000000000001
 30
0.0
 11
515.8018997861325
 21
14.13461538000001
 31
0.0
  0
LINE
  5
103
330
F6
100
AcDbEntity
  8
0
  6
Continuous
 62
     7
370
    25
100
AcDbLine
 10
515.8018997861325
 20
14.13461538000001
 30
0.0
 11
516.2461305461325
 21
14.13461538000001
 31
0.0
  0
LINE
  5
104
330
F6
100
AcDbEntity
  8
0
  6
Continuous
 62
     7
370
    25
100
AcDbLine
 10
516.2461305461325
 20
14.13461538000001
 30
0.0
 11
515.8018997861325
 21
13.69038462
 31
0.0
  0
LINE
  5
105
330
F6
100
AcDbEntity
  8
0
  6
Continuous
 62
     7
370
    25
100
AcDbLine
 10
515.8018997861325
 20
13.69038462
 30
0.0
 11
514.5788228861325
 21
14.91346152
 31
0.0
  0
LINE
  5
106
330
F6
100
AcDbEntity
  8
0
  6
Continuous
 62
     7
370
    25
100
AcDbLine
 10
514.5788228861325
 20
14.91346152
 30
0.0
 11
515.8018997861325
 21
16.13653842000003
 31
0.0
  0
LINE
  5
107
330
F6
100
AcDbEntity
  8
0
  6
Continuous
 62
     7
370
    25
100
AcDbLine
 10
515.8018997861325
 20
16.13653842000003
 30
0.0
 11
516.5922844061325
 21
15.3461538
 31
0.0
  0
LINE
  5
108
330
F6
100
AcDbEntity
  8
0
  6
Continuous
 62
     7
370
    25
100
AcDbLine
 10
516.5922844061325
 20
15.3461538
 30
0.0
 11
518.2249766861325
 21
15.3461538
 31
0.0
  0
ENDBLK
  5
F8
330
F6
100
AcDbEntity
  8
0
100
AcDbBlockEnd
  0
BLOCK
  5
335
330
334
100
AcDbEntity
  8
0
100
AcDbBlockBegin
  2
BLKF026
 70
     0
 10
0.0
 20
0.0
 30
0.0
  3
BLKF026
  1

  0
LINE
  5
338
330
334
100
AcDbEntity
  8
GR1
  6
Continuous
 62
     3
370
    50
100
AcDbLine
 10
353.7528405191478
 20
357.5001274310707
 30
0.0
 11
353.7528405191478
 21
363.535166686576
 31
0.0
  0
LINE
  5
339
330
334
100
AcDbEntity
  8
GR1
  6
Continuous
 62
     3
370
    50
100
AcDbLine
 10
354.2528405191478
 20
364.5176470588232
 30
0.0
 11
375.2528405191478
 21
364.5176470588232
 31
0.0
  0
LINE
  5
33A
330
334
100
AcDbEntity
  8
GR1
  6
Continuous
 62
     3
370
    50
100
AcDbLine
 10
375.7528405191478
 20
363.535166686576
 30
0.0
 11
375.7528405191478
 21
357.5001274310707
 31
0.0
  0
ARC
  5
33B
330
334
100
AcDbEntity
  8
GR1
  6
Continuous
 62
     3
370
    50
100
AcDbCircle
 10
370.2528405191479
 20
348.6316972914767
 30
0.0
 40
15.88594976734669
100
AcDbArc
 50
69.74384199958587
 51
110.2561580004148
  0
ARC
  5
33C
330
334
100
AcDbEntity
  8
GR1
  6
Continuous
 62
     3
370
    50
100
AcDbCircle
 10
359.2528405191477
 20
348.6316972914767
 30
0.0
 40
15.88594976734669
100
AcDbArc
 50
69.74384199958521
 51
110.2561580004142
  0
LINE
  5
33D
330
334
100
AcDbEntity
  8
GR1
  6
Continuous
 62
     3
370
    50
100
AcDbLine
 10
364.7528405191478
 20
357.5001274310707
 30
0.0
 11
364.7528405191478
 21
363.5351666865759
 31
0.0
  0
LINE
  5
33E
330
334
100
AcDbEntity
  8
GR1
  6
Continuous
 62
     3
370
    50
100
AcDbLine
 10
375.7528405191478
 20
363.535166686576
 30
0.0
 11
374.0511345969761
 21
364.5176470588235
 31
0.0
  0
LINE
  5
33F
330
334
100
AcDbEntity
  8
GR1
  6
Continuous
 62
     3
370
    50
100
AcDbLine
 10
354.2528405191478
 20
356.5176470588235
 30
0.0
 11
375.2528405191478
 21
356.5176470588235
 31
0.0
  0
ARC
  5
340
330
334
100
AcDbEntity
  8
GR1
  6
Continuous
 62
     3
370
    50
100
AcDbCircle
 10
370.2528405191479
 20
372.40359682617
 30
0.0
 40
15.88594976734669
100
AcDbArc
 50
249.7438419995852
 51
290.2561580004141
  0
ARC
  5
341
330
334
100
AcDbEntity
  8
GR1
  6
Continuous
 62
     3
370
    50
100
AcDbCircle
 10
359.2528405191477
 20
372.40359682617
 30
0.0
 40
15.88594976734669
100
AcDbArc
 50
249.7438419995858
 51
290.2561580004148
  0
LINE
  5
342
330
334
100
AcDbEntity
  8
基準ﾚｲﾔｸﾞﾙｰﾌﾟ
  6
Continuous
 62
     3
370
    50
100
AcDbLine
 10
353.7528405191478
 20
363.535166686576
 30
0.0
 11
354.2528405191478
 21
364.5176470588232
 31
0.0
  0
LINE
  5
343
330
334
100
AcDbEntity
  8
基準ﾚｲﾔｸﾞﾙｰﾌﾟ
  6
Continuous
 62
     3
370
    50
100
AcDbLine
 10
375.7528405191478
 20
363.535166686576
 30
0.0
 11
375.2528405191478
 21
364.5176470588232
 31
0.0
  0
LINE
  5
344
330
334
100
AcDbEntity
  8
基準ﾚｲﾔｸﾞﾙｰﾌﾟ
  6
Continuous
 62
     3
370
    50
100
AcDbLine
 10
353.7528405191478
 20
357.5001274310707
 30
0.0
 11
354.2528405191478
 21
356.5176470588235
 31
0.0
  0
LINE
  5
345
330
334
100
AcDbEntity
  8
基準ﾚｲﾔｸﾞﾙｰﾌﾟ
  6
Continuous
 62
     3
370
    50
100
AcDbLine
 10
375.7528405191478
 20
357.5001274310707
 30
0.0
 11
375.2528405191478
 21
356.5176470588235
 31
0.0
  0
ENDBLK
  5
336
330
334
100
AcDbEntity
  8
0
100
AcDbBlockEnd
  0
BLOCK
  5
397
330
396
100
AcDbEntity
  8
0
100
AcDbBlockBegin
  2
BLKF027
 70
     0
 10
0.0
 20
0.0
 30
0.0
  3
BLKF027
  1

  0
TEXT
  5
39A
330
396
100
AcDbEntity
  8
基準ﾚｲﾔｸﾞﾙｰﾌﾟ
  6
Continuous
 62
     7
370
    25
100
AcDbText
 10
422.3725280761719
 20
106.1176147460938
 30
0.0
 40
6.0
  1
Ｃ
 50
270.0
 41
0.9333333333333333
  7
FX_VECTOR
 72
     5
 11
422.3725280761719
 21
102.1176147460938
 31
0.0
100
AcDbText
  0
TEXT
  5
39B
330
396
100
AcDbEntity
  8
基準ﾚｲﾔｸﾞﾙｰﾌﾟ
  6
Continuous
 62
     7
370
    25
100
AcDbText
 10
422.1345131056341
 20
110.1117522348872
 30
0.0
 40
6.0
  1
　
 50
273.4110107421878
 41
0.9333333333333362
  7
FX_VECTOR
 72
     5
 11
422.3725059373347
 21
106.1188385854253
 31
0.0
100
AcDbText
  0
TEXT
  5
39C
330
396
100
AcDbEntity
  8
基準ﾚｲﾔｸﾞﾙｰﾌﾟ
  6
Continuous
 62
     7
370
    25
100
AcDbText
 10
421.6593098969728
 20
114.0845947358273
 30
0.0
 40
6.0
  1
Ｄ
 50
276.8220214843759
 41
0.9333333333333318
  7
FX_VECTOR
 72
     5
 11
422.1344523100585
 21
110.1129150297977
 31
0.0
100
AcDbText
  0
TEXT
  5
39D
330
396
100
AcDbEntity
  8
基準ﾚｲﾔｸﾞﾙｰﾌﾟ
  6
Continuous
 62
     7
370
    25
100
AcDbText
 10
420.9484982494227
 20
118.0221417807681
 30
0.0
 40
6.0
  1
Ｌ
 50
280.2330322265624
 41
0.9333333333333301
  7
FX_VECTOR
 72
     5
 11
421.6591067310461
 21
114.0857683754819
 31
0.0
100
AcDbText
  0
TEXT
  5
39E
330
396
100
AcDbEntity
  8
基準ﾚｲﾔｸﾞﾙｰﾌﾟ
  6
Continuous
 62
     7
370
    25
100
AcDbText
 10
420.0046936125868
 20
121.9104180832621
 30
0.0
 40
6.0
  1
Ｏ
 50
283.6440124511726
 41
0.9333333333333373
  7
FX_VECTOR
 72
     5
 11
420.9482482819445
 21
118.0232977370504
 31
0.0
100
AcDbText
  0
TEXT
  5
39F
330
396
100
AcDbEntity
  8
基準ﾚｲﾔｸﾞﾙｰﾌﾟ
  6
Continuous
 62
     7
370
    25
100
AcDbText
 10
418.8312362750285
 20
125.7356554784207
 30
0.0
 40
6.0
  1
Ｇ
 50
287.0550231933591
 41
0.9333333333333294
  7
FX_VECTOR
 72
     5
 11
420.0043960491903
 21
121.9115613184543
 31
0.0
100
AcDbText
  0
TEXT
  5
3A0
330
396
100
AcDbEntity
  8
基準ﾚｲﾔｸﾞﾙｰﾌﾟ
  6
Continuous
 62
     7
370
    25
100
AcDbText
 10
422.3725059373347
 20
102.1164519419185
 30
0.0
 40
6.0
  1
Ａ
 50
266.5889892578122
 41
0.9333333333333362
  7
FX_VECTOR
 72
     5
 11
422.1345131056341
 21
98.12353829245654
 31
0.0
100
AcDbText
  0
TEXT
  5
3A1
330
396
100
AcDbEntity
  8
基準ﾚｲﾔｸﾞﾙｰﾌﾟ
  6
Continuous
 62
     7
370
    25
100
AcDbText
 10
422.1344523100584
 20
98.12237549754603
 30
0.0
 40
6.0
  1
Ｓ
 50
263.1779785156258
 41
0.9333333333333287
  7
FX_VECTOR
 72
     5
 11
421.6593098969728
 21
94.15069579151647
 31
0.0
100
AcDbText
  0
TEXT
  5
3A2
330
396
100
AcDbEntity
  8
基準ﾚｲﾔｸﾞﾙｰﾌﾟ
  6
Continuous
 62
     7
370
    25
100
AcDbText
 10
421.6591056827264
 20
94.14952234110808
 30
0.0
 40
6.0
  1
Ｔ
 50
259.7669982910155
 41
0.9333333333333317
  7
FX_VECTOR
 72
     5
 11
420.9484992977424
 21
90.21314855732942
 31
0.0
100
AcDbText
  0
TEXT
  5
3A3
330
396
100
AcDbEntity
  8
基準ﾚｲﾔｸﾞﾙｰﾌﾟ
  6
Continuous
 62
     7
370
    25
100
AcDbText
 10
420.9482482819445
 20
90.21199279029338
 30
0.0
 40
6.0
  1
Ｅ
 50
256.3559875488274
 41
0.9333333333333373
  7
FX_VECTOR
 72
     5
 11
420.0046936125868
 21
86.32487244408162
 31
0.0
100
AcDbText
  0
TEXT
  5
3A4
330
396
100
AcDbEntity
  8
基準ﾚｲﾔｸﾞﾙｰﾌﾟ
  6
Continuous
 62
     7
370
    25
100
AcDbText
 10
420.0043960491903
 20
86.3237292088894
 30
0.0
 40
6.0
  1
Ｒ
 50
252.9449768066409
 41
0.9333333333333294
  7
FX_VECTOR
 72
     5
 11
418.8312362750285
 21
82.4996350489231
 31
0.0
100
AcDbText
  0
ENDBLK
  5
398
330
396
100
AcDbEntity
  8
0
100
AcDbBlockEnd
  0
BLOCK
  5
3A9
330
3A8
100
AcDbEntity
  8
0
100
AcDbBlockBegin
  2
BLKF028
 70
     0
 10
0.0
 20
0.0
 30
0.0
  3
BLKF028
  1

  0
TEXT
  5
3AC
330
3A8
100
AcDbEntity
  8
基準ﾚｲﾔｸﾞﾙｰﾌﾟ
  6
Continuous
 62
     7
370
    25
100
AcDbText
 10
307.2224579266264
 20
100.1188059119369
 30
0.0
 40
6.0
  1
０
 50
91.70550537109408
 41
0.9333333333333333
  7
FX_VECTOR
 72
     5
 11
307.1034087725924
 21
104.1170339318131
 31
0.0
100
AcDbText
  0
TEXT
  5
3AD
330
3A8
100
AcDbEntity
  8
基準ﾚｲﾔｸﾞﾙｰﾌﾟ
  6
Continuous
 62
     7
370
    25
100
AcDbText
 10
307.5792106832037
 20
96.13357950544356
 30
0.0
 40
6.0
  1
３
 50
95.11650085449205
 41
0.9333333333333319
  7
FX_VECTOR
 72
     5
 11
307.22248609414
 21
100.1176411976814
 31
0.0
100
AcDbText
  0
TEXT
  5
3AE
330
3A8
100
AcDbEntity
  8
基準ﾚｲﾔｸﾞﾙｰﾌﾟ
  6
Continuous
 62
     7
370
    25
100
AcDbText
 10
308.1725146204939
 20
92.1766514636067
 30
0.0
 40
6.0
  1
１
 50
98.52751159667953
 41
0.9333333333333307
  7
FX_VECTOR
 72
     5
 11
307.5793774693498
 21
96.1324305676433
 31
0.0
100
AcDbText
  0
TEXT
  5
3AF
330
3A8
100
AcDbEntity
  8
基準ﾚｲﾔｸﾞﾙｰﾌﾟ
  6
Continuous
 62
     7
370
    25
100
AcDbText
 10
307.1034087725924
 20
104.1182565955306
 30
0.0
 40
6.0
  1
Ｘ
 50
88.29449462890594
 41
0.9333333333333333
  7
FX_VECTOR
 72
     5
 11
307.2224579266264
 21
108.1164846154069
 31
0.0
100
AcDbText
  0
TEXT
  5
3B0
330
3A8
100
AcDbEntity
  8
基準ﾚｲﾔｸﾞﾙｰﾌﾟ
  6
Continuous
 62
     7
370
    25
100
AcDbText
 10
307.22248609414
 20
108.1176493296623
 30
0.0
 40
6.0
  1
３
 50
84.88349914550797
 41
0.9333333333333319
  7
FX_VECTOR
 72
     5
 11
307.5792106832037
 21
112.1017110219002
 31
0.0
100
AcDbText
  0
TEXT
  5
3B1
330
3A8
100
AcDbEntity
  8
基準ﾚｲﾔｸﾞﾙｰﾌﾟ
  6
Continuous
 62
     7
370
    25
100
AcDbText
 10
307.5793774693498
 20
112.1028599597005
 30
0.0
 40
6.0
  1
８
 50
81.4724884033205
 41
0.9333333333333307
  7
FX_VECTOR
 72
     5
 11
308.1725146204939
 21
116.058639063737
 31
0.0
100
AcDbText
  0
ENDBLK
  5
3AA
330
3A8
100
AcDbEntity
  8
0
100
AcDbBlockEnd
  0
ENDSEC
  0
SECTION
  2
ENTITIES
  0
INSERT
  5
E5
330
1F
100
AcDbEntity
  8
図面枠ﾚｲﾔ
  6
Continuous
 62
     7
370
    50
100
AcDbBlockReference
  2
BLKF023
 10
0.0
 20
0.0
 30
0.0
  0
TEXT
  5
110
330
1F
100
AcDbEntity
  8
図面枠ﾚｲﾔ
  6
Continuous
 62
     7
370
    25
100
AcDbText
 10
329.0
 20
12.0
 30
0.0
 40
6.0
  1
ＷＫ－１３０　Ｎ　ＳＲ
 41
0.7897435897435899
  7
FX_VECTOR
 72
     5
 11
373.0
 21
12.0
 31
0.0
100
AcDbText
  0
TEXT
  5
111
330
1F
100
AcDbEntity
  8
図面枠ﾚｲﾔ
  6
Continuous
 62
     7
370
    25
100
AcDbText
 10
428.9999694824219
 20
12.0
 30
0.0
 40
6.0
  1
Ｗ３６Ｂ１ＵＡＡ－Ｃ０１
 41
0.7887323943661974
  7
FX_VECTOR
 72
     5
 11
476.9999694824219
 21
12.0
 31
0.0
100
AcDbText
  0
TEXT
  5
112
330
1F
100
AcDbEntity
  8
GR1
  6
Continuous
 62
     7
370
    25
100
AcDbText
 10
78.70057678222656
 20
100.837646484375
 30
0.0
 40
4.0
  1
１３０
 50
90.0
 41
0.9264705882352942
  7
FX_VECTOR
 72
     5
 11
78.70057678222656
 21
109.837646484375
 31
0.0
100
AcDbText
  0
LINE
  5
113
330
1F
100
AcDbEntity
  8
GR1
  6
Continuous
 62
     7
370
    25
100
AcDbLine
 10
138.3355832857769
 20
39.11765103993696
 30
0.0
 11
78.70058490307748
 21
39.11765103993696
 31
0.0
  0
LINE
  5
114
330
1F
100
AcDbEntity
  8
GR1
  6
Continuous
 62
     7
370
    25
100
AcDbLine
 10
138.335583285777
 20
169.1176430777101
 30
0.0
 11
78.70058490307754
 21
169.1176430777101
 31
0.0
  0
LINE
  5
115
330
1F
100
AcDbEntity
  8
GR1
  6
Continuous
 62
     7
370
    25
100
AcDbLine
 10
79.70058490307748
 20
39.11765103993696
 30
0.0
 11
79.70058490307754
 21
169.1176430777101
 31
0.0
  0
INSERT
  5
116
330
1F
100
AcDbEntity
  8
GR1
  6
Continuous
 62
     7
370
    25
100
AcDbBlockReference
  2
FXTIP_ARROW_S
 10
79.70058490307748
 20
39.11765103993696
 30
0.0
 41
4.0
 42
4.0
 50
270.0
  0
INSERT
  5
117
330
1F
100
AcDbEntity
  8
GR1
  6
Continuous
 62
     7
370
    25
100
AcDbBlockReference
  2
FXTIP_ARROW_E
 10
79.70058490307754
 20
169.1176430777101
 30
0.0
 41
4.0
 42
4.0
 50
90.0
  0
TEXT
  5
118
330
1F
100
AcDbEntity
  8
GR1
  6
Continuous
 62
     7
370
    25
100
AcDbText
 10
78.70057678222656
 20
97.837646484375
 30
0.0
 40
4.0
  1
%%c
 50
90.0
 41
1.05
  7
FX_VECTOR
 72
     5
 11
78.70057678222656
 21
100.837646484375
 31
0.0
100
AcDbText
  0
TEXT
  5
119
330
1F
100
AcDbEntity
  8
GR1
  6
Continuous
 62
     7
370
    25
100
AcDbText
 10
360.2528381347656
 20
400.4979248046875
 30
0.0
 40
4.0
  1
１３８
 41
0.9264705882352942
  7
FX_VECTOR
 72
     5
 11
369.2528381347656
 21
400.4979248046875
 31
0.0
100
AcDbText
  0
LINE
  5
11A
330
1F
100
AcDbEntity
  8
GR1
  6
Continuous
 62
     7
370
    25
100
AcDbLine
 10
295.7528405191478
 20
353.6176470588235
 30
0.0
 11
295.7528405191478
 21
400.4979303710427
 31
0.0
  0
LINE
  5
11B
330
1F
100
AcDbEntity
  8
GR1
  6
Continuous
 62
     7
370
    25
100
AcDbLine
 10
433.7528405191477
 20
353.6176470588235
 30
0.0
 11
433.7528405191477
 21
400.4979303710427
 31
0.0
  0
LINE
  5
11C
330
1F
100
AcDbEntity
  8
GR1
  6
Continuous
 62
     7
370
    25
100
AcDbLine
 10
295.7528405191478
 20
399.4979303710427
 30
0.0
 11
433.7528405191477
 21
399.4979303710427
 31
0.0
  0
INSERT
  5
11D
330
1F
100
AcDbEntity
  8
GR1
  6
Continuous
 62
     7
370
    25
100
AcDbBlockReference
  2
FXTIP_ARROW_S
 10
295.7528405191478
 20
399.4979303710427
 30
0.0
 41
4.0
 42
4.0
 50
180.0
  0
INSERT
  5
11E
330
1F
100
AcDbEntity
  8
GR1
  6
Continuous
 62
     7
370
    25
100
AcDbBlockReference
  2
FXTIP_ARROW_E
 10
433.7528405191477
 20
399.4979303710427
 30
0.0
 41
4.0
 42
4.0
 50
360.0
  0
TEXT
  5
11F
330
1F
100
AcDbEntity
  8
GR1
  6
Continuous
 62
     7
370
    25
100
AcDbText
 10
360.2528381347656
 20
390.4979248046875
 30
0.0
 40
4.0
  1
１００
 41
0.9264705882352942
  7
FX_VECTOR
 72
     5
 11
369.2528381347656
 21
390.4979248046875
 31
0.0
100
AcDbText
  0
LINE
  5
120
330
1F
100
AcDbEntity
  8
GR1
  6
Continuous
 62
     7
370
    25
100
AcDbLine
 10
314.7528405191478
 20
357.6176470588235
 30
0.0
 11
314.7528405191478
 21
390.4979303710427
 31
0.0
  0
LINE
  5
121
330
1F
100
AcDbEntity
  8
GR1
  6
Continuous
 62
     7
370
    25
100
AcDbLine
 10
414.7528405191478
 20
357.6176470588235
 30
0.0
 11
414.7528405191478
 21
390.4979303710427
 31
0.0
  0
LINE
  5
122
330
1F
100
AcDbEntity
  8
GR1
  6
Continuous
 62
     7
370
    25
100
AcDbLine
 10
314.7528405191478
 20
389.4979303710427
 30
0.0
 11
414.7528405191478
 21
389.4979303710427
 31
0.0
  0
INSERT
  5
123
330
1F
100
AcDbEntity
  8
GR1
  6
Continuous
 62
     7
370
    25
100
AcDbBlockReference
  2
FXTIP_ARROW_S
 10
314.7528405191478
 20
389.4979303710427
 30
0.0
 41
4.0
 42
4.0
 50
180.0
  0
INSERT
  5
124
330
1F
100
AcDbEntity
  8
GR1
  6
Continuous
 62
     7
370
    25
100
AcDbBlockReference
  2
FXTIP_ARROW_E
 10
414.7528405191478
 20
389.4979303710427
 30
0.0
 41
4.0
 42
4.0
 50
360.0
  0
TEXT
  5
125
330
1F
100
AcDbEntity
  8
GR1
  6
Continuous
 62
     7
370
    25
100
AcDbText
 10
361.7528381347656
 20
380.4979248046875
 30
0.0
 40
4.0
  1
９７
 41
0.9545454545454547
  7
FX_VECTOR
 72
     5
 11
367.7528381347656
 21
380.4979248046875
 31
0.0
100
AcDbText
  0
LINE
  5
126
330
1F
100
AcDbEntity
  8
GR1
  6
Continuous
 62
     7
370
    25
100
AcDbLine
 10
316.2528405191478
 20
356.5051458135815
 30
0.0
 11
316.2528405191478
 21
380.4979303710427
 31
0.0
  0
LINE
  5
127
330
1F
100
AcDbEntity
  8
GR1
  6
Continuous
 62
     7
370
    25
100
AcDbLine
 10
413.2528405191478
 20
356.5051458135815
 30
0.0
 11
413.2528405191478
 21
380.4979303710427
 31
0.0
  0
LINE
  5
128
330
1F
100
AcDbEntity
  8
GR1
  6
Continuous
 62
     7
370
    25
100
AcDbLine
 10
316.2528405191478
 20
379.4979303710427
 30
0.0
 11
413.2528405191478
 21
379.4979303710427
 31
0.0
  0
INSERT
  5
129
330
1F
100
AcDbEntity
  8
GR1
  6
Continuous
 62
     7
370
    25
100
AcDbBlockReference
  2
FXTIP_ARROW_S
 10
316.2528405191478
 20
379.4979303710427
 30
0.0
 41
4.0
 42
4.0
 50
180.0
  0
INSERT
  5
12A
330
1F
100
AcDbEntity
  8
GR1
  6
Continuous
 62
     7
370
    25
100
AcDbBlockReference
  2
FXTIP_ARROW_E
 10
413.2528405191478
 20
379.4979303710427
 30
0.0
 41
4.0
 42
4.0
 50
360.0
  0
TEXT
  5
12B
330
1F
100
AcDbEntity
  8
GR1
  6
Continuous
 62
     7
370
    25
100
AcDbText
 10
462.6960144042969
 20
320.1176452636719
 30
0.0
 40
4.0
  1
９３
 50
90.0
 41
0.9545454545454547
  7
FX_VECTOR
 72
     5
 11
462.6960144042969
 21
326.1176452636719
 31
0.0
100
AcDbText
  0
LINE
  5
12C
330
1F
100
AcDbEntity
  8
GR1
  6
Continuous
 62
     7
370
    25
100
AcDbLine
 10
417.7528405191478
 20
369.6176470588235
 30
0.0
 11
464.696028636405
 21
369.6176470588235
 31
0.0
  0
LINE
  5
12D
330
1F
100
AcDbEntity
  8
GR1
  6
Continuous
 62
     7
370
    25
100
AcDbLine
 10
416.3201768420098
 20
276.6176470588235
 30
0.0
 11
464.696028636405
 21
276.6176470588235
 31
0.0
  0
LINE
  5
12E
330
1F
100
AcDbEntity
  8
GR1
  6
Continuous
 62
     7
370
    25
100
AcDbLine
 10
463.696028636405
 20
369.6176470588235
 30
0.0
 11
463.696028636405
 21
276.6176470588235
 31
0.0
  0
INSERT
  5
12F
330
1F
100
AcDbEntity
  8
GR1
  6
Continuous
 62
     7
370
    25
100
AcDbBlockReference
  2
FXTIP_ARROW_S
 10
463.696028636405
 20
369.6176470588235
 30
0.0
 41
4.0
 42
4.0
 50
90.0
  0
INSERT
  5
130
330
1F
100
AcDbEntity
  8
GR1
  6
Continuous
 62
     7
370
    25
100
AcDbBlockReference
  2
FXTIP_ARROW_E
 10
463.696028636405
 20
276.6176470588235
 30
0.0
 41
4.0
 42
4.0
 50
270.0
  0
TEXT
  5
131
330
1F
100
AcDbEntity
  8
GR1
  6
Continuous
 62
     7
370
    25
100
AcDbText
 10
452.6960144042969
 20
320.1176452636719
 30
0.0
 40
4.0
  1
５６
 50
90.0
 41
0.9545454545454547
  7
FX_VECTOR
 72
     5
 11
452.6960144042969
 21
326.1176452636719
 31
0.0
100
AcDbText
  0
LINE
  5
132
330
1F
100
AcDbEntity
  8
GR1
  6
Continuous
 62
     7
370
    25
100
AcDbLine
 10
421.6606680789448
 20
351.1176470588235
 30
0.0
 11
454.696028636405
 21
351.1176470588235
 31
0.0
  0
LINE
  5
133
330
1F
100
AcDbEntity
  8
GR1
  6
Continuous
 62
     7
370
    25
100
AcDbLine
 10
421.6606680789448
 20
295.1176470588235
 30
0.0
 11
454.696028636405
 21
295.1176470588235
 31
0.0
  0
LINE
  5
134
330
1F
100
AcDbEntity
  8
GR1
  6
Continuous
 62
     7
370
    25
100
AcDbLine
 10
453.696028636405
 20
351.1176470588235
 30
0.0
 11
453.696028636405
 21
295.1176470588235
 31
0.0
  0
INSERT
  5
135
330
1F
100
AcDbEntity
  8
GR1
  6
Continuous
 62
     7
370
    25
100
AcDbBlockReference
  2
FXTIP_ARROW_S
 10
453.696028636405
 20
351.1176470588235
 30
0.0
 41
4.0
 42
4.0
 50
90.0
  0
INSERT
  5
136
330
1F
100
AcDbEntity
  8
GR1
  6
Continuous
 62
     7
370
    25
100
AcDbBlockReference
  2
FXTIP_ARROW_E
 10
453.696028636405
 20
295.1176470588235
 30
0.0
 41
4.0
 42
4.0
 50
270.0
  0
TEXT
  5
137
330
1F
100
AcDbEntity
  8
GR1
  6
Continuous
 62
     7
370
    25
100
AcDbText
 10
442.6960144042969
 20
320.1176452636719
 30
0.0
 40
4.0
  1
５３
 50
90.0
 41
0.9545454545454547
  7
FX_VECTOR
 72
     5
 11
442.6960144042969
 21
326.1176452636719
 31
0.0
100
AcDbText
  0
LINE
  5
138
330
1F
100
AcDbEntity
  8
GR1
  6
Continuous
 62
     7
370
    25
100
AcDbLine
 10
420.1606680789449
 20
349.6176470588235
 30
0.0
 11
444.696028636405
 21
349.6176470588235
 31
0.0
  0
LINE
  5
139
330
1F
100
AcDbEntity
  8
GR1
  6
Continuous
 62
     7
370
    25
100
AcDbLine
 10
420.1606680789449
 20
296.6176470588235
 30
0.0
 11
444.696028636405
 21
296.6176470588235
 31
0.0
  0
LINE
  5
13A
330
1F
100
AcDbEntity
  8
GR1
  6
Continuous
 62
     7
370
    25
100
AcDbLine
 10
443.696028636405
 20
349.6176470588235
 30
0.0
 11
443.696028636405
 21
296.6176470588235
 31
0.0
  0
INSERT
  5
13B
330
1F
100
AcDbEntity
  8
GR1
  6
Continuous
 62
     7
370
    25
100
AcDbBlockReference
  2
FXTIP_ARROW_S
 10
443.696028636405
 20
349.6176470588235
 30
0.0
 41
4.0
 42
4.0
 50
90.0
  0
INSERT
  5
13C
330
1F
100
AcDbEntity
  8
GR1
  6
Continuous
 62
     7
370
    25
100
AcDbBlockReference
  2
FXTIP_ARROW_E
 10
443.696028636405
 20
296.6176470588235
 30
0.0
 41
4.0
 42
4.0
 50
270.0
  0
TEXT
  5
13D
330
1F
100
AcDbEntity
  8
GR1
  6
Continuous
 62
     7
370
    25
100
AcDbText
 10
452.765625
 20
123.1176452636719
 30
0.0
 40
4.0
  1
１７７
 50
90.0
 41
0.9264705882352942
  7
FX_VECTOR
 72
     5
 11
452.765625
 21
132.1176452636719
 31
0.0
100
AcDbText
  0
LINE
  5
13E
330
1F
100
AcDbEntity
  8
GR1
  6
Continuous
 62
     7
370
    25
100
AcDbLine
 10
429.2528405191478
 20
216.1176470588235
 30
0.0
 11
454.7656422753923
 21
216.1176470588235
 31
0.0
  0
LINE
  5
13F
330
1F
100
AcDbEntity
  8
GR1
  6
Continuous
 62
     7
370
    25
100
AcDbLine
 10
365.7528405191478
 20
39.11764706285373
 30
0.0
 11
454.7656422753923
 21
39.11764706285373
 31
0.0
  0
LINE
  5
140
330
1F
100
AcDbEntity
  8
GR1
  6
Continuous
 62
     7
370
    25
100
AcDbLine
 10
453.7656422753923
 20
216.1176470588235
 30
0.0
 11
453.7656422753923
 21
39.11764706285373
 31
0.0
  0
INSERT
  5
141
330
1F
100
AcDbEntity
  8
GR1
  6
Continuous
 62
     7
370
    25
100
AcDbBlockReference
  2
FXTIP_ARROW_S
 10
453.7656422753923
 20
216.1176470588235
 30
0.0
 41
4.0
 42
4.0
 50
90.0
  0
INSERT
  5
142
330
1F
100
AcDbEntity
  8
GR1
  6
Continuous
 62
     7
370
    25
100
AcDbBlockReference
  2
FXTIP_ARROW_E
 10
453.7656422753923
 20
39.11764706285373
 30
0.0
 41
4.0
 42
4.0
 50
270.0
  0
TEXT
  5
143
330
1F
100
AcDbEntity
  8
GR1
  6
Continuous
 62
     7
370
    25
100
AcDbText
 10
442.765625
 20
155.6176452636719
 30
0.0
 40
4.0
  1
１１２
 50
90.0
 41
0.9264705882352942
  7
FX_VECTOR
 72
     5
 11
442.765625
 21
164.6176452636719
 31
0.0
100
AcDbText
  0
LINE
  5
144
330
1F
100
AcDbEntity
  8
GR1
  6
Continuous
 62
     7
370
    25
100
AcDbLine
 10
434.6250620491154
 20
104.1176470588235
 30
0.0
 11
444.7656422753923
 21
104.1176470588235
 31
0.0
  0
LINE
  5
145
330
1F
100
AcDbEntity
  8
GR1
  6
Continuous
 62
     7
370
    25
100
AcDbLine
 10
443.7656422753923
 20
104.1176470588235
 30
0.0
 11
443.7656422753923
 21
216.1176470588235
 31
0.0
  0
INSERT
  5
146
330
1F
100
AcDbEntity
  8
GR1
  6
Continuous
 62
     7
370
    25
100
AcDbBlockReference
  2
FXTIP_ARROW_S
 10
443.7656422753923
 20
104.1176470588235
 30
0.0
 41
4.0
 42
4.0
 50
270.0
  0
INSERT
  5
147
330
1F
100
AcDbEntity
  8
GR1
  6
Continuous
 62
     7
370
    25
100
AcDbBlockReference
  2
FXTIP_ARROW_E
 10
443.7656422753923
 20
216.1176470588235
 30
0.0
 41
4.0
 42
4.0
 50
90.0
  0
TEXT
  5
148
330
1F
100
AcDbEntity
  8
GR1
  6
Continuous
 62
     7
370
    25
100
AcDbText
 10
284.9023788441307
 20
372.4827926624901
 30
0.0
 40
4.0
  1
４－１１
 50
45.0
 41
0.9130434782608648
  7
FX_VECTOR
 72
     5
 11
293.3876602183693
 21
380.9680740367286
 31
0.0
100
AcDbText
  0
LINE
  5
149
330
1F
100
AcDbEntity
  8
GR1
  6
Continuous
 62
     7
370
    25
100
AcDbLine
 10
310.1566464414351
 20
347.9356665434841
 30
0.0
 11
285.255957275432
 21
372.8363557094884
 31
0.0
  0
LINE
  5
14A
330
1F
100
AcDbEntity
  8
GR1
  6
Continuous
 62
     7
370
    25
100
AcDbLine
 10
317.9348210344873
 20
355.713841136536
 30
0.0
 11
293.0341318684842
 21
380.6145303025402
 31
0.0
  0
LINE
  5
14B
330
1F
100
AcDbEntity
  8
GR1
  6
Continuous
 62
     7
370
    25
100
AcDbLine
 10
285.9630640566185
 20
372.1292489283018
 30
0.0
 11
293.7412386496707
 21
379.9074235213537
 31
0.0
  0
INSERT
  5
14C
330
1F
100
AcDbEntity
  8
GR1
  6
Continuous
 62
     7
370
    25
100
AcDbBlockReference
  2
FXTIP_ARROW_S
 10
285.9630640566185
 20
372.1292489283018
 30
0.0
 41
4.0
 42
4.0
 50
224.9999999999987
  0
INSERT
  5
14D
330
1F
100
AcDbEntity
  8
GR1
  6
Continuous
 62
     7
370
    25
100
AcDbBlockReference
  2
FXTIP_ARROW_E
 10
293.7412386496707
 20
379.9074235213537
 30
0.0
 41
4.0
 42
4.0
 50
44.99999999999873
  0
LINE
  5
14E
330
1F
100
AcDbEntity
  8
GR1
  6
Continuous
 62
     3
370
    50
100
AcDbLine
 10
95.53558328577701
 20
110.1140294422502
 30
0.0
 11
96.53558328577701
 21
111.1140294422502
 31
0.0
  0
LINE
  5
14F
330
1F
100
AcDbEntity
  8
GR1
  6
Continuous
 62
     3
370
    50
100
AcDbLine
 10
96.53558328577701
 20
111.1140294422502
 30
0.0
 11
97.33558328577703
 21
111.1140294422502
 31
0.0
  0
LINE
  5
150
330
1F
100
AcDbEntity
  8
GR1
  6
Continuous
 62
     3
370
    50
100
AcDbLine
 10
98.31806365802424
 20
110.4685000199093
 30
0.0
 11
104.3531029135296
 21
110.4685000199092
 31
0.0
  0
ARC
  5
151
330
1F
100
AcDbEntity
  8
GR1
  6
Continuous
 62
     3
370
    50
100
AcDbCircle
 10
99.71277323924772
 20
113.6439265004522
 30
0.0
 40
5.622810046529507
100
AcDbArc
 50
325.6157525319492
 51
34.38424746805187
  0
LINE
  5
152
330
1F
100
AcDbEntity
  8
GR1
  6
Continuous
 62
     3
370
    50
100
AcDbLine
 10
104.3531029135295
 20
116.8193529809951
 30
0.0
 11
105.335583285777
 21
115.1176470588235
 31
0.0
  0
LINE
  5
153
330
1F
100
AcDbEntity
  8
GR1
  6
Continuous
 62
     3
370
    50
100
AcDbLine
 10
105.3355832857771
 20
115.6176470588235
 30
0.0
 11
105.335583285777
 21
92.61764705882354
 31
0.0
  0
ARC
  5
154
330
1F
100
AcDbEntity
  8
GR1
  6
Continuous
 62
     3
370
    50
100
AcDbCircle
 10
105.835583285777
 20
92.61764705882354
 30
0.0
 40
0.5
100
AcDbArc
 50
180.0
 51
270.0
  0
LINE
  5
155
330
1F
100
AcDbEntity
  8
GR1
  6
Continuous
 62
     3
370
    50
100
AcDbLine
 10
105.835583285777
 20
92.11764705882354
 30
0.0
 11
108.3355832857771
 21
92.11764705882354
 31
0.0
  0
ARC
  5
156
330
1F
100
AcDbEntity
  8
GR1
  6
Continuous
 62
     3
370
    50
100
AcDbCircle
 10
108.3355832857771
 20
92.61764705882354
 30
0.0
 40
0.5
100
AcDbArc
 50
270.0
 51
0.0
  0
LINE
  5
157
330
1F
100
AcDbEntity
  8
GR1
  6
Continuous
 62
     3
370
    50
100
AcDbLine
 10
108.835583285777
 20
92.91764705882355
 30
0.0
 11
108.835583285777
 21
83.91764705882355
 31
0.0
  0
LINE
  5
158
330
1F
100
AcDbEntity
  8
GR1
  6
Continuous
 62
     3
370
    50
100
AcDbLine
 10
108.835583285777
 20
83.91764705882355
 30
0.0
 11
112.035583285777
 21
83.91764705882355
 31
0.0
  0
LINE
  5
159
330
1F
100
AcDbEntity
  8
GR1
  6
Continuous
 62
     3
370
    50
100
AcDbLine
 10
112.035583285777
 20
83.91764705882355
 30
0.0
 11
112.035583285777
 21
203.1176470588235
 31
0.0
  0
ARC
  5
15A
330
1F
100
AcDbEntity
  8
GR1
  6
Continuous
 62
     3
370
    50
100
AcDbCircle
 10
102.1424838005982
 20
197.1176470588235
 30
0.0
 40
6.0
100
AcDbArc
 50
90.0
 51
173.6731313521733
  0
ARC
  5
15B
330
1F
100
AcDbEntity
  8
GR1
  6
Continuous
 62
     3
370
    50
100
AcDbCircle
 10
319.3172784898339
 20
200.9452846421667
 30
0.0
 40
223.1607164684276
100
AcDbArc
 50
180.8129990732626
 51
186.387637984966
  0
LINE
  5
15C
330
1F
100
AcDbEntity
  8
GR1
  6
Continuous
 62
     3
370
    50
100
AcDbLine
 10
97.5419557266101
 20
176.1176470588235
 30
0.0
 11
108.4607322780801
 21
117.1176470588235
 31
0.0
  0
LINE
  5
15D
330
1F
100
AcDbEntity
  8
GR1
  6
Continuous
 62
     3
370
    50
100
AcDbLine
 10
105.935583285777
 20
117.1176470588235
 30
0.0
 11
94.935583285777
 21
176.1176470588235
 31
0.0
  0
LINE
  5
15E
330
1F
100
AcDbEntity
  8
GR1
  6
Continuous
 62
     3
370
    50
100
AcDbLine
 10
98.94061032251732
 20
203.1176470588474
 30
0.0
 11
179.7305562490367
 21
203.1176470588474
 31
0.0
  0
LINE
  5
15F
330
1F
100
AcDbEntity
  8
GR1
  6
Continuous
 62
     3
370
    50
100
AcDbLine
 10
185.835583285777
 20
203.1176470588235
 30
0.0
 11
185.835583285777
 21
209.1176470588235
 31
0.0
  0
ARC
  5
160
330
1F
100
AcDbEntity
  8
GR1
  6
Continuous
 62
     3
370
    50
100
AcDbCircle
 10
178.835583285777
 20
209.1176470588235
 30
0.0
 40
7.0
100
AcDbArc
 50
0.0
 51
90.0
  0
LINE
  5
161
330
1F
100
AcDbEntity
  8
GR1
  6
Continuous
 62
     3
370
    50
100
AcDbLine
 10
178.835583285777
 20
216.1176470588235
 30
0.0
 11
99.835583285777
 21
216.1176470588235
 31
0.0
  0
ARC
  5
162
330
1F
100
AcDbEntity
  8
GR1
  6
Continuous
 62
     3
370
    50
100
AcDbCircle
 10
99.835583285777
 20
209.1176470588235
 30
0.0
 40
7.0
100
AcDbArc
 50
90.0
 51
180.0
  0
LINE
  5
163
330
1F
100
AcDbEntity
  8
GR1
  6
Continuous
 62
     3
370
    50
100
AcDbLine
 10
92.835583285777
 20
209.1176470588235
 30
0.0
 11
92.835583285777
 21
203.1176470588235
 31
0.0
  0
ARC
  5
164
330
1F
100
AcDbEntity
  8
GR1
  6
Continuous
 62
     3
370
    50
100
AcDbCircle
 10
266.6391363040811
 20
203.0540345158027
 30
0.0
 40
173.8035646594801
100
AcDbArc
 50
179.9790295997225
 51
188.9157401004582
  0
ARC
  5
165
330
1F
100
AcDbEntity
  8
GR1
  6
Continuous
 62
     3
370
    50
100
AcDbCircle
 10
98.94061032251732
 20
197.1176470588474
 30
0.0
 40
6.0
100
AcDbArc
 50
89.9999999999661
 51
182.0273760857952
  0
LINE
  5
166
330
1F
100
AcDbEntity
  8
GR1
  6
Continuous
 62
     3
370
    50
100
AcDbLine
 10
166.635583285777
 20
83.91764705882355
 30
0.0
 11
169.835583285777
 21
83.91764705882355
 31
0.0
  0
LINE
  5
167
330
1F
100
AcDbEntity
  8
GR1
  6
Continuous
 62
     3
370
    50
100
AcDbLine
 10
169.835583285777
 20
83.91764705882355
 30
0.0
 11
169.835583285777
 21
92.91764705882355
 31
0.0
  0
LINE
  5
168
330
1F
100
AcDbEntity
  8
GR1
  6
Continuous
 62
     3
370
    50
100
AcDbLine
 10
169.835583285777
 20
91.11583825053685
 30
0.0
 11
172.835583285777
 21
91.11583825053685
 31
0.0
  0
LINE
  5
169
330
1F
100
AcDbEntity
  8
GR1
  6
Continuous
 62
     3
370
    50
100
AcDbLine
 10
172.835583285777
 20
91.11583825053685
 30
0.0
 11
174.335583285777
 21
94.11583825053685
 31
0.0
  0
LINE
  5
16A
330
1F
100
AcDbEntity
  8
GR1
  6
Continuous
 62
     3
370
    50
100
AcDbLine
 10
174.335583285777
 20
94.11583825053685
 30
0.0
 11
174.335583285777
 21
114.1158382505369
 31
0.0
  0
LINE
  5
16B
330
1F
100
AcDbEntity
  8
GR1
  6
Continuous
 62
     3
370
    50
100
AcDbLine
 10
174.335583285777
 20
114.1158382505369
 30
0.0
 11
172.835583285777
 21
117.1158382505369
 31
0.0
  0
LINE
  5
16C
330
1F
100
AcDbEntity
  8
GR1
  6
Continuous
 62
     3
370
    50
100
AcDbLine
 10
172.835583285777
 20
117.1158382505369
 30
0.0
 11
172.7355832857772
 21
117.1158382505369
 31
0.0
  0
ARC
  5
16D
330
1F
100
AcDbEntity
  8
GR1
  6
Continuous
 62
     3
370
    50
100
AcDbCircle
 10
318.4706898904538
 20
87.37976238305646
 30
0.0
 40
148.7382367855211
100
AcDbArc
 50
168.4668791930858
 51
177.8662462250957
  0
LINE
  5
16E
330
1F
100
AcDbEntity
  8
GR1
  6
Continuous
 62
     3
370
    50
100
AcDbLine
 10
166.635583285777
 20
83.91764705882355
 30
0.0
 11
166.635583285777
 21
203.1176470588235
 31
0.0
  0
ARC
  5
16F
330
1F
100
AcDbEntity
  8
GR1
  6
Continuous
 62
     3
370
    50
100
AcDbCircle
 10
176.5286827709558
 20
197.1176470588235
 30
0.0
 40
6.0
100
AcDbArc
 50
6.326868647720433
 51
89.99999999999994
  0
ARC
  5
170
330
1F
100
AcDbEntity
  8
GR1
  6
Continuous
 62
     3
370
    50
100
AcDbCircle
 10
179.7305562490367
 20
197.1176470588474
 30
0.0
 40
6.0
100
AcDbArc
 50
357.9726239142048
 51
90.00000000003395
  0
LINE
  5
171
330
1F
100
AcDbEntity
  8
GR1
  6
Continuous
 62
     3
370
    50
100
AcDbLine
 10
181.1292108449439
 20
176.1176470588235
 30
0.0
 11
170.2104342934739
 21
117.1176470588235
 31
0.0
  0
ARC
  5
172
330
1F
100
AcDbEntity
  8
GR1
  6
Continuous
 62
     3
370
    50
100
AcDbCircle
 10
424.1579565373006
 20
67.24019517208467
 30
0.0
 40
258.799351352535
100
AcDbArc
 50
168.8880667605295
 51
174.3058814978988
  0
ARC
  5
173
330
1F
100
AcDbEntity
  8
GR1
  6
Continuous
 62
     3
370
    50
100
AcDbCircle
 10
-145.4867899657467
 20
67.24019517208467
 30
0.0
 40
258.799351352535
100
AcDbArc
 50
5.694118502101184
 51
11.11193323947049
  0
LINE
  5
174
330
1F
100
AcDbEntity
  8
GR1
  6
Continuous
 62
     3
370
    50
100
AcDbLine
 10
106.136068866242
 20
116.1176470588235
 30
0.0
 11
105.835583285777
 21
116.1176470588235
 31
0.0
  0
ARC
  5
175
330
1F
100
AcDbEntity
  8
GR1
  6
Continuous
 62
     3
370
    50
100
AcDbCircle
 10
105.835583285777
 20
115.6176470588235
 30
0.0
 40
0.5
100
AcDbArc
 50
90.0
 51
180.0
  0
LINE
  5
176
330
1F
100
AcDbEntity
  8
GR1
  6
Continuous
 62
     3
370
    50
100
AcDbLine
 10
104.3531029135296
 20
116.8193529809951
 30
0.0
 11
98.31806365802424
 21
116.8193529809951
 31
0.0
  0
LINE
  5
177
330
1F
100
AcDbEntity
  8
GR1
  6
Continuous
 62
     3
370
    50
100
AcDbLine
 10
98.31806365802436
 20
116.8193529809951
 30
0.0
 11
97.33558328577686
 21
115.1176470588235
 31
0.0
  0
LINE
  5
178
330
1F
100
AcDbEntity
  8
GR1
  6
Continuous
 62
     3
370
    50
100
AcDbLine
 10
97.33558328577692
 20
115.1176470588236
 30
0.0
 11
97.33558328577692
 21
93.11764705882342
 31
0.0
  0
LINE
  5
179
330
1F
100
AcDbEntity
  8
GR1
  6
Continuous
 62
     3
370
    50
100
AcDbLine
 10
97.33558328577686
 20
93.11764705882354
 30
0.0
 11
98.31806365802436
 21
91.41594113665201
 31
0.0
  0
LINE
  5
17A
330
1F
100
AcDbEntity
  8
GR1
  6
Continuous
 62
     3
370
    50
100
AcDbLine
 10
98.31806365802424
 20
91.41594113665201
 30
0.0
 11
104.3531029135296
 21
91.41594113665195
 31
0.0
  0
LINE
  5
17B
330
1F
100
AcDbEntity
  8
GR1
  6
Continuous
 62
     3
370
    50
100
AcDbLine
 10
104.3531029135295
 20
91.41594113665195
 30
0.0
 11
105.335583285777
 21
93.11764705882354
 31
0.0
  0
ARC
  5
17C
330
1F
100
AcDbEntity
  8
GR1
  6
Continuous
 62
     3
370
    50
100
AcDbCircle
 10
99.71277323924772
 20
94.59136761719498
 30
0.0
 40
5.622810046529507
100
AcDbArc
 50
325.6157525319481
 51
34.38424746805076
  0
LINE
  5
17D
330
1F
100
AcDbEntity
  8
GR1
  6
Continuous
 62
     3
370
    50
100
AcDbLine
 10
104.3531029135296
 20
97.76679409773755
 30
0.0
 11
98.31806365802424
 21
97.7667940977376
 31
0.0
  0
ARC
  5
17E
330
1F
100
AcDbEntity
  8
GR1
  6
Continuous
 62
     3
370
    50
100
AcDbCircle
 10
102.9583933323061
 20
94.59136761719492
 30
0.0
 40
5.622810046529507
100
AcDbArc
 50
145.6157525319492
 51
214.3842474680519
  0
LINE
  5
17F
330
1F
100
AcDbEntity
  8
GR1
  6
Continuous
 62
     3
370
    50
100
AcDbLine
 10
97.33558328577703
 20
97.11402944225017
 30
0.0
 11
96.53558328577701
 21
97.11402944225017
 31
0.0
  0
LINE
  5
180
330
1F
100
AcDbEntity
  8
GR1
  6
Continuous
 62
     3
370
    50
100
AcDbLine
 10
96.53558328577701
 20
97.11402944225017
 30
0.0
 11
95.53558328577701
 21
98.11402944225017
 31
0.0
  0
LINE
  5
181
330
1F
100
AcDbEntity
  8
GR1
  6
Continuous
 62
     3
370
    50
100
AcDbLine
 10
95.53558328577701
 20
98.11402944225017
 30
0.0
 11
95.53558328577701
 21
110.1140294422502
 31
0.0
  0
ARC
  5
182
330
1F
100
AcDbEntity
  8
GR1
  6
Continuous
 62
     3
370
    50
100
AcDbCircle
 10
118.3531029135316
 20
104.1176470588235
 30
0.0
 40
21.01751962775467
100
AcDbArc
 50
162.4120462260082
 51
197.5879537739922
  0
ARC
  5
183
330
1F
100
AcDbEntity
  8
GR1
  6
Continuous
 62
     3
370
    50
100
AcDbCircle
 10
84.31806365802237
 20
104.1176470588235
 30
0.0
 40
21.01751962775467
100
AcDbArc
 50
342.4120462260076
 51
17.5879537739918
  0
ARC
  5
184
330
1F
100
AcDbEntity
  8
GR1
  6
Continuous
 62
     3
370
    50
100
AcDbCircle
 10
102.9583933323061
 20
113.6439265004521
 30
0.0
 40
5.622810046529507
100
AcDbArc
 50
145.6157525319481
 51
214.3842474680508
  0
ARC
  5
185
330
1F
100
AcDbEntity
  8
GR1
  6
Continuous
 62
     3
370
    50
100
AcDbCircle
 10
-39.7995233188998
 20
87.37976238305646
 30
0.0
 40
148.7382367855211
100
AcDbArc
 50
2.133753774904311
 51
11.53312080691424
  0
LINE
  5
186
330
1F
100
AcDbEntity
  8
GR1
  6
Continuous
 62
     3
370
    50
100
AcDbLine
 10
172.735583285777
 20
117.1176470588235
 30
0.0
 11
183.735583285777
 21
176.1176470588235
 31
0.0
  0
ARC
  5
187
330
1F
100
AcDbEntity
  8
GR1
  6
Continuous
 62
     3
370
    50
100
AcDbCircle
 10
12.03203026747285
 20
203.0540345158027
 30
0.0
 40
173.8035646594801
100
AcDbArc
 50
351.0842598995417
 51
0.020970400277455
  0
ARC
  5
188
330
1F
100
AcDbEntity
  8
GR1
  6
Continuous
 62
     3
370
    50
100
AcDbCircle
 10
-40.64611191827994
 20
200.9452846421667
 30
0.0
 40
223.1607164684276
100
AcDbArc
 50
353.612362015034
 51
359.1870009267346
  0
LINE
  5
189
330
1F
100
AcDbEntity
  8
GR1
  6
Continuous
 62
     3
370
    50
100
AcDbLine
 10
295.7528405191478
 20
203.1176470588235
 30
0.0
 11
295.7528405191478
 21
210.6176470588235
 31
0.0
  0
LINE
  5
18A
330
1F
100
AcDbEntity
  8
GR1
  6
Continuous
 62
     3
370
    50
100
AcDbLine
 10
301.2528405191478
 20
216.1176470588235
 30
0.0
 11
337.4433654998366
 21
216.1176470588235
 31
0.0
  0
ARC
  5
18B
330
1F
100
AcDbEntity
  8
GR1
  6
Continuous
 62
     3
370
    50
100
AcDbCircle
 10
337.4433654998366
 20
208.1176470588235
 30
0.0
 40
8.0
100
AcDbArc
 50
43.43253655778979
 51
90.0
  0
LINE
  5
18C
330
1F
100
AcDbEntity
  8
GR1
  6
Continuous
 62
     3
370
    50
100
AcDbLine
 10
343.2528405191478
 20
213.6176470588235
 30
0.0
 11
386.2528405191478
 21
213.6176470588235
 31
0.0
  0
LINE
  5
18D
330
1F
100
AcDbEntity
  8
GR1
  6
Continuous
 62
     3
370
    50
100
AcDbLine
 10
392.0623155384588
 20
216.1176470588235
 30
0.0
 11
428.2528405191478
 21
216.1176470588235
 31
0.0
  0
LINE
  5
18E
330
1F
100
AcDbEntity
  8
GR1
  6
Continuous
 62
     3
370
    50
100
AcDbLine
 10
433.7528405191478
 20
210.6176470588235
 30
0.0
 11
433.7528405191478
 21
203.1176470588235
 31
0.0
  0
ARC
  5
18F
330
1F
100
AcDbEntity
  8
GR1
  6
Continuous
 62
     3
370
    50
100
AcDbCircle
 10
441.1649337494491
 20
169.0373859155606
 30
0.0
 40
34.87697414695938
100
AcDbArc
 50
102.2701367339202
 51
161.4763785025482
  0
ARC
  5
190
330
1F
100
AcDbEntity
  8
GR1
  6
Continuous
 62
     3
370
    50
100
AcDbCircle
 10
1090.808252848668
 20
-44.7379350612589
 30
0.0
 40
718.7890077620168
100
AcDbArc
 50
161.7704046742471
 51
167.3300230416916
  0
LINE
  5
191
330
1F
100
AcDbEntity
  8
GR1
  6
Continuous
 62
     3
370
    50
100
AcDbLine
 10
385.8651794656395
 20
99.73144109648712
 30
0.0
 11
408.1582473828447
 21
180.1176470588235
 31
0.0
  0
LINE
  5
192
330
1F
100
AcDbEntity
  8
GR1
  6
Continuous
 62
     3
370
    50
100
AcDbLine
 10
408.4511809201811
 20
180.9734666256321
 30
0.0
 11
409.5158802374687
 21
183.6914207675553
 31
0.0
  0
ARC
  5
193
330
1F
100
AcDbEntity
  8
GR1
  6
Continuous
 62
     3
370
    50
100
AcDbCircle
 10
440.9448840025468
 20
169.3733415943608
 30
0.0
 40
34.50222660562747
100
AcDbArc
 50
160.3536340394702
 51
161.8558333390687
  0
ARC
  5
194
330
1F
100
AcDbEntity
  8
GR1
  6
Continuous
 62
     3
370
    50
100
AcDbCircle
 10
392.0623155384588
 20
208.1176470588235
 30
0.0
 40
8.0
100
AcDbArc
 50
90.0
 51
136.5674634422101
  0
ARC
  5
195
330
1F
100
AcDbEntity
  8
GR1
  6
Continuous
 62
     3
370
    50
100
AcDbCircle
 10
428.2528405191478
 20
210.6176470588235
 30
0.0
 40
5.5
100
AcDbArc
 50
0.0
 51
89.99999999999999
  0
ARC
  5
196
330
1F
100
AcDbEntity
  8
GR1
  6
Continuous
 62
     3
370
    50
100
AcDbCircle
 10
416.7528405191478
 20
293.6176470588235
 30
0.0
 40
17.0
100
AcDbArc
 50
270.0
 51
0.0
  0
LINE
  5
197
330
1F
100
AcDbEntity
  8
GR1
  6
Continuous
 62
     3
370
    50
100
AcDbLine
 10
433.7528405191477
 20
293.2176470588234
 30
0.0
 11
433.7528405191477
 21
353.0176470588235
 31
0.0
  0
ARC
  5
198
330
1F
100
AcDbEntity
  8
GR1
  6
Continuous
 62
     3
370
    50
100
AcDbCircle
 10
416.7528405191478
 20
352.6176470588235
 30
0.0
 40
17.0
100
AcDbArc
 50
0.0
 51
90.0
  0
LINE
  5
199
330
1F
100
AcDbEntity
  8
GR1
  6
Continuous
 62
     3
370
    50
100
AcDbLine
 10
416.7528405191477
 20
369.6176470588235
 30
0.0
 11
415.3201768420098
 21
369.6176470588235
 31
0.0
  0
ARC
  5
19A
330
1F
100
AcDbEntity
  8
GR1
  6
Continuous
 62
     3
370
    50
100
AcDbCircle
 10
415.3201768420098
 20
352.6176470588235
 30
0.0
 40
17.0
100
AcDbArc
 50
89.99999999999982
 51
124.9999999999992
  0
LINE
  5
19B
330
1F
100
AcDbEntity
  8
GR1
  6
Continuous
 62
     3
370
    50
100
AcDbLine
 10
405.5693774240422
 20
366.5432318117363
 30
0.0
 11
390.3852828787007
 21
355.9112143501995
 31
0.0
  0
LINE
  5
19C
330
1F
100
AcDbEntity
  8
GR1
  6
Continuous
 62
     3
370
    50
100
AcDbLine
 10
381.208059897084
 20
353.0176470588235
 30
0.0
 11
348.2976211412114
 21
353.0176470588235
 31
0.0
  0
ARC
  5
19D
330
1F
100
AcDbEntity
  8
GR1
  6
Continuous
 62
     3
370
    50
100
AcDbCircle
 10
353.2528405191477
 20
353.5176470588233
 30
0.0
 40
0.5
100
AcDbArc
 50
203.0269976450427
 51
270.0
  0
ARC
  5
19E
330
1F
100
AcDbEntity
  8
GR1
  6
Continuous
 62
     3
370
    50
100
AcDbCircle
 10
353.2528405191477
 20
356.0176470588233
 30
0.0
 40
0.5
100
AcDbArc
 50
90.0
 51
146.9153503382344
  0
LINE
  5
19F
330
1F
100
AcDbEntity
  8
GR1
  6
Continuous
 62
     3
370
    50
100
AcDbLine
 10
353.2528405191478
 20
356.5176470588234
 30
0.0
 11
376.2528405191478
 21
356.5176470588234
 31
0.0
  0
LINE
  5
1A0
330
1F
100
AcDbEntity
  8
GR1
  6
Continuous
 62
     3
370
    50
100
AcDbLine
 10
376.7528405191478
 20
356.0176470588234
 30
0.0
 11
376.7528405191477
 21
354.2176470588234
 31
0.0
  0
ARC
  5
1A1
330
1F
100
AcDbEntity
  8
GR1
  6
Continuous
 62
     3
370
    50
100
AcDbCircle
 10
376.2528405191478
 20
356.0176470588234
 30
0.0
 40
0.5
100
AcDbArc
 50
0.0
 51
90.0
  0
ARC
  5
1A2
330
1F
100
AcDbEntity
  8
GR1
  6
Continuous
 62
     3
370
    50
100
AcDbCircle
 10
381.208059897084
 20
369.0176470588235
 30
0.0
 40
16.0
100
AcDbArc
 50
270.0
 51
304.9999999999996
  0
ARC
  5
1A3
330
1F
100
AcDbEntity
  8
GR1
  6
Continuous
 62
     3
370
    50
100
AcDbCircle
 10
413.2528405191476
 20
349.6176470588235
 30
0.0
 40
5.5
100
AcDbArc
 50
134.9999999999996
 51
315.0000000000004
  0
LINE
  5
1A4
330
1F
100
AcDbEntity
  8
GR1
  6
Continuous
 62
     3
370
    50
100
AcDbLine
 10
417.1419278156737
 20
345.7285597622975
 30
0.0
 11
418.6419278156736
 21
347.2285597622975
 31
0.0
  0
ARC
  5
1A5
330
1F
100
AcDbEntity
  8
GR1
  6
Continuous
 62
     3
370
    50
100
AcDbCircle
 10
414.7528405191478
 20
351.1176470588235
 30
0.0
 40
5.5
100
AcDbArc
 50
315.0
 51
134.9999999999995
  0
LINE
  5
1A6
330
1F
100
AcDbEntity
  8
GR1
  6
Continuous
 62
     3
370
    50
100
AcDbLine
 10
410.8637532226217
 20
355.0067343553495
 30
0.0
 11
409.3637532226217
 21
353.5067343553495
 31
0.0
  0
LINE
  5
1A7
330
1F
100
AcDbEntity
  8
GR1
  6
Continuous
 62
     3
370
    50
100
AcDbLine
 10
417.1419278156737
 20
300.5067343553495
 30
0.0
 11
418.6419278156736
 21
299.0067343553495
 31
0.0
  0
ARC
  5
1A8
330
1F
100
AcDbEntity
  8
GR1
  6
Continuous
 62
     3
370
    50
100
AcDbCircle
 10
413.2528405191476
 20
296.6176470588235
 30
0.0
 40
5.5
100
AcDbArc
 50
44.99999999999957
 51
225.0000000000004
  0
LINE
  5
1A9
330
1F
100
AcDbEntity
  8
GR1
  6
Continuous
 62
     3
370
    50
100
AcDbLine
 10
409.3637532226217
 20
292.7285597622974
 30
0.0
 11
410.8637532226217
 21
291.2285597622974
 31
0.0
  0
ARC
  5
1AA
330
1F
100
AcDbEntity
  8
GR1
  6
Continuous
 62
     3
370
    50
100
AcDbCircle
 10
414.7528405191478
 20
295.1176470588235
 30
0.0
 40
5.5
100
AcDbArc
 50
225.0000000000002
 51
45.0
  0
LINE
  5
1AB
330
1F
100
AcDbEntity
  8
GR1
  6
Continuous
 62
     3
370
    50
100
AcDbLine
 10
416.7528405191477
 20
276.6176470588235
 30
0.0
 11
415.3201768420098
 21
276.6176470588235
 31
0.0
  0
LINE
  5
1AC
330
1F
100
AcDbEntity
  8
GR1
  6
Continuous
 62
     3
370
    50
100
AcDbLine
 10
405.5693774240422
 20
279.6920623059105
 30
0.0
 11
390.3852828787007
 21
290.3240797674474
 31
0.0
  0
ARC
  5
1AD
330
1F
100
AcDbEntity
  8
GR1
  6
Continuous
 62
     3
370
    50
100
AcDbCircle
 10
381.208059897084
 20
277.2176470588235
 30
0.0
 40
16.0
100
AcDbArc
 50
55.00000000000044
 51
89.99999999999999
  0
LINE
  5
1AE
330
1F
100
AcDbEntity
  8
GR1
  6
Continuous
 62
     3
370
    50
100
AcDbLine
 10
381.208059897084
 20
293.2176470588235
 30
0.0
 11
348.2976211412114
 21
293.2176470588235
 31
0.0
  0
ARC
  5
1AF
330
1F
100
AcDbEntity
  8
GR1
  6
Continuous
 62
     3
370
    50
100
AcDbCircle
 10
348.2976211412114
 20
277.2176470588234
 30
0.0
 40
16.0
100
AcDbArc
 50
90.0
 51
124.9999999999995
  0
LINE
  5
1B0
330
1F
100
AcDbEntity
  8
GR1
  6
Continuous
 62
     3
370
    50
100
AcDbLine
 10
339.1203981595947
 20
290.3240797674474
 30
0.0
 11
323.9363036142532
 21
279.6920623059105
 31
0.0
  0
LINE
  5
1B1
330
1F
100
AcDbEntity
  8
GR1
  6
Continuous
 62
     3
370
    50
100
AcDbLine
 10
314.1855041962855
 20
276.6176470588235
 30
0.0
 11
312.7528405191477
 21
276.6176470588235
 31
0.0
  0
ARC
  5
1B2
330
1F
100
AcDbEntity
  8
GR1
  6
Continuous
 62
     3
370
    50
100
AcDbCircle
 10
314.1855041962855
 20
293.6176470588235
 30
0.0
 40
17.0
100
AcDbArc
 50
270.0
 51
304.9999999999994
  0
LINE
  5
1B3
330
1F
100
AcDbEntity
  8
GR1
  6
Continuous
 62
     3
370
    50
100
AcDbLine
 10
318.6419278156737
 20
291.2285597622974
 30
0.0
 11
320.1419278156737
 21
292.7285597622974
 31
0.0
  0
ARC
  5
1B4
330
1F
100
AcDbEntity
  8
GR1
  6
Continuous
 62
     3
370
    50
100
AcDbCircle
 10
316.2528405191477
 20
296.6176470588235
 30
0.0
 40
5.5
100
AcDbArc
 50
314.9999999999998
 51
134.9999999999999
  0
LINE
  5
1B5
330
1F
100
AcDbEntity
  8
GR1
  6
Continuous
 62
     3
370
    50
100
AcDbLine
 10
312.3637532226217
 20
300.5067343553495
 30
0.0
 11
310.8637532226217
 21
299.0067343553495
 31
0.0
  0
ARC
  5
1B6
330
1F
100
AcDbEntity
  8
GR1
  6
Continuous
 62
     3
370
    50
100
AcDbCircle
 10
314.7528405191478
 20
295.1176470588235
 30
0.0
 40
5.5
100
AcDbArc
 50
135.0000000000002
 51
315.0
  0
LINE
  5
1B7
330
1F
100
AcDbEntity
  8
GR1
  6
Continuous
 62
     3
370
    50
100
AcDbLine
 10
295.7528405191478
 20
293.2176470588235
 30
0.0
 11
295.7528405191478
 21
353.0176470588235
 31
0.0
  0
LINE
  5
1B8
330
1F
100
AcDbEntity
  8
GR1
  6
Continuous
 62
     3
370
    50
100
AcDbLine
 10
310.8637532226217
 20
347.2285597622975
 30
0.0
 11
312.3637532226217
 21
345.7285597622975
 31
0.0
  0
ARC
  5
1B9
330
1F
100
AcDbEntity
  8
GR1
  6
Continuous
 62
     3
370
    50
100
AcDbCircle
 10
316.2528405191477
 20
349.6176470588235
 30
0.0
 40
5.5
100
AcDbArc
 50
225.0
 51
45.00000000000041
  0
LINE
  5
1BA
330
1F
100
AcDbEntity
  8
GR1
  6
Continuous
 62
     3
370
    50
100
AcDbLine
 10
320.1419278156737
 20
353.5067343553495
 30
0.0
 11
318.6419278156737
 21
355.0067343553495
 31
0.0
  0
ARC
  5
1BB
330
1F
100
AcDbEntity
  8
GR1
  6
Continuous
 62
     3
370
    50
100
AcDbCircle
 10
314.7528405191478
 20
351.1176470588235
 30
0.0
 40
5.5
100
AcDbArc
 50
45.0
 51
224.9999999999996
  0
ARC
  5
1BC
330
1F
100
AcDbEntity
  8
GR1
  6
Continuous
 62
     3
370
    50
100
AcDbCircle
 10
312.7528405191477
 20
352.6176470588235
 30
0.0
 40
17.0
100
AcDbArc
 50
90.00000000000018
 51
180.0
  0
LINE
  5
1BD
330
1F
100
AcDbEntity
  8
GR1
  6
Continuous
 62
     3
370
    50
100
AcDbLine
 10
312.7528405191478
 20
369.6176470588235
 30
0.0
 11
314.1855041962855
 21
369.6176470588235
 31
0.0
  0
ARC
  5
1BE
330
1F
100
AcDbEntity
  8
GR1
  6
Continuous
 62
     3
370
    50
100
AcDbCircle
 10
314.1855041962855
 20
352.6176470588235
 30
0.0
 40
17.0
100
AcDbArc
 50
55.00000000000063
 51
90.0
  0
LINE
  5
1BF
330
1F
100
AcDbEntity
  8
GR1
  6
Continuous
 62
     3
370
    50
100
AcDbLine
 10
323.9363036142532
 20
366.5432318117363
 30
0.0
 11
339.1203981595947
 21
355.9112143501995
 31
0.0
  0
ARC
  5
1C0
330
1F
100
AcDbEntity
  8
GR1
  6
Continuous
 62
     3
370
    50
100
AcDbCircle
 10
348.2976211412114
 20
369.0176470588235
 30
0.0
 40
16.0
100
AcDbArc
 50
235.0000000000004
 51
270.0
  0
ARC
  5
1C1
330
1F
100
AcDbEntity
  8
GR1
  6
Continuous
 62
     3
370
    50
100
AcDbCircle
 10
301.2528405191478
 20
210.6176470588235
 30
0.0
 40
5.5
100
AcDbArc
 50
90.0
 51
180.0
  0
ARC
  5
1C2
330
1F
100
AcDbEntity
  8
GR1
  6
Continuous
 62
     3
370
    50
100
AcDbCircle
 10
364.7528405191478
 20
105.9176470588235
 30
0.0
 40
22.0
100
AcDbArc
 50
196.33131092145
 51
343.66868907855
  0
CIRCLE
  5
1C3
330
1F
100
AcDbEntity
  8
GR1
  6
Continuous
 62
     3
370
    50
100
AcDbCircle
 10
364.7528405191478
 20
104.1176470588235
 30
0.0
 40
13.0
  0
LINE
  5
1C4
330
1F
100
AcDbEntity
  8
GR1
  6
Continuous
 62
     3
370
    50
100
AcDbLine
 10
354.751031710861
 20
288.7176470588235
 30
0.0
 11
374.751031710861
 21
288.7176470588235
 31
0.0
  0
LINE
  5
1C5
330
1F
100
AcDbEntity
  8
GR1
  6
Continuous
 62
     3
370
    50
100
AcDbLine
 10
374.751031710861
 20
288.7176470588235
 30
0.0
 11
376.3989118457874
 21
289.5415871262867
 31
0.0
  0
LINE
  5
1C6
330
1F
100
AcDbEntity
  8
GR1
  6
Continuous
 62
     3
370
    50
100
AcDbLine
 10
354.751031710861
 20
288.7176470588235
 30
0.0
 11
352.2583759086983
 21
289.9639749599048
 31
0.0
  0
ARC
  5
1C7
330
1F
100
AcDbEntity
  8
GR1
  6
Continuous
 62
     3
370
    50
100
AcDbCircle
 10
415.3201768420098
 20
293.6176470588235
 30
0.0
 40
17.0
100
AcDbArc
 50
235.0000000000008
 51
270.0000000000002
  0
ARC
  5
1C8
330
1F
100
AcDbEntity
  8
GR1
  6
Continuous
 62
     3
370
    50
100
AcDbCircle
 10
312.7528405191477
 20
293.6176470588235
 30
0.0
 40
17.0
100
AcDbArc
 50
180.0
 51
270.0
  0
TEXT
  5
1C9
330
1F
100
AcDbEntity
  8
GR1
  6
Continuous
 62
     7
370
    25
100
AcDbText
 10
360.3571472167969
 20
166.4605102539062
 30
0.0
 40
9.39431381225586
  1
Ｋ－１３０
 50
270.0
 41
0.8250787481569398
  7
FX_VECTOR
 72
     5
 11
360.3571472167969
 21
134.3490228652954
 31
0.0
100
AcDbText
  0
LINE
  5
1CA
330
1F
100
AcDbEntity
  8
GR1
  6
DASHDOT
 62
     6
370
    25
100
AcDbLine
 10
139.335583285777
 20
36.99468029023569
 30
0.0
 11
139.335583285777
 21
219.8592721103432
 31
0.0
  0
LINE
  5
1CB
330
1F
100
AcDbEntity
  8
GR1
  6
Continuous
 62
     6
370
    25
100
AcDbLine
 10
172.835583285777
 20
117.1158382505369
 30
0.0
 11
172.835583285777
 21
91.11583825053685
 31
0.0
  0
LINE
  5
1CC
330
1F
100
AcDbEntity
  8
GR1
  6
DASHDOT
 62
     6
370
    25
100
AcDbLine
 10
179.6371293563806
 20
104.1176470588235
 30
0.0
 11
92.23861120706448
 21
104.1176470588235
 31
0.0
  0
LINE
  5
1CD
330
1F
100
AcDbEntity
  8
GR1
  6
Continuous
 62
     6
370
    25
100
AcDbLine
 10
95.72720090235038
 20
110.3056470588235
 30
0.0
 11
97.33558328577693
 21
110.3056470588235
 31
0.0
  0
LINE
  5
1CE
330
1F
100
AcDbEntity
  8
GR1
  6
Continuous
 62
     6
370
    25
100
AcDbLine
 10
96.53558328577701
 20
111.1140294422502
 30
0.0
 11
96.53558328577701
 21
97.11402944225017
 31
0.0
  0
LINE
  5
1CF
330
1F
100
AcDbEntity
  8
GR1
  6
Continuous
 62
     6
370
    25
100
AcDbLine
 10
97.33558328577693
 20
97.92964705882355
 30
0.0
 11
95.72720090235038
 21
97.92964705882355
 31
0.0
  0
LINE
  5
1D0
330
1F
100
AcDbEntity
  8
GR1
  6
DASHDOT
 62
     6
370
    25
100
AcDbLine
 10
294.3349317881142
 20
104.1176470588235
 30
0.0
 11
433.6250620491154
 21
104.1176470588235
 31
0.0
  0
LINE
  5
1D1
330
1F
100
AcDbEntity
  8
GR1
  6
DASHDOT
 62
     6
370
    25
100
AcDbLine
 10
364.7528405191478
 20
221.1378013833657
 30
0.0
 11
364.7528405191478
 21
31.70801634024559
 31
0.0
  0
CIRCLE
  5
1D2
330
1F
100
AcDbEntity
  8
GR1
  6
Continuous
 62
     6
370
    25
100
AcDbCircle
 10
364.7528405191477
 20
104.1176470588235
 30
0.0
 40
10.0
  0
LINE
  5
1D3
330
1F
100
AcDbEntity
  8
GR1
  6
DASHDOT
 62
     6
370
    25
100
AcDbLine
 10
364.7528405191478
 20
280.5386996904024
 30
0.0
 11
364.7528405191478
 21
371.2122978639803
 31
0.0
  0
LINE
  5
1D4
330
1F
100
AcDbEntity
  8
GR1
  6
Continuous
 62
     6
370
    25
100
AcDbLine
 10
343.2528405191478
 20
351.1176470588235
 30
0.0
 11
343.2528405191478
 21
295.1176470588235
 31
0.0
  0
LINE
  5
1D5
330
1F
100
AcDbEntity
  8
GR1
  6
Continuous
 62
     6
370
    25
100
AcDbLine
 10
352.2528405191478
 20
290.2176470588235
 30
0.0
 11
375.8463209036942
 21
290.2176470588235
 31
0.0
  0
LINE
  5
1D6
330
1F
100
AcDbEntity
  8
GR1
  6
Continuous
 62
     6
370
    25
100
AcDbLine
 10
386.2528405191478
 20
295.1176470588235
 30
0.0
 11
386.2528405191478
 21
351.1176470588235
 31
0.0
  0
LINE
  5
1D7
330
1F
100
AcDbEntity
  8
GR1
  6
DASHDOT
 62
     6
370
    25
100
AcDbLine
 10
437.9458952372921
 20
323.1176470588235
 30
0.0
 11
290.7662135062558
 21
323.1176470588235
 31
0.0
  0
LINE
  5
1D8
330
1F
100
AcDbEntity
  8
GR1
  6
DASHDOT
 62
     6
370
    25
100
AcDbLine
 10
382.252840519148
 20
170.4338228105321
 30
0.0
 11
382.252840519148
 21
194.3466370807733
 31
0.0
  0
LINE
  5
1D9
330
1F
100
AcDbEntity
  8
GR1
  6
DASHDOT
 62
     6
370
    25
100
AcDbLine
 10
347.252840519148
 20
190.9988430829396
 30
0.0
 11
347.252840519148
 21
181.7233357934559
 31
0.0
  0
ARC
  5
1DA
330
1F
100
AcDbEntity
  8
GR1
  6
Continuous
 62
     3
370
    50
100
AcDbCircle
 10
382.2528405191479
 20
182.8176470588236
 30
0.0
 40
8.1
100
AcDbArc
 50
347.5229004440764
 51
102.4770995559234
  0
LINE
  5
1DB
330
1F
100
AcDbEntity
  8
GR1
  6
Continuous
 62
     3
370
    50
100
AcDbLine
 10
380.5028405191479
 20
190.7263448024474
 30
0.0
 11
380.5028405191479
 21
187.7143296092858
 31
0.0
  0
ARC
  5
1DC
330
1F
100
AcDbEntity
  8
GR1
  6
Continuous
 62
     3
370
    50
100
AcDbCircle
 10
382.2528405191479
 20
182.8176470588236
 30
0.0
 40
5.2
100
AcDbArc
 50
109.6661181791073
 51
115.9423686056344
  0
ARC
  5
1DD
330
1F
100
AcDbEntity
  8
GR1
  6
Continuous
 62
     3
370
    50
100
AcDbCircle
 10
382.2528405191479
 20
182.8176470588236
 30
0.0
 40
8.1
100
AcDbArc
 50
228.1180643061516
 51
282.4770995559232
  0
LINE
  5
1DE
330
1F
100
AcDbEntity
  8
GR1
  6
Continuous
 62
     3
370
    50
100
AcDbLine
 10
384.0028405191479
 20
174.9089493151998
 30
0.0
 11
384.0028405191479
 21
177.9209645083615
 31
0.0
  0
ARC
  5
1DF
330
1F
100
AcDbEntity
  8
GR1
  6
Continuous
 62
     3
370
    50
100
AcDbCircle
 10
382.2528405191479
 20
182.8176470588236
 30
0.0
 40
5.2
100
AcDbArc
 50
289.6661181791076
 51
323.9032972697546
  0
LINE
  5
1E0
330
1F
100
AcDbEntity
  8
GR1
  6
Continuous
 62
     3
370
    50
100
AcDbLine
 10
388.9986215070924
 20
181.0676470588236
 30
0.0
 11
390.1615382627717
 21
181.0676470588236
 31
0.0
  0
LINE
  5
1E1
330
1F
100
AcDbEntity
  8
GR1
  6
Continuous
 62
     6
370
    25
100
AcDbLine
 10
385.5700629596967
 20
112.9176470588235
 30
0.0
 11
385.5700629596967
 21
178.8131451821953
 31
0.0
  0
LINE
  5
1E2
330
1F
100
AcDbEntity
  8
GR1
  6
Continuous
 62
     6
370
    25
100
AcDbLine
 10
385.5700629596967
 20
190.2072367145433
 30
0.0
 11
385.5700629596967
 21
209.6176470588235
 31
0.0
  0
LINE
  5
1E3
330
1F
100
AcDbEntity
  8
GR1
  6
DASHDOT
 62
     6
370
    25
100
AcDbLine
 10
393.9005894671873
 20
182.8176470588235
 30
0.0
 11
337.9446040748228
 21
182.8176470588235
 31
0.0
  0
LINE
  5
1E4
330
1F
100
AcDbEntity
  8
GR1
  6
Continuous
 62
     6
370
    25
100
AcDbLine
 10
343.9356180785994
 20
188.4074623759803
 30
0.0
 11
343.9356180785994
 21
209.6176470588235
 31
0.0
  0
LINE
  5
1E5
330
1F
100
AcDbEntity
  8
GR1
  6
Continuous
 62
     6
370
    25
100
AcDbLine
 10
343.9356180785994
 20
170.9841538573182
 30
0.0
 11
343.9356180785994
 21
112.9176470588235
 31
0.0
  0
ARC
  5
1E6
330
1F
100
AcDbEntity
  8
GR1
  6
Continuous
 62
     6
370
    25
100
AcDbCircle
 10
347.252840519148
 20
182.8176470588235
 30
0.0
 40
6.5
100
AcDbArc
 50
120.6866071404145
 51
199.5435880515812
  0
ARC
  5
1E7
330
1F
100
AcDbEntity
  8
GR1
  6
Continuous
 62
     3
370
    50
100
AcDbCircle
 10
382.252840519148
 20
182.8176470588235
 30
0.0
 40
5.0
100
AcDbArc
 50
279.9999999999999
 51
100.0000000000006
  0
LINE
  5
1E8
330
1F
100
AcDbEntity
  8
GR1
  6
Continuous
 62
     3
370
    50
100
AcDbLine
 10
381.3845996308133
 20
187.7416858238846
 30
0.0
 11
300.8845996308134
 21
173.547363876853
 31
0.0
  0
LINE
  5
1E9
330
1F
100
AcDbEntity
  8
GR1
  6
Continuous
 62
     3
370
    50
100
AcDbLine
 10
296.7744133944019
 20
172.123325111792
 30
0.0
 11
306.7312676438942
 21
172.123325111792
 31
0.0
  0
ARC
  5
1EA
330
1F
100
AcDbEntity
  8
GR1
  6
Continuous
 62
     3
370
    50
100
AcDbCircle
 10
301.752840519148
 20
168.623325111792
 30
0.0
 40
5.0
100
AcDbArc
 50
44.42700400080575
 51
135.5729959991946
  0
ARC
  5
1EB
330
1F
100
AcDbEntity
  8
GR1
  6
Continuous
 62
     3
370
    50
100
AcDbCircle
 10
299.6028405191481
 20
168.6233251117919
 30
0.0
 40
4.5
100
AcDbArc
 50
128.9424412689804
 51
231.0575587310175
  0
LINE
  5
1EC
330
1F
100
AcDbEntity
  8
GR1
  6
Continuous
 62
     3
370
    50
100
AcDbLine
 10
296.752840519148
 20
165.123325111792
 30
0.0
 11
306.752840519148
 21
165.123325111792
 31
0.0
  0
ARC
  5
1ED
330
1F
100
AcDbEntity
  8
GR1
  6
Continuous
 62
     3
370
    50
100
AcDbCircle
 10
303.902840519148
 20
168.6233251117919
 30
0.0
 40
4.5
100
AcDbArc
 50
308.9424412689826
 51
51.05755873101959
  0
LINE
  5
1EE
330
1F
100
AcDbEntity
  8
GR1
  6
Continuous
 62
     3
370
    50
100
AcDbLine
 10
302.6210814074827
 20
163.699286346731
 30
0.0
 11
383.1210814074827
 21
177.8936082937625
 31
0.0
  0
LINE
  5
1EF
330
1F
100
AcDbEntity
  8
GR1
  6
Continuous
 62
     3
370
    50
100
AcDbLine
 10
385.3284603651733
 20
178.8754950370547
 30
0.0
 11
388.7150183456392
 21
181.5176470588235
 31
0.0
  0
LINE
  5
1F0
330
1F
100
AcDbEntity
  8
GR1
  6
Continuous
 62
     3
370
    50
100
AcDbLine
 10
388.7150183456392
 20
181.5176470588235
 30
0.0
 11
389.510314377391
 21
181.5176470588235
 31
0.0
  0
ARC
  5
1F1
330
1F
100
AcDbEntity
  8
GR1
  6
Continuous
 62
     3
370
    50
100
AcDbCircle
 10
383.652840519148
 20
182.8176470588236
 30
0.0
 40
6.0
100
AcDbArc
 50
347.4866746371171
 51
12.51332536288045
  0
LINE
  5
1F2
330
1F
100
AcDbEntity
  8
GR1
  6
Continuous
 62
     3
370
    50
100
AcDbLine
 10
389.510314377391
 20
184.1176470588235
 30
0.0
 11
388.7150183456392
 21
184.1176470588235
 31
0.0
  0
LINE
  5
1F3
330
1F
100
AcDbEntity
  8
GR1
  6
Continuous
 62
     3
370
    50
100
AcDbLine
 10
388.7150183456392
 20
184.1176470588235
 30
0.0
 11
385.3284603651733
 21
186.7597990805923
 31
0.0
  0
LINE
  5
1F4
330
1F
100
AcDbEntity
  8
GR1
  6
Continuous
 62
     3
370
    50
100
AcDbLine
 10
386.728317797573
 20
185.6676470588235
 30
0.0
 11
388.3352965490213
 21
185.6676470588235
 31
0.0
  0
LINE
  5
1F5
330
1F
100
AcDbEntity
  8
GR1
  6
Continuous
 62
     3
370
    50
100
AcDbLine
 10
388.9986215070924
 20
184.5676470588235
 30
0.0
 11
389.5919606607726
 21
184.5676470588235
 31
0.0
  0
ARC
  5
1F6
330
1F
100
AcDbEntity
  8
GR1
  6
Continuous
 62
     3
370
    50
100
AcDbCircle
 10
384.8528405191481
 20
182.8176470588235
 30
0.0
 40
4.5
100
AcDbArc
 50
16.79144711458892
 51
39.29648023918765
  0
ARC
  5
1F7
330
1F
100
AcDbEntity
  8
GR1
  6
Continuous
 62
     3
370
    50
100
AcDbCircle
 10
383.8528405191481
 20
182.8176470588236
 30
0.0
 40
6.0
100
AcDbArc
 50
343.0422366999949
 51
16.95776330000315
  0
LINE
  5
1F8
330
1F
100
AcDbEntity
  8
GR1
  6
Continuous
 62
     3
370
    50
100
AcDbLine
 10
388.3352965490213
 20
179.9676470588236
 30
0.0
 11
386.728317797573
 21
179.9676470588235
 31
0.0
  0
ARC
  5
1F9
330
1F
100
AcDbEntity
  8
GR1
  6
Continuous
 62
     3
370
    50
100
AcDbCircle
 10
384.8528405191481
 20
182.8176470588235
 30
0.0
 40
4.5
100
AcDbArc
 50
320.7035197608125
 51
343.2085528854115
  0
ARC
  5
1FA
330
1F
100
AcDbEntity
  8
GR1
  6
Continuous
 62
     3
370
    50
100
AcDbCircle
 10
301.752840519148
 20
168.623325111792
 30
0.0
 40
5.0
100
AcDbArc
 50
224.4270040008055
 51
315.5729959991942
  0
LINE
  5
1FB
330
1F
100
AcDbEntity
  8
GR1
  6
DASHDOT
 62
     6
370
    25
100
AcDbLine
 10
293.1881149874167
 20
168.623325111792
 30
0.0
 11
301.7528405191479
 21
168.623325111792
 31
0.0
  0
LINE
  5
1FC
330
1F
100
AcDbEntity
  8
GR1
  6
DASHDOT
 62
     6
370
    25
100
AcDbLine
 10
301.7528405191481
 20
168.6233251117919
 30
0.0
 11
382.252840519148
 21
182.8176470588235
 31
0.0
  0
LINE
  5
1FD
330
1F
100
AcDbEntity
  8
GR1
  6
DASHDOT
 62
     6
370
    25
100
AcDbLine
 10
301.752840519148
 20
178.6398910302985
 30
0.0
 11
301.752840519148
 21
160.5777615142056
 31
0.0
  0
LINE
  5
1FE
330
1F
100
AcDbEntity
  8
GR1
  6
DASHDOT
 62
     6
370
    25
100
AcDbLine
 10
101.4710657499049
 20
182.8176470588235
 30
0.0
 11
191.5071394117416
 21
182.8176470588235
 31
0.0
  0
ARC
  5
1FF
330
1F
100
AcDbEntity
  8
GR1
  6
Continuous
 62
     3
370
    50
100
AcDbCircle
 10
371.252840519148
 20
277.1402235817012
 30
0.0
 40
16.0
100
AcDbArc
 50
272.0000000000001
 51
0.0
  0
LINE
  5
200
330
1F
100
AcDbEntity
  8
GR1
  6
Continuous
 62
     3
370
    50
100
AcDbLine
 10
387.252840519148
 20
277.1402235817012
 30
0.0
 11
387.252840519148
 21
286.7469328445521
 31
0.0
  0
ARC
  5
201
330
1F
100
AcDbEntity
  8
GR1
  6
Continuous
 62
     3
370
    50
100
AcDbCircle
 10
392.252840519148
 20
286.7469328445521
 30
0.0
 40
5.0
100
AcDbArc
 50
144.5529257760343
 51
180.0
  0
ARC
  5
202
330
1F
100
AcDbEntity
  8
GR1
  6
Continuous
 62
     3
370
    50
100
AcDbCircle
 10
394.8045355252086
 20
284.5668063841237
 30
0.0
 40
8.34836396620102
100
AcDbArc
 50
136.460190574907
 51
142.5197392019516
  0
ARC
  5
203
330
1F
100
AcDbEntity
  8
GR1
  6
Continuous
 62
     3
370
    50
100
AcDbCircle
 10
377.9528405191484
 20
294.8176470588234
 30
0.0
 40
11.69999999999964
100
AcDbArc
 50
337.3801350519588
 51
341.7605356219836
  0
ARC
  5
204
330
1F
100
AcDbEntity
  8
GR1
  6
Continuous
 62
     3
370
    50
100
AcDbCircle
 10
386.5528405191475
 20
294.8176470588234
 30
0.0
 40
11.69999999999964
100
AcDbArc
 50
187.8599496920403
 51
202.6198649480411
  0
ARC
  5
205
330
1F
100
AcDbEntity
  8
GR1
  6
Continuous
 62
     3
370
    50
100
AcDbCircle
 10
369.7011455130872
 20
284.5668063841237
 30
0.0
 40
8.34836396620102
100
AcDbArc
 50
37.48026079804821
 51
43.53980942509299
  0
ARC
  5
206
330
1F
100
AcDbEntity
  8
GR1
  6
Continuous
 62
     3
370
    50
100
AcDbCircle
 10
372.2528405191479
 20
286.7469328445521
 30
0.0
 40
5.0
100
AcDbArc
 50
0.0
 51
35.44707422396571
  0
LINE
  5
207
330
1F
100
AcDbEntity
  8
GR1
  6
Continuous
 62
     3
370
    50
100
AcDbLine
 10
377.252840519148
 20
286.7469328445521
 30
0.0
 11
377.252840519148
 21
277.1402235817012
 31
0.0
  0
LINE
  5
208
330
1F
100
AcDbEntity
  8
GR1
  6
Continuous
 62
     3
370
    50
100
AcDbLine
 10
371.462237499363
 20
271.1438786195866
 30
0.0
 11
312.194448571908
 21
269.0742018241654
 31
0.0
  0
ARC
  5
209
330
1F
100
AcDbEntity
  8
GR1
  6
Continuous
 62
     3
370
    50
100
AcDbCircle
 10
312.752840519148
 20
253.0839485918598
 30
0.0
 40
16.0
100
AcDbArc
 50
92.00000000000011
 51
180.0
  0
LINE
  5
20A
330
1F
100
AcDbEntity
  8
GR1
  6
Continuous
 62
     3
370
    50
100
AcDbLine
 10
296.752840519148
 20
253.0839485918597
 30
0.0
 11
296.752840519148
 21
250.1176470588234
 31
0.0
  0
ARC
  5
20B
330
1F
100
AcDbEntity
  8
GR1
  6
Continuous
 62
     3
370
    50
100
AcDbCircle
 10
290.752840519148
 20
250.1176470588234
 30
0.0
 40
6.0
100
AcDbArc
 50
335.2760371593183
 51
0.0
  0
ARC
  5
20C
330
1F
100
AcDbEntity
  8
GR1
  6
Continuous
 62
     3
370
    50
100
AcDbCircle
 10
307.1028405191479
 20
242.5892010040255
 30
0.0
 40
12.0
100
AcDbArc
 50
155.2760371593183
 51
180.0
  0
LINE
  5
20D
330
1F
100
AcDbEntity
  8
GR1
  6
Continuous
 62
     3
370
    50
100
AcDbLine
 10
295.1028405191479
 20
242.5892010040255
 30
0.0
 11
295.1028405191479
 21
227.1213994055078
 31
0.0
  0
ARC
  5
20E
330
1F
100
AcDbEntity
  8
GR1
  6
Continuous
 62
     3
370
    50
100
AcDbCircle
 10
299.1028405191479
 20
227.1213994055078
 30
0.0
 40
4.0
100
AcDbArc
 50
180.0
 51
228.5091831443463
  0
ARC
  5
20F
330
1F
100
AcDbEntity
  8
GR1
  6
Continuous
 62
     3
370
    50
100
AcDbCircle
 10
301.752840519148
 20
230.1176470588234
 30
0.0
 40
8.0
100
AcDbArc
 50
228.5091831443463
 51
311.490816855654
  0
ARC
  5
210
330
1F
100
AcDbEntity
  8
GR1
  6
Continuous
 62
     3
370
    50
100
AcDbCircle
 10
304.4028405191479
 20
227.1213994055078
 30
0.0
 40
4.0
100
AcDbArc
 50
311.4908168556543
 51
0.0
  0
LINE
  5
211
330
1F
100
AcDbEntity
  8
GR1
  6
Continuous
 62
     3
370
    50
100
AcDbLine
 10
308.402840519148
 20
227.1213994055078
 30
0.0
 11
308.402840519148
 21
242.5892010040255
 31
0.0
  0
ARC
  5
212
330
1F
100
AcDbEntity
  8
GR1
  6
Continuous
 62
     3
370
    50
100
AcDbCircle
 10
296.402840519148
 20
242.5892010040255
 30
0.0
 40
12.0
100
AcDbArc
 50
0.0
 51
24.72396284068173
  0
ARC
  5
213
330
1F
100
AcDbEntity
  8
GR1
  6
Continuous
 62
     3
370
    50
100
AcDbCircle
 10
312.7528405191479
 20
250.1176470588234
 30
0.0
 40
6.0
100
AcDbArc
 50
180.0000000000002
 51
204.723962840682
  0
LINE
  5
214
330
1F
100
AcDbEntity
  8
GR1
  6
Continuous
 62
     3
370
    50
100
AcDbLine
 10
306.7528405191479
 20
250.1176470588234
 30
0.0
 11
306.752840519148
 21
253.08394859186
 31
0.0
  0
LINE
  5
215
330
1F
100
AcDbEntity
  8
GR1
  6
Continuous
 62
     3
370
    50
100
AcDbLine
 10
312.543443538933
 20
259.0802935539744
 30
0.0
 11
371.811232466388
 21
261.1499703493957
 31
0.0
  0
ARC
  5
216
330
1F
100
AcDbEntity
  8
GR1
  6
Continuous
 62
     3
370
    50
100
AcDbCircle
 10
371.252840519148
 20
277.1402235817012
 30
0.0
 40
6.0
100
AcDbArc
 50
271.9999999999998
 51
0.0
  0
ARC
  5
217
330
1F
100
AcDbEntity
  8
GR1
  6
Continuous
 62
     3
370
    50
100
AcDbCircle
 10
312.752840519148
 20
253.0839485918598
 30
0.0
 40
6.0
100
AcDbArc
 50
92.00000000000011
 51
179.9999999999997
  0
LINE
  5
218
330
1F
100
AcDbEntity
  8
GR1
  6
Continuous
 62
     6
370
    25
100
AcDbLine
 10
385.052840519148
 20
292.7488305928688
 30
0.0
 11
385.052840519148
 21
289.3176470588234
 31
0.0
  0
LINE
  5
219
330
1F
100
AcDbEntity
  8
GR1
  6
Continuous
 62
     6
370
    25
100
AcDbLine
 10
385.052840519148
 20
289.3176470588235
 30
0.0
 11
388.7528405191479
 21
290.3176470588235
 31
0.0
  0
LINE
  5
21A
330
1F
100
AcDbEntity
  8
GR1
  6
Continuous
 62
     6
370
    25
100
AcDbLine
 10
388.7528405191479
 20
290.3176470588235
 30
0.0
 11
385.052840519148
 21
290.3176470588235
 31
0.0
  0
LINE
  5
21B
330
1F
100
AcDbEntity
  8
GR1
  6
Continuous
 62
     6
370
    25
100
AcDbLine
 10
379.4528405191479
 20
290.3176470588235
 30
0.0
 11
375.7528405191479
 21
290.3176470588235
 31
0.0
  0
LINE
  5
21C
330
1F
100
AcDbEntity
  8
GR1
  6
Continuous
 62
     6
370
    25
100
AcDbLine
 10
375.7528405191479
 20
290.3176470588235
 30
0.0
 11
379.4528405191479
 21
289.3176470588235
 31
0.0
  0
LINE
  5
21D
330
1F
100
AcDbEntity
  8
GR1
  6
Continuous
 62
     6
370
    25
100
AcDbLine
 10
379.4528405191479
 20
289.3176470588234
 30
0.0
 11
379.4528405191479
 21
293.2176470588236
 31
0.0
  0
ARC
  5
21E
330
1F
100
AcDbEntity
  8
GR1
  6
DASHDOT
 62
     6
370
    25
100
AcDbCircle
 10
371.2528405191479
 20
277.1402235817012
 30
0.0
 40
11.0
100
AcDbArc
 50
272.0000000000001
 51
0.0
  0
LINE
  5
21F
330
1F
100
AcDbEntity
  8
GR1
  6
DASHDOT
 62
     6
370
    25
100
AcDbLine
 10
371.6367349828755
 20
266.1469244844911
 30
0.0
 11
312.3689460554205
 21
264.0772476890699
 31
0.0
  0
ARC
  5
220
330
1F
100
AcDbEntity
  8
GR1
  6
DASHDOT
 62
     6
370
    25
100
AcDbCircle
 10
312.752840519148
 20
253.0839485918598
 30
0.0
 40
11.0
100
AcDbArc
 50
92.00000000000011
 51
180.0
  0
LINE
  5
221
330
1F
100
AcDbEntity
  8
GR1
  6
DASHDOT
 62
     6
370
    25
100
AcDbLine
 10
301.752840519148
 20
253.0839485918598
 30
0.0
 11
301.752840519148
 21
219.0926468191969
 31
0.0
  0
LINE
  5
222
330
1F
100
AcDbEntity
  8
GR1
  6
Continuous
 62
     6
370
    25
100
AcDbLine
 10
302.436539365992
 20
223.1511159358883
 30
0.0
 11
301.752840519148
 21
224.3353170756982
 31
0.0
  0
LINE
  5
223
330
1F
100
AcDbEntity
  8
GR1
  6
Continuous
 62
     6
370
    25
100
AcDbLine
 10
301.7528405191479
 20
224.3353170756982
 30
0.0
 11
301.0691416723039
 21
223.1511159358883
 31
0.0
  0
LINE
  5
224
330
1F
100
AcDbEntity
  8
GR1
  6
Continuous
 62
     6
370
    25
100
AcDbLine
 10
300.0207897115791
 20
223.3353170756982
 30
0.0
 11
298.8660891731998
 21
225.3353170756982
 31
0.0
  0
LINE
  5
225
330
1F
100
AcDbEntity
  8
GR1
  6
Continuous
 62
     6
370
    25
100
AcDbLine
 10
298.8660891731998
 20
225.3353170756982
 30
0.0
 11
300.0207897115791
 21
227.3353170756983
 31
0.0
  0
LINE
  5
226
330
1F
100
AcDbEntity
  8
GR1
  6
Continuous
 62
     6
370
    25
100
AcDbLine
 10
300.0207897115791
 20
227.3353170756983
 30
0.0
 11
301.1754902499584
 21
225.3353170756983
 31
0.0
  0
LINE
  5
227
330
1F
100
AcDbEntity
  8
GR1
  6
Continuous
 62
     6
370
    25
100
AcDbLine
 10
301.1754902499584
 20
225.3353170756983
 30
0.0
 11
300.0207897115791
 21
223.3353170756982
 31
0.0
  0
LINE
  5
228
330
1F
100
AcDbEntity
  8
GR1
  6
Continuous
 62
     6
370
    25
100
AcDbLine
 10
298.541323887218
 20
223.8978270515534
 30
0.0
 11
298.2887389040101
 21
224.3353170756982
 31
0.0
  0
LINE
  5
229
330
1F
100
AcDbEntity
  8
GR1
  6
Continuous
 62
     6
370
    25
100
AcDbLine
 10
298.2887389040101
 20
224.3353170756982
 30
0.0
 11
298.1590097004126
 21
224.1106195038419
 31
0.0
  0
LINE
  5
22A
330
1F
100
AcDbEntity
  8
GR1
  6
Continuous
 62
     6
370
    25
100
AcDbLine
 10
297.3367514538908
 20
224.6864264439234
 30
0.0
 11
297.7113886348206
 21
225.3353170756982
 31
0.0
  0
LINE
  5
22B
330
1F
100
AcDbEntity
  8
GR1
  6
Continuous
 62
     6
370
    25
100
AcDbLine
 10
297.7113886348206
 20
225.3353170756982
 30
0.0
 11
296.5566880964413
 21
227.3353170756982
 31
0.0
  0
LINE
  5
22C
330
1F
100
AcDbEntity
  8
GR1
  6
Continuous
 62
     6
370
    25
100
AcDbLine
 10
296.5566880964413
 20
227.3353170756982
 30
0.0
 11
296.1447342730142
 21
226.6217921231502
 31
0.0
  0
ARC
  5
22D
330
1F
100
AcDbEntity
  8
GR1
  6
Continuous
 62
     6
370
    25
100
AcDbCircle
 10
299.1028405191479
 20
227.1213994055078
 30
0.0
 40
3.0
100
AcDbArc
 50
180.0
 51
228.5091831443463
  0
ARC
  5
22E
330
1F
100
AcDbEntity
  8
GR1
  6
Continuous
 62
     6
370
    25
100
AcDbCircle
 10
301.752840519148
 20
230.1176470588234
 30
0.0
 40
7.0
100
AcDbArc
 50
228.5091831443463
 51
311.4908168556536
  0
ARC
  5
22F
330
1F
100
AcDbEntity
  8
GR1
  6
Continuous
 62
     6
370
    25
100
AcDbCircle
 10
304.4028405191479
 20
227.1213994055078
 30
0.0
 40
3.0
100
AcDbArc
 50
311.4908168556546
 51
0.0
  0
LINE
  5
230
330
1F
100
AcDbEntity
  8
GR1
  6
Continuous
 62
     6
370
    25
100
AcDbLine
 10
307.402840519148
 20
227.1213994055078
 30
0.0
 11
307.402840519148
 21
245.423617555023
 31
0.0
  0
ARC
  5
231
330
1F
100
AcDbEntity
  8
GR1
  6
Continuous
 62
     6
370
    25
100
AcDbCircle
 10
295.502840519148
 20
243.877655071649
 30
0.0
 40
12.0
100
AcDbArc
 50
7.401999687711775
 51
31.33220670723313
  0
LINE
  5
232
330
1F
100
AcDbEntity
  8
GR1
  6
Continuous
 62
     6
370
    25
100
AcDbLine
 10
305.7528405191479
 20
250.1176470588234
 30
0.0
 11
297.7528405191479
 21
250.1176470588234
 31
0.0
  0
ARC
  5
233
330
1F
100
AcDbEntity
  8
GR1
  6
Continuous
 62
     6
370
    25
100
AcDbCircle
 10
308.002840519148
 20
243.877655071649
 30
0.0
 40
12.0
100
AcDbArc
 50
148.6677932927669
 51
172.5980003122882
  0
LINE
  5
234
330
1F
100
AcDbEntity
  8
GR1
  6
Continuous
 62
     6
370
    25
100
AcDbLine
 10
296.1028405191479
 20
245.423617555023
 30
0.0
 11
296.1028405191479
 21
227.1213994055078
 31
0.0
  0
LINE
  5
235
330
1F
100
AcDbEntity
  8
GR1
  6
Continuous
 62
     6
370
    25
100
AcDbLine
 10
297.1340383656309
 20
228.3353170756982
 30
0.0
 11
298.2887389040102
 21
230.3353170756982
 31
0.0
  0
LINE
  5
236
330
1F
100
AcDbEntity
  8
GR1
  6
Continuous
 62
     6
370
    25
100
AcDbLine
 10
298.2887389040102
 20
230.3353170756982
 30
0.0
 11
299.4434394423895
 21
228.3353170756982
 31
0.0
  0
LINE
  5
237
330
1F
100
AcDbEntity
  8
GR1
  6
Continuous
 62
     6
370
    25
100
AcDbLine
 10
299.4434394423895
 20
228.3353170756982
 30
0.0
 11
298.2887389040102
 21
226.3353170756982
 31
0.0
  0
LINE
  5
238
330
1F
100
AcDbEntity
  8
GR1
  6
Continuous
 62
     6
370
    25
100
AcDbLine
 10
298.2887389040102
 20
226.3353170756982
 30
0.0
 11
297.1340383656309
 21
228.3353170756982
 31
0.0
  0
LINE
  5
239
330
1F
100
AcDbEntity
  8
GR1
  6
Continuous
 62
     6
370
    25
100
AcDbLine
 10
296.5566880964413
 20
229.3353170756982
 30
0.0
 11
296.1028405191479
 21
230.1214041384624
 31
0.0
  0
LINE
  5
23A
330
1F
100
AcDbEntity
  8
GR1
  6
Continuous
 62
     6
370
    25
100
AcDbLine
 10
296.5566880964413
 20
229.3353170756982
 30
0.0
 11
297.7113886348206
 21
231.3353170756982
 31
0.0
  0
LINE
  5
23B
330
1F
100
AcDbEntity
  8
GR1
  6
Continuous
 62
     6
370
    25
100
AcDbLine
 10
297.7113886348206
 20
231.3353170756982
 30
0.0
 11
296.5566880964413
 21
233.3353170756982
 31
0.0
  0
LINE
  5
23C
330
1F
100
AcDbEntity
  8
GR1
  6
Continuous
 62
     6
370
    25
100
AcDbLine
 10
296.5566880964414
 20
233.3353170756982
 30
0.0
 11
296.1028405191479
 21
232.5492300129339
 31
0.0
  0
LINE
  5
23D
330
1F
100
AcDbEntity
  8
GR1
  6
Continuous
 62
     6
370
    25
100
AcDbLine
 10
297.134038365631
 20
234.3353170756982
 30
0.0
 11
298.2887389040102
 21
232.3353170756982
 31
0.0
  0
LINE
  5
23E
330
1F
100
AcDbEntity
  8
GR1
  6
Continuous
 62
     6
370
    25
100
AcDbLine
 10
298.2887389040102
 20
232.3353170756982
 30
0.0
 11
299.4434394423895
 21
234.3353170756982
 31
0.0
  0
LINE
  5
23F
330
1F
100
AcDbEntity
  8
GR1
  6
Continuous
 62
     6
370
    25
100
AcDbLine
 10
299.4434394423895
 20
234.3353170756982
 30
0.0
 11
298.2887389040102
 21
236.3353170756982
 31
0.0
  0
LINE
  5
240
330
1F
100
AcDbEntity
  8
GR1
  6
Continuous
 62
     6
370
    25
100
AcDbLine
 10
298.2887389040102
 20
236.3353170756981
 30
0.0
 11
297.134038365631
 21
234.3353170756982
 31
0.0
  0
LINE
  5
241
330
1F
100
AcDbEntity
  8
GR1
  6
Continuous
 62
     6
370
    25
100
AcDbLine
 10
296.5566880964414
 20
235.3353170756982
 30
0.0
 11
297.7113886348206
 21
237.3353170756982
 31
0.0
  0
LINE
  5
242
330
1F
100
AcDbEntity
  8
GR1
  6
Continuous
 62
     6
370
    25
100
AcDbLine
 10
297.7113886348206
 20
237.3353170756982
 30
0.0
 11
296.5566880964413
 21
239.3353170756982
 31
0.0
  0
LINE
  5
243
330
1F
100
AcDbEntity
  8
GR1
  6
Continuous
 62
     6
370
    25
100
AcDbLine
 10
296.5566880964413
 20
239.3353170756982
 30
0.0
 11
296.1028405191479
 21
238.5492300129339
 31
0.0
  0
LINE
  5
244
330
1F
100
AcDbEntity
  8
GR1
  6
Continuous
 62
     6
370
    25
100
AcDbLine
 10
297.1340383656309
 20
240.3353170756981
 30
0.0
 11
298.2887389040102
 21
242.3353170756982
 31
0.0
  0
LINE
  5
245
330
1F
100
AcDbEntity
  8
GR1
  6
Continuous
 62
     6
370
    25
100
AcDbLine
 10
298.2887389040102
 20
242.3353170756982
 30
0.0
 11
299.4434394423895
 21
240.3353170756981
 31
0.0
  0
LINE
  5
246
330
1F
100
AcDbEntity
  8
GR1
  6
Continuous
 62
     6
370
    25
100
AcDbLine
 10
299.4434394423895
 20
240.3353170756981
 30
0.0
 11
298.2887389040102
 21
238.3353170756982
 31
0.0
  0
LINE
  5
247
330
1F
100
AcDbEntity
  8
GR1
  6
Continuous
 62
     6
370
    25
100
AcDbLine
 10
298.2887389040102
 20
238.3353170756982
 30
0.0
 11
297.1340383656309
 21
240.3353170756981
 31
0.0
  0
LINE
  5
248
330
1F
100
AcDbEntity
  8
GR1
  6
Continuous
 62
     6
370
    25
100
AcDbLine
 10
296.5566880964415
 20
241.3353170756984
 30
0.0
 11
297.7113886348207
 21
243.3353170756984
 31
0.0
  0
LINE
  5
249
330
1F
100
AcDbEntity
  8
GR1
  6
Continuous
 62
     6
370
    25
100
AcDbLine
 10
297.7113886348207
 20
243.3353170756984
 30
0.0
 11
296.5566880964414
 21
245.3353170756983
 31
0.0
  0
LINE
  5
24A
330
1F
100
AcDbEntity
  8
GR1
  6
Continuous
 62
     6
370
    25
100
AcDbLine
 10
296.5566880964414
 20
245.3353170756983
 30
0.0
 11
296.1028405191481
 21
244.5492300129341
 31
0.0
  0
LINE
  5
24B
330
1F
100
AcDbEntity
  8
GR1
  6
Continuous
 62
     6
370
    25
100
AcDbLine
 10
297.1340383656311
 20
246.3353170756983
 30
0.0
 11
298.2887389040104
 21
248.3353170756984
 31
0.0
  0
LINE
  5
24C
330
1F
100
AcDbEntity
  8
GR1
  6
Continuous
 62
     6
370
    25
100
AcDbLine
 10
298.2887389040104
 20
248.3353170756984
 30
0.0
 11
299.4434394423895
 21
246.3353170756983
 31
0.0
  0
LINE
  5
24D
330
1F
100
AcDbEntity
  8
GR1
  6
Continuous
 62
     6
370
    25
100
AcDbLine
 10
299.4434394423895
 20
246.3353170756983
 30
0.0
 11
298.2887389040103
 21
244.3353170756983
 31
0.0
  0
LINE
  5
24E
330
1F
100
AcDbEntity
  8
GR1
  6
Continuous
 62
     6
370
    25
100
AcDbLine
 10
298.2887389040103
 20
244.3353170756983
 30
0.0
 11
297.1340383656311
 21
246.3353170756983
 31
0.0
  0
LINE
  5
24F
330
1F
100
AcDbEntity
  8
GR1
  6
Continuous
 62
     6
370
    25
100
AcDbLine
 10
296.5566880964416
 20
247.3353170756983
 30
0.0
 11
297.7113886348209
 21
249.3353170756982
 31
0.0
  0
LINE
  5
250
330
1F
100
AcDbEntity
  8
GR1
  6
Continuous
 62
     6
370
    25
100
AcDbLine
 10
297.7113886348209
 20
249.3353170756982
 30
0.0
 11
297.5054978603604
 21
249.6919303578734
 31
0.0
  0
LINE
  5
251
330
1F
100
AcDbEntity
  8
GR1
  6
Continuous
 62
     6
370
    25
100
AcDbLine
 10
298.8660891732001
 20
249.3353170756982
 30
0.0
 11
300.0207897115794
 21
247.3353170756982
 31
0.0
  0
LINE
  5
252
330
1F
100
AcDbEntity
  8
GR1
  6
Continuous
 62
     6
370
    25
100
AcDbLine
 10
300.0207897115794
 20
247.3353170756982
 30
0.0
 11
301.1754902499586
 21
249.3353170756982
 31
0.0
  0
LINE
  5
253
330
1F
100
AcDbEntity
  8
GR1
  6
Continuous
 62
     6
370
    25
100
AcDbLine
 10
301.1754902499586
 20
249.3353170756982
 30
0.0
 11
300.7238118236062
 21
250.1176470588234
 31
0.0
  0
LINE
  5
254
330
1F
100
AcDbEntity
  8
GR1
  6
Continuous
 62
     6
370
    25
100
AcDbLine
 10
299.3177675995525
 20
250.1176470588234
 30
0.0
 11
298.8660891732001
 21
249.3353170756982
 31
0.0
  0
LINE
  5
255
330
1F
100
AcDbEntity
  8
GR1
  6
Continuous
 62
     6
370
    25
100
AcDbLine
 10
296.5272444330671
 20
247.386314996624
 30
0.0
 11
296.5566880964416
 21
247.3353170756983
 31
0.0
  0
LINE
  5
256
330
1F
100
AcDbEntity
  8
GR1
  6
Continuous
 62
     6
370
    25
100
AcDbLine
 10
300.0207897115792
 20
245.3353170756984
 30
0.0
 11
298.8660891732
 21
243.3353170756984
 31
0.0
  0
LINE
  5
257
330
1F
100
AcDbEntity
  8
GR1
  6
Continuous
 62
     6
370
    25
100
AcDbLine
 10
298.8660891732
 20
243.3353170756984
 30
0.0
 11
300.0207897115792
 21
241.3353170756984
 31
0.0
  0
LINE
  5
258
330
1F
100
AcDbEntity
  8
GR1
  6
Continuous
 62
     6
370
    25
100
AcDbLine
 10
300.0207897115792
 20
241.3353170756984
 30
0.0
 11
301.1754902499584
 21
243.3353170756984
 31
0.0
  0
LINE
  5
259
330
1F
100
AcDbEntity
  8
GR1
  6
Continuous
 62
     6
370
    25
100
AcDbLine
 10
301.1754902499584
 20
243.3353170756984
 30
0.0
 11
300.0207897115792
 21
245.3353170756984
 31
0.0
  0
LINE
  5
25A
330
1F
100
AcDbEntity
  8
GR1
  6
Continuous
 62
     6
370
    25
100
AcDbLine
 10
300.5981399807688
 20
246.3353170756984
 30
0.0
 11
301.7528405191481
 21
244.3353170756984
 31
0.0
  0
LINE
  5
25B
330
1F
100
AcDbEntity
  8
GR1
  6
Continuous
 62
     6
370
    25
100
AcDbLine
 10
301.7528405191481
 20
244.3353170756984
 30
0.0
 11
302.9075410575273
 21
246.3353170756984
 31
0.0
  0
LINE
  5
25C
330
1F
100
AcDbEntity
  8
GR1
  6
Continuous
 62
     6
370
    25
100
AcDbLine
 10
302.9075410575273
 20
246.3353170756984
 30
0.0
 11
301.7528405191481
 21
248.3353170756983
 31
0.0
  0
LINE
  5
25D
330
1F
100
AcDbEntity
  8
GR1
  6
Continuous
 62
     6
370
    25
100
AcDbLine
 10
301.7528405191481
 20
248.3353170756984
 30
0.0
 11
300.5981399807688
 21
246.3353170756984
 31
0.0
  0
LINE
  5
25E
330
1F
100
AcDbEntity
  8
GR1
  6
Continuous
 62
     6
370
    25
100
AcDbLine
 10
303.484891326717
 20
245.3353170756984
 30
0.0
 11
304.6395918650962
 21
243.3353170756984
 31
0.0
  0
LINE
  5
25F
330
1F
100
AcDbEntity
  8
GR1
  6
Continuous
 62
     6
370
    25
100
AcDbLine
 10
304.6395918650962
 20
243.3353170756984
 30
0.0
 11
303.484891326717
 21
241.3353170756984
 31
0.0
  0
LINE
  5
260
330
1F
100
AcDbEntity
  8
GR1
  6
Continuous
 62
     6
370
    25
100
AcDbLine
 10
303.484891326717
 20
241.3353170756984
 30
0.0
 11
302.3301907883377
 21
243.3353170756984
 31
0.0
  0
LINE
  5
261
330
1F
100
AcDbEntity
  8
GR1
  6
Continuous
 62
     6
370
    25
100
AcDbLine
 10
302.3301907883377
 20
243.3353170756984
 30
0.0
 11
303.484891326717
 21
245.3353170756984
 31
0.0
  0
LINE
  5
262
330
1F
100
AcDbEntity
  8
GR1
  6
Continuous
 62
     6
370
    25
100
AcDbLine
 10
304.0622415959066
 20
246.3353170756984
 30
0.0
 11
305.2169421342858
 21
244.3353170756984
 31
0.0
  0
LINE
  5
263
330
1F
100
AcDbEntity
  8
GR1
  6
Continuous
 62
     6
370
    25
100
AcDbLine
 10
305.2169421342858
 20
244.3353170756984
 30
0.0
 11
306.3716426726651
 21
246.3353170756984
 31
0.0
  0
LINE
  5
264
330
1F
100
AcDbEntity
  8
GR1
  6
Continuous
 62
     6
370
    25
100
AcDbLine
 10
306.3716426726651
 20
246.3353170756984
 30
0.0
 11
305.2169421342858
 21
248.3353170756984
 31
0.0
  0
LINE
  5
265
330
1F
100
AcDbEntity
  8
GR1
  6
Continuous
 62
     6
370
    25
100
AcDbLine
 10
305.2169421342858
 20
248.3353170756984
 30
0.0
 11
304.0622415959066
 21
246.3353170756984
 31
0.0
  0
LINE
  5
266
330
1F
100
AcDbEntity
  8
GR1
  6
Continuous
 62
     6
370
    25
100
AcDbLine
 10
303.4848913267172
 20
247.3353170756984
 30
0.0
 11
302.3301907883379
 21
249.3353170756984
 31
0.0
  0
LINE
  5
267
330
1F
100
AcDbEntity
  8
GR1
  6
Continuous
 62
     6
370
    25
100
AcDbLine
 10
302.3301907883379
 20
249.3353170756984
 30
0.0
 11
302.7818692146903
 21
250.1176470588234
 31
0.0
  0
LINE
  5
268
330
1F
100
AcDbEntity
  8
GR1
  6
Continuous
 62
     6
370
    25
100
AcDbLine
 10
304.187913438744
 20
250.1176470588234
 30
0.0
 11
304.6395918650964
 21
249.3353170756984
 31
0.0
  0
LINE
  5
269
330
1F
100
AcDbEntity
  8
GR1
  6
Continuous
 62
     6
370
    25
100
AcDbLine
 10
304.6395918650964
 20
249.3353170756984
 30
0.0
 11
303.4848913267172
 21
247.3353170756984
 31
0.0
  0
LINE
  5
26A
330
1F
100
AcDbEntity
  8
GR1
  6
Continuous
 62
     6
370
    25
100
AcDbLine
 10
305.794292403475
 20
249.3353170756982
 30
0.0
 11
306.9489929418543
 21
247.3353170756983
 31
0.0
  0
LINE
  5
26B
330
1F
100
AcDbEntity
  8
GR1
  6
Continuous
 62
     6
370
    25
100
AcDbLine
 10
306.9489929418543
 20
247.3353170756983
 30
0.0
 11
306.9784366052289
 21
247.386314996624
 31
0.0
  0
LINE
  5
26C
330
1F
100
AcDbEntity
  8
GR1
  6
Continuous
 62
     6
370
    25
100
AcDbLine
 10
306.9489929418547
 20
245.3353170756984
 30
0.0
 11
305.7942924034755
 21
243.3353170756984
 31
0.0
  0
LINE
  5
26D
330
1F
100
AcDbEntity
  8
GR1
  6
Continuous
 62
     6
370
    25
100
AcDbLine
 10
305.7942924034755
 20
243.3353170756984
 30
0.0
 11
306.9489929418547
 21
241.3353170756984
 31
0.0
  0
LINE
  5
26E
330
1F
100
AcDbEntity
  8
GR1
  6
Continuous
 62
     6
370
    25
100
AcDbLine
 10
306.9489929418547
 20
241.3353170756984
 30
0.0
 11
307.402840519148
 21
242.1214041384624
 31
0.0
  0
LINE
  5
26F
330
1F
100
AcDbEntity
  8
GR1
  6
Continuous
 62
     6
370
    25
100
AcDbLine
 10
306.371642672665
 20
240.3353170756982
 30
0.0
 11
305.2169421342858
 21
238.3353170756982
 31
0.0
  0
LINE
  5
270
330
1F
100
AcDbEntity
  8
GR1
  6
Continuous
 62
     6
370
    25
100
AcDbLine
 10
305.2169421342858
 20
238.3353170756982
 30
0.0
 11
304.0622415959065
 21
240.3353170756982
 31
0.0
  0
LINE
  5
271
330
1F
100
AcDbEntity
  8
GR1
  6
Continuous
 62
     6
370
    25
100
AcDbLine
 10
304.0622415959065
 20
240.3353170756982
 30
0.0
 11
305.2169421342857
 21
242.3353170756982
 31
0.0
  0
LINE
  5
272
330
1F
100
AcDbEntity
  8
GR1
  6
Continuous
 62
     6
370
    25
100
AcDbLine
 10
305.2169421342857
 20
242.3353170756982
 30
0.0
 11
306.371642672665
 21
240.3353170756982
 31
0.0
  0
LINE
  5
273
330
1F
100
AcDbEntity
  8
GR1
  6
Continuous
 62
     6
370
    25
100
AcDbLine
 10
306.9489929418547
 20
239.3353170756982
 30
0.0
 11
305.7942924034754
 21
237.3353170756982
 31
0.0
  0
LINE
  5
274
330
1F
100
AcDbEntity
  8
GR1
  6
Continuous
 62
     6
370
    25
100
AcDbLine
 10
305.7942924034754
 20
237.3353170756982
 30
0.0
 11
306.9489929418547
 21
235.3353170756982
 31
0.0
  0
LINE
  5
275
330
1F
100
AcDbEntity
  8
GR1
  6
Continuous
 62
     6
370
    25
100
AcDbLine
 10
306.9489929418547
 20
235.3353170756982
 30
0.0
 11
307.402840519148
 21
236.1214041384623
 31
0.0
  0
LINE
  5
276
330
1F
100
AcDbEntity
  8
GR1
  6
Continuous
 62
     6
370
    25
100
AcDbLine
 10
306.371642672665
 20
234.3353170756982
 30
0.0
 11
305.2169421342858
 21
232.3353170756982
 31
0.0
  0
LINE
  5
277
330
1F
100
AcDbEntity
  8
GR1
  6
Continuous
 62
     6
370
    25
100
AcDbLine
 10
305.2169421342858
 20
232.3353170756982
 30
0.0
 11
304.0622415959065
 21
234.3353170756982
 31
0.0
  0
LINE
  5
278
330
1F
100
AcDbEntity
  8
GR1
  6
Continuous
 62
     6
370
    25
100
AcDbLine
 10
304.0622415959065
 20
234.3353170756982
 30
0.0
 11
305.2169421342857
 21
236.3353170756982
 31
0.0
  0
LINE
  5
279
330
1F
100
AcDbEntity
  8
GR1
  6
Continuous
 62
     6
370
    25
100
AcDbLine
 10
305.2169421342857
 20
236.3353170756982
 30
0.0
 11
306.371642672665
 21
234.3353170756982
 31
0.0
  0
LINE
  5
27A
330
1F
100
AcDbEntity
  8
GR1
  6
Continuous
 62
     6
370
    25
100
AcDbLine
 10
306.9489929418547
 20
233.3353170756982
 30
0.0
 11
307.402840519148
 21
232.5492300129341
 31
0.0
  0
LINE
  5
27B
330
1F
100
AcDbEntity
  8
GR1
  6
Continuous
 62
     6
370
    25
100
AcDbLine
 10
306.9489929418547
 20
233.3353170756982
 30
0.0
 11
305.752840519148
 21
231.2635203059737
 31
0.0
  0
LINE
  5
27C
330
1F
100
AcDbEntity
  8
GR1
  6
Continuous
 62
     6
370
    25
100
AcDbLine
 10
305.752840519148
 20
231.2635203059737
 30
0.0
 11
306.9489929418547
 21
229.3353170756983
 31
0.0
  0
LINE
  5
27D
330
1F
100
AcDbEntity
  8
GR1
  6
Continuous
 62
     6
370
    25
100
AcDbLine
 10
306.9489929418547
 20
229.3353170756983
 30
0.0
 11
307.402840519148
 21
230.1214041384623
 31
0.0
  0
LINE
  5
27E
330
1F
100
AcDbEntity
  8
GR1
  6
Continuous
 62
     6
370
    25
100
AcDbLine
 10
306.371642672665
 20
228.3353170756982
 30
0.0
 11
305.2169421342857
 21
226.3353170756982
 31
0.0
  0
LINE
  5
27F
330
1F
100
AcDbEntity
  8
GR1
  6
Continuous
 62
     6
370
    25
100
AcDbLine
 10
305.2169421342857
 20
226.3353170756982
 30
0.0
 11
304.0622415959065
 21
228.3353170756982
 31
0.0
  0
LINE
  5
280
330
1F
100
AcDbEntity
  8
GR1
  6
Continuous
 62
     6
370
    25
100
AcDbLine
 10
304.0622415959065
 20
228.3353170756982
 30
0.0
 11
305.2169421342858
 21
230.3353170756982
 31
0.0
  0
LINE
  5
281
330
1F
100
AcDbEntity
  8
GR1
  6
Continuous
 62
     6
370
    25
100
AcDbLine
 10
305.2169421342858
 20
230.3353170756982
 30
0.0
 11
306.371642672665
 21
228.3353170756982
 31
0.0
  0
LINE
  5
282
330
1F
100
AcDbEntity
  8
GR1
  6
Continuous
 62
     6
370
    25
100
AcDbLine
 10
306.9489929418547
 20
227.3353170756982
 30
0.0
 11
307.3609467652817
 21
226.6217921231504
 31
0.0
  0
LINE
  5
283
330
1F
100
AcDbEntity
  8
GR1
  6
Continuous
 62
     6
370
    25
100
AcDbLine
 10
306.9489929418547
 20
227.3353170756982
 30
0.0
 11
305.752840519148
 21
225.2635203059738
 31
0.0
  0
LINE
  5
284
330
1F
100
AcDbEntity
  8
GR1
  6
Continuous
 62
     6
370
    25
100
AcDbLine
 10
305.752840519148
 20
225.2635203059738
 30
0.0
 11
306.1332004287163
 21
224.6575694895351
 31
0.0
  0
LINE
  5
285
330
1F
100
AcDbEntity
  8
GR1
  6
Continuous
 62
     6
370
    25
100
AcDbLine
 10
305.3466713378833
 20
224.1106195038419
 30
0.0
 11
305.2169421342857
 21
224.3353170756982
 31
0.0
  0
LINE
  5
286
330
1F
100
AcDbEntity
  8
GR1
  6
Continuous
 62
     6
370
    25
100
AcDbLine
 10
305.2169421342857
 20
224.3353170756982
 30
0.0
 11
304.9643571510779
 21
223.8978270515534
 31
0.0
  0
LINE
  5
287
330
1F
100
AcDbEntity
  8
GR1
  6
Continuous
 62
     6
370
    25
100
AcDbLine
 10
304.6395918650961
 20
225.3353170756983
 30
0.0
 11
303.4848913267169
 21
227.3353170756982
 31
0.0
  0
LINE
  5
288
330
1F
100
AcDbEntity
  8
GR1
  6
Continuous
 62
     6
370
    25
100
AcDbLine
 10
303.4848913267169
 20
227.3353170756982
 30
0.0
 11
302.3301907883376
 21
225.3353170756982
 31
0.0
  0
LINE
  5
289
330
1F
100
AcDbEntity
  8
GR1
  6
Continuous
 62
     6
370
    25
100
AcDbLine
 10
302.3301907883376
 20
225.3353170756982
 30
0.0
 11
303.4848913267169
 21
223.3353170756983
 31
0.0
  0
LINE
  5
28A
330
1F
100
AcDbEntity
  8
GR1
  6
Continuous
 62
     6
370
    25
100
AcDbLine
 10
303.4848913267169
 20
223.3353170756983
 30
0.0
 11
304.6395918650961
 21
225.3353170756983
 31
0.0
  0
LINE
  5
28B
330
1F
100
AcDbEntity
  8
GR1
  6
Continuous
 62
     6
370
    25
100
AcDbLine
 10
301.752840519148
 20
226.3353170756983
 30
0.0
 11
300.5981399807687
 21
228.3353170756982
 31
0.0
  0
LINE
  5
28C
330
1F
100
AcDbEntity
  8
GR1
  6
Continuous
 62
     6
370
    25
100
AcDbLine
 10
300.5981399807687
 20
228.3353170756982
 30
0.0
 11
301.752840519148
 21
230.3353170756982
 31
0.0
  0
LINE
  5
28D
330
1F
100
AcDbEntity
  8
GR1
  6
Continuous
 62
     6
370
    25
100
AcDbLine
 10
301.752840519148
 20
230.3353170756982
 30
0.0
 11
302.9075410575272
 21
228.3353170756982
 31
0.0
  0
LINE
  5
28E
330
1F
100
AcDbEntity
  8
GR1
  6
Continuous
 62
     6
370
    25
100
AcDbLine
 10
302.9075410575272
 20
228.3353170756982
 30
0.0
 11
301.752840519148
 21
226.3353170756983
 31
0.0
  0
LINE
  5
28F
330
1F
100
AcDbEntity
  8
GR1
  6
Continuous
 62
     6
370
    25
100
AcDbLine
 10
303.4848913267169
 20
229.3353170756982
 30
0.0
 11
304.6395918650961
 21
231.3353170756982
 31
0.0
  0
LINE
  5
290
330
1F
100
AcDbEntity
  8
GR1
  6
Continuous
 62
     6
370
    25
100
AcDbLine
 10
304.6395918650961
 20
231.3353170756982
 30
0.0
 11
303.4848913267169
 21
233.3353170756982
 31
0.0
  0
LINE
  5
291
330
1F
100
AcDbEntity
  8
GR1
  6
Continuous
 62
     6
370
    25
100
AcDbLine
 10
303.4848913267169
 20
233.3353170756982
 30
0.0
 11
302.3301907883376
 21
231.3353170756982
 31
0.0
  0
LINE
  5
292
330
1F
100
AcDbEntity
  8
GR1
  6
Continuous
 62
     6
370
    25
100
AcDbLine
 10
302.3301907883376
 20
231.3353170756982
 30
0.0
 11
303.4848913267169
 21
229.3353170756982
 31
0.0
  0
LINE
  5
293
330
1F
100
AcDbEntity
  8
GR1
  6
Continuous
 62
     6
370
    25
100
AcDbLine
 10
301.1754902499584
 20
231.3353170756982
 30
0.0
 11
300.0207897115791
 21
229.3353170756983
 31
0.0
  0
LINE
  5
294
330
1F
100
AcDbEntity
  8
GR1
  6
Continuous
 62
     6
370
    25
100
AcDbLine
 10
300.0207897115791
 20
229.3353170756983
 30
0.0
 11
298.8660891731998
 21
231.3353170756982
 31
0.0
  0
LINE
  5
295
330
1F
100
AcDbEntity
  8
GR1
  6
Continuous
 62
     6
370
    25
100
AcDbLine
 10
298.8660891731998
 20
231.3353170756982
 30
0.0
 11
300.0207897115791
 21
233.3353170756982
 31
0.0
  0
LINE
  5
296
330
1F
100
AcDbEntity
  8
GR1
  6
Continuous
 62
     6
370
    25
100
AcDbLine
 10
300.0207897115791
 20
233.3353170756982
 30
0.0
 11
301.1754902499584
 21
231.3353170756982
 31
0.0
  0
LINE
  5
297
330
1F
100
AcDbEntity
  8
GR1
  6
Continuous
 62
     6
370
    25
100
AcDbLine
 10
301.752840519148
 20
232.3353170756982
 30
0.0
 11
300.5981399807687
 21
234.3353170756982
 31
0.0
  0
LINE
  5
298
330
1F
100
AcDbEntity
  8
GR1
  6
Continuous
 62
     6
370
    25
100
AcDbLine
 10
300.5981399807687
 20
234.3353170756982
 30
0.0
 11
301.752840519148
 21
236.3353170756982
 31
0.0
  0
LINE
  5
299
330
1F
100
AcDbEntity
  8
GR1
  6
Continuous
 62
     6
370
    25
100
AcDbLine
 10
301.752840519148
 20
236.3353170756981
 30
0.0
 11
302.9075410575272
 21
234.3353170756982
 31
0.0
  0
LINE
  5
29A
330
1F
100
AcDbEntity
  8
GR1
  6
Continuous
 62
     6
370
    25
100
AcDbLine
 10
302.9075410575272
 20
234.3353170756982
 30
0.0
 11
301.752840519148
 21
232.3353170756982
 31
0.0
  0
LINE
  5
29B
330
1F
100
AcDbEntity
  8
GR1
  6
Continuous
 62
     6
370
    25
100
AcDbLine
 10
300.0207897115791
 20
235.3353170756982
 30
0.0
 11
301.1754902499584
 21
237.3353170756982
 31
0.0
  0
LINE
  5
29C
330
1F
100
AcDbEntity
  8
GR1
  6
Continuous
 62
     6
370
    25
100
AcDbLine
 10
301.1754902499584
 20
237.3353170756982
 30
0.0
 11
300.0207897115791
 21
239.3353170756982
 31
0.0
  0
LINE
  5
29D
330
1F
100
AcDbEntity
  8
GR1
  6
Continuous
 62
     6
370
    25
100
AcDbLine
 10
300.0207897115791
 20
239.3353170756982
 30
0.0
 11
298.8660891731999
 21
237.3353170756982
 31
0.0
  0
LINE
  5
29E
330
1F
100
AcDbEntity
  8
GR1
  6
Continuous
 62
     6
370
    25
100
AcDbLine
 10
298.8660891731999
 20
237.3353170756982
 30
0.0
 11
300.0207897115791
 21
235.3353170756982
 31
0.0
  0
LINE
  5
29F
330
1F
100
AcDbEntity
  8
GR1
  6
Continuous
 62
     6
370
    25
100
AcDbLine
 10
302.3301907883376
 20
237.3353170756982
 30
0.0
 11
303.4848913267169
 21
235.3353170756982
 31
0.0
  0
LINE
  5
2A0
330
1F
100
AcDbEntity
  8
GR1
  6
Continuous
 62
     6
370
    25
100
AcDbLine
 10
303.4848913267169
 20
235.3353170756982
 30
0.0
 11
304.6395918650962
 21
237.3353170756982
 31
0.0
  0
LINE
  5
2A1
330
1F
100
AcDbEntity
  8
GR1
  6
Continuous
 62
     6
370
    25
100
AcDbLine
 10
304.6395918650962
 20
237.3353170756982
 30
0.0
 11
303.4848913267169
 21
239.3353170756982
 31
0.0
  0
LINE
  5
2A2
330
1F
100
AcDbEntity
  8
GR1
  6
Continuous
 62
     6
370
    25
100
AcDbLine
 10
303.4848913267169
 20
239.3353170756982
 30
0.0
 11
302.3301907883376
 21
237.3353170756982
 31
0.0
  0
LINE
  5
2A3
330
1F
100
AcDbEntity
  8
GR1
  6
Continuous
 62
     6
370
    25
100
AcDbLine
 10
301.752840519148
 20
238.3353170756982
 30
0.0
 11
300.5981399807687
 21
240.3353170756982
 31
0.0
  0
LINE
  5
2A4
330
1F
100
AcDbEntity
  8
GR1
  6
Continuous
 62
     6
370
    25
100
AcDbLine
 10
300.5981399807687
 20
240.3353170756982
 30
0.0
 11
301.752840519148
 21
242.3353170756982
 31
0.0
  0
LINE
  5
2A5
330
1F
100
AcDbEntity
  8
GR1
  6
Continuous
 62
     6
370
    25
100
AcDbLine
 10
301.752840519148
 20
242.3353170756981
 30
0.0
 11
302.9075410575273
 21
240.3353170756982
 31
0.0
  0
LINE
  5
2A6
330
1F
100
AcDbEntity
  8
GR1
  6
Continuous
 62
     6
370
    25
100
AcDbLine
 10
302.9075410575273
 20
240.3353170756982
 30
0.0
 11
301.752840519148
 21
238.3353170756982
 31
0.0
  0
LINE
  5
2A7
330
1F
100
AcDbEntity
  8
GR1
  6
Continuous
 62
     6
370
    25
100
AcDbLine
 10
306.9489929418547
 20
239.3353170756982
 30
0.0
 11
307.402840519148
 21
238.5492300129341
 31
0.0
  0
LINE
  5
2A8
330
1F
100
AcDbEntity
  8
GR1
  6
Continuous
 62
     6
370
    25
100
AcDbLine
 10
307.402840519148
 20
244.5492300129343
 30
0.0
 11
306.9489929418547
 21
245.3353170756984
 31
0.0
  0
LINE
  5
2A9
330
1F
100
AcDbEntity
  8
GR1
  6
Continuous
 62
     6
370
    25
100
AcDbLine
 10
305.794292403475
 20
249.3353170756982
 30
0.0
 11
306.0001831779355
 21
249.6919303578734
 31
0.0
  0
ARC
  5
2AA
330
1F
100
AcDbEntity
  8
GR1
  6
Continuous
 62
     6
370
    25
100
AcDbCircle
 10
301.7528405191479
 20
242.6176470588235
 30
0.0
 40
8.499999999999886
100
AcDbArc
 50
61.92751306414642
 51
118.0724869358531
  0
LINE
  5
2AB
330
1F
100
AcDbEntity
  8
GR1
  6
Continuous
 62
     6
370
    25
100
AcDbLine
 10
296.102840519148
 20
242.1214041384627
 30
0.0
 11
296.5566880964415
 21
241.3353170756984
 31
0.0
  0
LINE
  5
2AC
330
1F
100
AcDbEntity
  8
GR1
  6
Continuous
 62
     6
370
    25
100
AcDbLine
 10
296.1028405191479
 20
236.1214041384625
 30
0.0
 11
296.5566880964414
 21
235.3353170756982
 31
0.0
  0
LINE
  5
2AD
330
1F
100
AcDbEntity
  8
GR1
  6
Continuous
 62
     3
370
    50
100
AcDbLine
 10
385.2528405191479
 20
355.7176470588233
 30
0.0
 11
379.2528405191479
 21
355.7176470588233
 31
0.0
  0
ARC
  5
2AE
330
1F
100
AcDbEntity
  8
GR1
  6
Continuous
 62
     3
370
    50
100
AcDbCircle
 10
379.2528405191479
 20
354.2176470588234
 30
0.0
 40
1.5
100
AcDbArc
 50
90.0
 51
180.0
  0
LINE
  5
2AF
330
1F
100
AcDbEntity
  8
GR1
  6
Continuous
 62
     3
370
    50
100
AcDbLine
 10
387.2875335585121
 20
354.2176470588234
 30
0.0
 11
376.2528405191479
 21
354.2176470588234
 31
0.0
  0
LINE
  5
2B0
330
1F
100
AcDbEntity
  8
GR1
  6
Continuous
 62
     3
370
    50
100
AcDbLine
 10
376.2528405191479
 20
354.2176470588234
 30
0.0
 11
376.2528405191479
 21
353.0176470588234
 31
0.0
  0
LINE
  5
2B1
330
1F
100
AcDbEntity
  8
GR1
  6
Continuous
 62
     3
370
    50
100
AcDbLine
 10
352.2528405191479
 20
353.0176470588235
 30
0.0
 11
353.0263432110443
 21
353.4642290462087
 31
0.0
  0
LINE
  5
2B2
330
1F
100
AcDbEntity
  8
GR1
  6
Continuous
 62
     3
370
    50
100
AcDbLine
 10
353.0263418650961
 20
353.4642290462087
 30
0.0
 11
353.0263432110441
 21
356.1710650714382
 31
0.0
  0
ARC
  5
2B3
330
1F
100
AcDbEntity
  8
GR1
  6
Continuous
 62
     3
370
    50
100
AcDbCircle
 10
351.5829675380701
 20
354.0618243104009
 30
0.0
 40
2.555822748422663
100
AcDbArc
 50
55.61575253195116
 51
124.3842474680497
  0
ARC
  5
2B4
330
1F
100
AcDbEntity
  8
GR1
  6
Continuous
 62
     3
370
    50
100
AcDbCircle
 10
347.2528405191479
 20
347.0642290462089
 30
0.0
 40
9.553418012614543
100
AcDbArc
 50
72.41204622600534
 51
107.5879537739948
  0
ARC
  5
2B5
330
1F
100
AcDbEntity
  8
GR1
  6
Continuous
 62
     3
370
    50
100
AcDbCircle
 10
342.9227135002257
 20
354.0618243104008
 30
0.0
 40
2.555822748422663
100
AcDbArc
 50
55.61575253195028
 51
124.3842474680489
  0
LINE
  5
2B6
330
1F
100
AcDbEntity
  8
GR1
  6
Continuous
 62
     3
370
    50
100
AcDbLine
 10
341.4793378272516
 20
356.1710650714382
 30
0.0
 11
342.2528405191479
 21
356.6176470588234
 31
0.0
  0
LINE
  5
2B7
330
1F
100
AcDbEntity
  8
GR1
  6
Continuous
 62
     3
370
    50
100
AcDbLine
 10
342.2528405191479
 20
356.6176470588234
 30
0.0
 11
342.2528405191479
 21
357.3676470588234
 31
0.0
  0
LINE
  5
2B8
330
1F
100
AcDbEntity
  8
GR1
  6
Continuous
 62
     3
370
    50
100
AcDbLine
 10
343.0028405191479
 20
358.1176470588234
 30
0.0
 11
351.5028405191479
 21
358.1176470588235
 31
0.0
  0
LINE
  5
2B9
330
1F
100
AcDbEntity
  8
GR1
  6
Continuous
 62
     3
370
    50
100
AcDbLine
 10
352.2528405191479
 20
357.3676470588235
 30
0.0
 11
352.2528405191479
 21
356.6176470588235
 31
0.0
  0
LINE
  5
2BA
330
1F
100
AcDbEntity
  8
GR1
  6
Continuous
 62
     3
370
    50
100
AcDbLine
 10
352.2528405191479
 20
356.6176470588234
 30
0.0
 11
353.026341865096
 21
356.171065992484
 31
0.0
  0
ARC
  5
2BB
330
1F
100
AcDbEntity
  8
GR1
  6
Continuous
 62
     3
370
    50
100
AcDbCircle
 10
351.5028405191479
 20
357.3676470588235
 30
0.0
 40
0.75
100
AcDbArc
 50
0.0
 51
90.0
  0
LINE
  5
2BC
330
1F
100
AcDbEntity
  8
GR1
  6
Continuous
 62
     3
370
    50
100
AcDbLine
 10
350.139591865096
 20
356.1710650714382
 30
0.0
 11
350.139591865096
 21
353.4642290462087
 31
0.0
  0
ARC
  5
2BD
330
1F
100
AcDbEntity
  8
GR1
  6
Continuous
 62
     3
370
    50
100
AcDbCircle
 10
351.5829675380701
 20
355.5734698072461
 30
0.0
 40
2.555822748422663
100
AcDbArc
 50
235.6157525319503
 51
304.3842474680489
  0
ARC
  5
2BE
330
1F
100
AcDbEntity
  8
GR1
  6
Continuous
 62
     3
370
    50
100
AcDbCircle
 10
347.2528405191478
 20
362.5710650714379
 30
0.0
 40
9.553418012614543
100
AcDbArc
 50
272.732158888853
 51
287.5879537739945
  0
ARC
  5
2BF
330
1F
100
AcDbEntity
  8
GR1
  6
Continuous
 62
     3
370
    50
100
AcDbCircle
 10
343.0028405191479
 20
357.3676470588234
 30
0.0
 40
0.75
100
AcDbArc
 50
90.0
 51
180.0
  0
LINE
  5
2C0
330
1F
100
AcDbEntity
  8
GR1
  6
Continuous
 62
     3
370
    50
100
AcDbLine
 10
352.2528405191479
 20
356.6176470588234
 30
0.0
 11
342.2528405191479
 21
356.6176470588234
 31
0.0
  0
LINE
  5
2C1
330
1F
100
AcDbEntity
  8
GR1
  6
Continuous
 62
     3
370
    50
100
AcDbLine
 10
344.3660891731998
 20
187.8176470588235
 30
0.0
 11
350.1395918650961
 21
187.8176470588235
 31
0.0
  0
LINE
  5
2C2
330
1F
100
AcDbEntity
  8
GR1
  6
Continuous
 62
     3
370
    50
100
AcDbLine
 10
350.1395918650961
 20
187.8176470588235
 30
0.0
 11
353.0263432110443
 21
182.8176470588235
 31
0.0
  0
LINE
  5
2C3
330
1F
100
AcDbEntity
  8
GR1
  6
Continuous
 62
     3
370
    50
100
AcDbLine
 10
353.0263432110443
 20
182.8176470588235
 30
0.0
 11
352.9773068934948
 21
182.7327136654116
 31
0.0
  0
ARC
  5
2C4
330
1F
100
AcDbEntity
  8
GR1
  6
Continuous
 62
     6
370
    25
100
AcDbCircle
 10
347.252840519148
 20
182.8176470588235
 30
0.0
 40
4.5
100
AcDbArc
 50
356.1438045885231
 51
203.8561954114768
  0
LINE
  5
2C6
330
1F
100
AcDbEntity
  8
基準ﾚｲﾔｸﾞﾙｰﾌﾟ
  6
DASHDOT
 62
     6
370
    25
100
AcDbLine
 10
382.252840519148
 20
277.1402235817012
 30
0.0
 11
382.252840519148
 21
293.1834991642315
 31
0.0
  0
LINE
  5
2C7
330
1F
100
AcDbEntity
  8
基準ﾚｲﾔｸﾞﾙｰﾌﾟ
  6
Continuous
 62
     3
370
    50
100
AcDbLine
 10
344.7943405191479
 20
363.2176470588236
 30
0.0
 11
349.7113405191481
 21
363.2176470588236
 31
0.0
  0
LINE
  5
2C8
330
1F
100
AcDbEntity
  8
基準ﾚｲﾔｸﾞﾙｰﾌﾟ
  6
Continuous
 62
     3
370
    50
100
AcDbLine
 10
344.7943405191479
 20
363.2176470588236
 30
0.0
 11
344.252840519148
 21
362.7176470588236
 31
0.0
  0
LINE
  5
2C9
330
1F
100
AcDbEntity
  8
基準ﾚｲﾔｸﾞﾙｰﾌﾟ
  6
Continuous
 62
     3
370
    50
100
AcDbLine
 10
344.252840519148
 20
362.7176470588236
 30
0.0
 11
344.2528405191479
 21
358.1176470588235
 31
0.0
  0
LINE
  5
2CA
330
1F
100
AcDbEntity
  8
基準ﾚｲﾔｸﾞﾙｰﾌﾟ
  6
Continuous
 62
     6
370
    25
100
AcDbLine
 10
344.252840519148
 20
362.7176470588236
 30
0.0
 11
350.252840519148
 21
362.7176470588236
 31
0.0
  0
LINE
  5
2CB
330
1F
100
AcDbEntity
  8
基準ﾚｲﾔｸﾞﾙｰﾌﾟ
  6
Continuous
 62
     6
370
    25
100
AcDbLine
 10
344.7943405191479
 20
363.2176470588237
 30
0.0
 11
344.7943405191479
 21
358.1176470588235
 31
0.0
  0
LINE
  5
2CC
330
1F
100
AcDbEntity
  8
基準ﾚｲﾔｸﾞﾙｰﾌﾟ
  6
Continuous
 62
     3
370
    50
100
AcDbLine
 10
349.7113405191481
 20
363.2176470588236
 30
0.0
 11
350.252840519148
 21
362.7176470588236
 31
0.0
  0
LINE
  5
2CD
330
1F
100
AcDbEntity
  8
基準ﾚｲﾔｸﾞﾙｰﾌﾟ
  6
Continuous
 62
     3
370
    50
100
AcDbLine
 10
350.252840519148
 20
362.7176470588236
 30
0.0
 11
350.252840519148
 21
358.1176470588235
 31
0.0
  0
LINE
  5
2CE
330
1F
100
AcDbEntity
  8
基準ﾚｲﾔｸﾞﾙｰﾌﾟ
  6
Continuous
 62
     6
370
    25
100
AcDbLine
 10
349.7113405191481
 20
363.2176470588237
 30
0.0
 11
349.7113405191481
 21
358.1176470588235
 31
0.0
  0
LINE
  5
2CF
330
1F
100
AcDbEntity
  8
GR1
  6
Continuous
 62
     3
370
    50
100
AcDbLine
 10
341.4793386367161
 20
354.5431514306887
 30
0.0
 11
341.4793378272518
 21
356.1710650714382
 31
0.0
  0
LINE
  5
2D0
330
1F
100
AcDbEntity
  8
GR1
  6
Continuous
 62
     3
370
    50
100
AcDbLine
 10
344.3660891732
 20
356.1710650714382
 30
0.0
 11
344.3660891732
 21
353.5081965081269
 31
0.0
  0
ARC
  5
2D1
330
1F
100
AcDbEntity
  8
GR1
  6
Continuous
 62
     3
370
    50
100
AcDbCircle
 10
385.252840519148
 20
354.2176470588234
 30
0.0
 40
1.5
100
AcDbArc
 50
0.0
 51
90.0
  0
LINE
  5
2D2
330
1F
100
AcDbEntity
  8
GR1
  6
Continuous
 62
     3
370
    50
100
AcDbLine
 10
112.035583285777
 20
187.8176470588236
 30
0.0
 11
122.335583285777
 21
187.8176470588236
 31
0.0
  0
LINE
  5
2D3
330
1F
100
AcDbEntity
  8
GR1
  6
Continuous
 62
     3
370
    50
100
AcDbLine
 10
122.335583285777
 20
187.8176470588236
 30
0.0
 11
122.8974581788402
 21
187.012293045433
 31
0.0
  0
LINE
  5
2D4
330
1F
100
AcDbEntity
  8
GR1
  6
Continuous
 62
     3
370
    50
100
AcDbLine
 10
155.2166904638392
 20
187.3064079244913
 30
0.0
 11
155.3355832857769
 21
187.8176470588236
 31
0.0
  0
LINE
  5
2D5
330
1F
100
AcDbEntity
  8
GR1
  6
Continuous
 62
     3
370
    50
100
AcDbLine
 10
155.3355832857769
 20
187.8176470588236
 30
0.0
 11
166.635583285777
 21
187.8176470588236
 31
0.0
  0
LINE
  5
2D6
330
1F
100
AcDbEntity
  8
GR1
  6
Continuous
 62
     3
370
    50
100
AcDbLine
 10
201.3662394730845
 20
182.0270440390385
 30
0.0
 11
201.6597038046163
 21
173.6233251117919
 31
0.0
  0
LINE
  5
2D7
330
1F
100
AcDbEntity
  8
GR1
  6
Continuous
 62
     3
370
    50
100
AcDbLine
 10
201.6597038046163
 20
173.6233251117919
 30
0.0
 11
211.735583285777
 21
173.6233251117919
 31
0.0
  0
LINE
  5
2D8
330
1F
100
AcDbEntity
  8
GR1
  6
Continuous
 62
     3
370
    50
100
AcDbLine
 10
211.735583285777
 20
173.6233251117919
 30
0.0
 11
212.735583285777
 21
172.123325111792
 31
0.0
  0
LINE
  5
2D9
330
1F
100
AcDbEntity
  8
GR1
  6
Continuous
 62
     3
370
    50
100
AcDbLine
 10
212.735583285777
 20
172.1233251117919
 30
0.0
 11
237.235583285777
 21
172.1233251117919
 31
0.0
  0
LINE
  5
2DA
330
1F
100
AcDbEntity
  8
GR1
  6
Continuous
 62
     3
370
    50
100
AcDbLine
 10
237.235583285777
 20
165.1233251117919
 30
0.0
 11
212.735583285777
 21
165.1233251117919
 31
0.0
  0
LINE
  5
2DB
330
1F
100
AcDbEntity
  8
GR1
  6
Continuous
 62
     3
370
    50
100
AcDbLine
 10
212.735583285777
 20
165.1233251117919
 30
0.0
 11
211.735583285777
 21
163.6233251117919
 31
0.0
  0
LINE
  5
2DC
330
1F
100
AcDbEntity
  8
GR1
  6
Continuous
 62
     3
370
    50
100
AcDbLine
 10
211.735583285777
 20
163.6233251117919
 30
0.0
 11
197.796948705388
 21
163.6233251117919
 31
0.0
  0
LINE
  5
2DD
330
1F
100
AcDbEntity
  8
GR1
  6
Continuous
 62
     3
370
    50
100
AcDbLine
 10
191.8006037432734
 20
169.4139281315769
 30
0.0
 11
191.5408414639536
 21
176.852546555526
 31
0.0
  0
ARC
  5
2DE
330
1F
100
AcDbEntity
  8
GR1
  6
Continuous
 62
     3
370
    50
100
AcDbCircle
 10
190.5414506369345
 20
176.8176470588235
 30
0.0
 40
1.0
100
AcDbArc
 50
2.000000000000414
 51
90.0
  0
LINE
  5
2DF
330
1F
100
AcDbEntity
  8
GR1
  6
Continuous
 62
     3
370
    50
100
AcDbLine
 10
190.5414506369345
 20
177.8176470588236
 30
0.0
 11
184.3813488220364
 21
177.8176470588236
 31
0.0
  0
ARC
  5
2E0
330
1F
100
AcDbEntity
  8
GR1
  6
Continuous
 62
     3
370
    50
100
AcDbCircle
 10
237.235583285777
 20
168.6233251117919
 30
0.0
 40
3.5
100
AcDbArc
 50
270.0
 51
90.0
  0
ARC
  5
2E1
330
1F
100
AcDbEntity
  8
GR1
  6
Continuous
 62
     3
370
    50
100
AcDbCircle
 10
195.36989451097
 20
181.8176470588236
 30
0.0
 40
6.0
100
AcDbArc
 50
1.999999999999997
 51
90.0
  0
ARC
  5
2E2
330
1F
100
AcDbEntity
  8
GR1
  6
Continuous
 62
     3
370
    50
100
AcDbCircle
 10
197.796948705388
 20
169.6233251117919
 30
0.0
 40
6.0
100
AcDbArc
 50
182.0000000000001
 51
270.0
  0
ARC
  5
2E3
330
1F
100
AcDbEntity
  8
GR1
  6
DASHDOT
 62
     6
370
    25
100
AcDbCircle
 10
191.5071394117416
 20
177.8176470588235
 30
0.0
 40
5.0
100
AcDbArc
 50
2.000000000000227
 51
90.0
  0
LINE
  5
2E4
330
1F
100
AcDbEntity
  8
GR1
  6
DASHDOT
 62
     6
370
    25
100
AcDbLine
 10
196.5040935468371
 20
177.9921445423361
 30
0.0
 11
196.6964517217328
 21
172.483727124982
 31
0.0
  0
ARC
  5
2E5
330
1F
100
AcDbEntity
  8
GR1
  6
DASHDOT
 62
     6
370
    25
100
AcDbCircle
 10
200.6940150298093
 20
172.6233251117919
 30
0.0
 40
4.0
100
AcDbArc
 50
182.0000000000001
 51
270.0
  0
LINE
  5
2E6
330
1F
100
AcDbEntity
  8
GR1
  6
DASHDOT
 62
     6
370
    25
100
AcDbLine
 10
200.6940150298093
 20
168.6233251117919
 30
0.0
 11
243.1377365700988
 21
168.6233251117919
 31
0.0
  0
LINE
  5
2E7
330
1F
100
AcDbEntity
  8
GR1
  6
Continuous
 62
     6
370
    25
100
AcDbLine
 10
162.5864307434041
 20
178.7176470588235
 30
0.0
 11
162.535583285777
 21
178.5676470588236
 31
0.0
  0
LINE
  5
2E8
330
1F
100
AcDbEntity
  8
GR1
  6
Continuous
 62
     6
370
    25
100
AcDbLine
 10
162.535583285777
 20
178.5676470588236
 30
0.0
 11
166.635583285777
 21
178.5676470588236
 31
0.0
  0
LINE
  5
2E9
330
1F
100
AcDbEntity
  8
GR1
  6
Continuous
 62
     6
370
    25
100
AcDbLine
 10
162.5864307434041
 20
186.9176470588235
 30
0.0
 11
162.535583285777
 21
187.0676470588235
 31
0.0
  0
LINE
  5
2EA
330
1F
100
AcDbEntity
  8
GR1
  6
Continuous
 62
     6
370
    25
100
AcDbLine
 10
162.535583285777
 20
187.0676470588236
 30
0.0
 11
166.635583285777
 21
187.0676470588236
 31
0.0
  0
TEXT
  5
2EB
330
1F
100
AcDbEntity
  8
基準ﾚｲﾔｸﾞﾙｰﾌﾟ
  6
Continuous
 62
     7
370
    25
100
AcDbText
 10
185.5355834960938
 20
227.1176452628865
 30
0.0
 40
4.0
  1
１０１
 41
0.9264705882352942
  7
FX_VECTOR
 72
     5
 11
194.5355834960938
 21
227.1176452644573
 31
0.0
100
AcDbText
  0
LINE
  5
2EC
330
1F
100
AcDbEntity
  8
基準ﾚｲﾔｸﾞﾙｰﾌﾟ
  6
Continuous
 62
     7
370
    25
100
AcDbLine
 10
139.335583285777
 20
226.1176470588236
 30
0.0
 11
240.735583285777
 21
226.1176470588236
 31
0.0
  0
INSERT
  5
2ED
330
1F
100
AcDbEntity
  8
基準ﾚｲﾔｸﾞﾙｰﾌﾟ
  6
Continuous
 62
     7
370
    25
100
AcDbBlockReference
  2
FXTIP_ARROW_S
 10
139.335583285777
 20
226.1176470588236
 30
0.0
 41
4.0
 42
4.0
 50
180.0
  0
INSERT
  5
2EE
330
1F
100
AcDbEntity
  8
基準ﾚｲﾔｸﾞﾙｰﾌﾟ
  6
Continuous
 62
     7
370
    25
100
AcDbBlockReference
  2
FXTIP_ARROW_E
 10
240.735583285777
 20
226.1176470588236
 30
0.0
 41
4.0
 42
4.0
 50
360.0
  0
LINE
  5
2EF
330
1F
100
AcDbEntity
  8
基準ﾚｲﾔｸﾞﾙｰﾌﾟ
  6
Continuous
 62
     7
370
    25
100
AcDbLine
 10
139.335583285777
 20
220.8592721103432
 30
0.0
 11
139.335583285777
 21
227.1176470588236
 31
0.0
  0
LINE
  5
2F0
330
1F
100
AcDbEntity
  8
基準ﾚｲﾔｸﾞﾙｰﾌﾟ
  6
Continuous
 62
     7
370
    25
100
AcDbLine
 10
240.735583285777
 20
172.4233251117919
 30
0.0
 11
240.7355832857771
 21
227.1176470588237
 31
0.0
  0
LINE
  5
2F1
330
1F
100
AcDbEntity
  8
基準ﾚｲﾔｸﾞﾙｰﾌﾟ
  6
Continuous
 62
     3
370
    50
100
AcDbLine
 10
112.035583285777
 20
185.8176470588235
 30
0.0
 11
113.8355832857771
 21
185.8176470588235
 31
0.0
  0
LINE
  5
2F2
330
1F
100
AcDbEntity
  8
基準ﾚｲﾔｸﾞﾙｰﾌﾟ
  6
Continuous
 62
     3
370
    50
100
AcDbLine
 10
112.035583285777
 20
179.8176470588235
 30
0.0
 11
113.8355832857771
 21
179.8176470588235
 31
0.0
  0
LINE
  5
2F3
330
1F
100
AcDbEntity
  8
GR1
  6
Continuous
 62
     3
370
    50
100
AcDbLine
 10
166.635583285777
 20
177.8176470588236
 30
0.0
 11
156.52650855911
 21
177.8176470588236
 31
0.0
  0
LINE
  5
2F4
330
1F
100
AcDbEntity
  8
GR1
  6
Continuous
 62
     3
370
    50
100
AcDbLine
 10
185.3900856192851
 20
187.8176470588236
 30
0.0
 11
195.36989451097
 21
187.8176470588236
 31
0.0
  0
LINE
  5
2F5
330
1F
100
AcDbEntity
  8
GR1
  6
Continuous
 62
     3
370
    50
100
AcDbLine
 10
154.585583285777
 20
176.7176470588236
 30
0.0
 11
154.585583285777
 21
170.4430720137938
 31
0.0
  0
LINE
  5
2F6
330
1F
100
AcDbEntity
  8
GR1
  6
Continuous
 62
     3
370
    50
100
AcDbLine
 10
154.585583285777
 20
170.4430720137938
 30
0.0
 11
124.085583285777
 21
170.4430720137938
 31
0.0
  0
LINE
  5
2F7
330
1F
100
AcDbEntity
  8
GR1
  6
Continuous
 62
     3
370
    50
100
AcDbLine
 10
158.8355832857771
 20
190.2108773178574
 30
0.0
 11
158.8355832857771
 21
187.8176470588236
 31
0.0
  0
ARC
  5
2F8
330
1F
100
AcDbEntity
  8
GR1
  6
Continuous
 62
     3
370
    50
100
AcDbCircle
 10
158.3355832857771
 20
190.2108773178574
 30
0.0
 40
0.5
100
AcDbArc
 50
0.0
 51
90.0
  0
LINE
  5
2F9
330
1F
100
AcDbEntity
  8
GR1
  6
Continuous
 62
     3
370
    50
100
AcDbLine
 10
158.0614153634104
 20
187.8176470588236
 30
0.0
 11
158.0614153634104
 21
190.7108773178574
 31
0.0
  0
LINE
  5
2FA
330
1F
100
AcDbEntity
  8
GR1
  6
Continuous
 62
     3
370
    50
100
AcDbLine
 10
158.3355832857771
 20
190.7108773178574
 30
0.0
 11
158.0614153634104
 21
190.7108773178574
 31
0.0
  0
ARC
  5
2FB
330
1F
100
AcDbEntity
  8
GR1
  6
Continuous
 62
     3
370
    50
100
AcDbCircle
 10
158.6823167478817
 20
185.5511613046372
 30
0.0
 40
5.196940240787713
100
AcDbArc
 50
96.86177043907605
 51
142.0266661144805
  0
ARC
  5
2FC
330
1F
100
AcDbEntity
  8
GR1
  6
Continuous
 62
     3
370
    50
100
AcDbCircle
 10
143.335583285777
 20
171.1430720137938
 30
0.0
 40
1.5
100
AcDbArc
 50
222.8436430435956
 51
317.1563569564044
  0
ARC
  5
2FD
330
1F
100
AcDbEntity
  8
GR1
  6
Continuous
 62
     3
370
    50
100
AcDbCircle
 10
145.1686135637594
 20
169.4430720137938
 30
0.0
 40
1.0
100
AcDbArc
 50
90.0
 51
137.1563569564034
  0
ARC
  5
2FE
330
1F
100
AcDbEntity
  8
GR1
  6
Continuous
 62
     3
370
    50
100
AcDbCircle
 10
141.5025530077947
 20
169.4430720137938
 30
0.0
 40
1.0
100
AcDbArc
 50
42.84364304359692
 51
90.0
  0
ARC
  5
2FF
330
1F
100
AcDbEntity
  8
GR1
  6
Continuous
 62
     3
370
    50
100
AcDbCircle
 10
135.335583285777
 20
171.1430720137938
 30
0.0
 40
1.5
100
AcDbArc
 50
222.8436430435956
 51
317.1563569564044
  0
ARC
  5
300
330
1F
100
AcDbEntity
  8
GR1
  6
Continuous
 62
     3
370
    50
100
AcDbCircle
 10
133.5025530077947
 20
169.4430720137938
 30
0.0
 40
1.0
100
AcDbArc
 50
42.84364304359692
 51
90.0
  0
ARC
  5
301
330
1F
100
AcDbEntity
  8
GR1
  6
Continuous
 62
     3
370
    50
100
AcDbCircle
 10
137.1686135637594
 20
169.4430720137938
 30
0.0
 40
1.0
100
AcDbArc
 50
90.0
 51
137.156356956403
  0
LINE
  5
302
330
1F
100
AcDbEntity
  8
GR1
  6
Continuous
 62
     3
370
    50
100
AcDbLine
 10
149.835583285777
 20
190.1406525451808
 30
0.0
 11
149.835583285777
 21
187.7665768132786
 31
0.0
  0
LINE
  5
303
330
1F
100
AcDbEntity
  8
GR1
  6
Continuous
 62
     3
370
    50
100
AcDbLine
 10
150.835583285777
 20
190.1406525451808
 30
0.0
 11
150.835583285777
 21
187.7665768132786
 31
0.0
  0
LINE
  5
304
330
1F
100
AcDbEntity
  8
GR1
  6
Continuous
 62
     3
370
    50
100
AcDbLine
 10
150.835583285777
 20
190.1406525451808
 30
0.0
 11
153.135583285777
 21
189.9585338564389
 31
0.0
  0
LINE
  5
305
330
1F
100
AcDbEntity
  8
GR1
  6
Continuous
 62
     3
370
    50
100
AcDbLine
 10
153.135583285777
 20
189.9585338564389
 30
0.0
 11
153.135583285777
 21
187.7665768132786
 31
0.0
  0
LINE
  5
306
330
1F
100
AcDbEntity
  8
GR1
  6
Continuous
 62
     3
370
    50
100
AcDbLine
 10
150.8355832857769
 20
190.1406525451808
 30
0.0
 11
149.835583285777
 21
190.1406525451808
 31
0.0
  0
LINE
  5
307
330
1F
100
AcDbEntity
  8
GR1
  6
Continuous
 62
     3
370
    50
100
AcDbLine
 10
153.585583285777
 20
188.2795115768614
 30
0.0
 11
153.585583285777
 21
187.7665768132786
 31
0.0
  0
ARC
  5
308
330
1F
100
AcDbEntity
  8
GR1
  6
Continuous
 62
     3
370
    50
100
AcDbCircle
 10
158.8819042166824
 20
182.7530636707771
 30
0.0
 40
8.0
100
AcDbArc
 50
95.8866695759891
 51
127.8618844881158
  0
ARC
  5
309
330
1F
100
AcDbEntity
  8
GR1
  6
Continuous
 62
     3
370
    50
100
AcDbCircle
 10
154.585583285777
 20
188.2795115768614
 30
0.0
 40
1.0
100
AcDbArc
 50
127.8618844881159
 51
180.0
  0
LINE
  5
30A
330
1F
100
AcDbEntity
  8
GR1
  6
Continuous
 62
     3
370
    50
100
AcDbLine
 10
154.585583285777
 20
187.7665768132786
 30
0.0
 11
124.085583285777
 21
187.7665768132786
 31
0.0
  0
LINE
  5
30B
330
1F
100
AcDbEntity
  8
GR1
  6
Continuous
 62
     3
370
    50
100
AcDbLine
 10
124.085583285777
 20
188.7488108799957
 30
0.0
 11
124.085583285777
 21
187.7665768132786
 31
0.0
  0
LINE
  5
30C
330
1F
100
AcDbEntity
  8
GR1
  6
Continuous
 62
     3
370
    50
100
AcDbLine
 10
119.8355832857769
 20
190.2108773178574
 30
0.0
 11
119.8355832857769
 21
187.8176470588236
 31
0.0
  0
ARC
  5
30D
330
1F
100
AcDbEntity
  8
GR1
  6
Continuous
 62
     3
370
    50
100
AcDbCircle
 10
120.3355832857769
 20
190.2108773178574
 30
0.0
 40
0.5
100
AcDbArc
 50
90.0
 51
180.0
  0
LINE
  5
30E
330
1F
100
AcDbEntity
  8
GR1
  6
Continuous
 62
     3
370
    50
100
AcDbLine
 10
120.6097512081436
 20
187.8176470588236
 30
0.0
 11
120.6097512081436
 21
190.7108773178574
 31
0.0
  0
LINE
  5
30F
330
1F
100
AcDbEntity
  8
GR1
  6
Continuous
 62
     3
370
    50
100
AcDbLine
 10
120.3355832857769
 20
190.7108773178574
 30
0.0
 11
120.6097512081436
 21
190.7108773178574
 31
0.0
  0
ARC
  5
310
330
1F
100
AcDbEntity
  8
GR1
  6
Continuous
 62
     3
370
    50
100
AcDbCircle
 10
119.9888498236724
 20
185.5511613046372
 30
0.0
 40
5.196940240787713
100
AcDbArc
 50
37.97333388551944
 51
83.13822956092395
  0
LINE
  5
311
330
1F
100
AcDbEntity
  8
GR1
  6
Continuous
 62
     3
370
    50
100
AcDbLine
 10
128.835583285777
 20
190.1406525451808
 30
0.0
 11
128.835583285777
 21
187.7665768132786
 31
0.0
  0
LINE
  5
312
330
1F
100
AcDbEntity
  8
GR1
  6
Continuous
 62
     3
370
    50
100
AcDbLine
 10
127.835583285777
 20
190.1406525451808
 30
0.0
 11
127.835583285777
 21
187.7665768132786
 31
0.0
  0
LINE
  5
313
330
1F
100
AcDbEntity
  8
GR1
  6
Continuous
 62
     3
370
    50
100
AcDbLine
 10
127.835583285777
 20
190.1406525451808
 30
0.0
 11
125.535583285777
 21
189.9585338564389
 31
0.0
  0
LINE
  5
314
330
1F
100
AcDbEntity
  8
GR1
  6
Continuous
 62
     3
370
    50
100
AcDbLine
 10
125.535583285777
 20
189.9585338564389
 30
0.0
 11
125.535583285777
 21
187.7665768132786
 31
0.0
  0
LINE
  5
315
330
1F
100
AcDbEntity
  8
GR1
  6
Continuous
 62
     3
370
    50
100
AcDbLine
 10
127.8355832857771
 20
190.1406525451808
 30
0.0
 11
128.835583285777
 21
190.1406525451808
 31
0.0
  0
LINE
  5
316
330
1F
100
AcDbEntity
  8
GR1
  6
Continuous
 62
     3
370
    50
100
AcDbLine
 10
125.085583285777
 20
188.2795115768614
 30
0.0
 11
125.085583285777
 21
187.7665768132786
 31
0.0
  0
ARC
  5
317
330
1F
100
AcDbEntity
  8
GR1
  6
Continuous
 62
     3
370
    50
100
AcDbCircle
 10
119.7892623548716
 20
182.7530636707771
 30
0.0
 40
8.0
100
AcDbArc
 50
52.13811551188423
 51
84.1133304240109
  0
ARC
  5
318
330
1F
100
AcDbEntity
  8
GR1
  6
Continuous
 62
     3
370
    50
100
AcDbCircle
 10
124.085583285777
 20
188.2795115768614
 30
0.0
 40
1.0
100
AcDbArc
 50
0.0
 51
52.13811551188356
  0
LINE
  5
319
330
1F
100
AcDbEntity
  8
基準ﾚｲﾔｸﾞﾙｰﾌﾟ
  6
Continuous
 62
     3
370
    50
100
AcDbLine
 10
164.8355832857772
 20
185.8176470588236
 30
0.0
 11
166.635583285777
 21
185.8176470588235
 31
0.0
  0
LINE
  5
31A
330
1F
100
AcDbEntity
  8
基準ﾚｲﾔｸﾞﾙｰﾌﾟ
  6
Continuous
 62
     3
370
    50
100
AcDbLine
 10
164.8355832857772
 20
179.8176470588235
 30
0.0
 11
166.635583285777
 21
179.8176470588235
 31
0.0
  0
LINE
  5
31B
330
1F
100
AcDbEntity
  8
GR1
  6
Continuous
 62
     6
370
    25
100
AcDbLine
 10
112.035583285777
 20
185.2761470588235
 30
0.0
 11
113.8355832857771
 21
185.2761470588235
 31
0.0
  0
LINE
  5
31C
330
1F
100
AcDbEntity
  8
GR1
  6
Continuous
 62
     6
370
    25
100
AcDbLine
 10
113.8355832857771
 20
180.3591470588236
 30
0.0
 11
112.035583285777
 21
180.3591470588236
 31
0.0
  0
ARC
  5
31D
330
1F
100
AcDbEntity
  8
GR1
  6
Continuous
 62
     3
370
    50
100
AcDbCircle
 10
288.3407472888464
 20
169.0373859155606
 30
0.0
 40
34.87697414695938
100
AcDbArc
 50
18.52362149745175
 51
77.72986326607986
  0
ARC
  5
31E
330
1F
100
AcDbEntity
  8
GR1
  6
Continuous
 62
     3
370
    50
100
AcDbCircle
 10
-361.3025718103726
 20
-44.7379350612589
 30
0.0
 40
718.7890077620168
100
AcDbArc
 50
12.66997695830839
 51
17.19142794919924
  0
LINE
  5
31F
330
1F
100
AcDbEntity
  8
GR1
  6
Continuous
 62
     3
370
    50
100
AcDbLine
 10
343.640501572656
 20
99.73144109648712
 30
0.0
 11
324.815352640141
 21
167.6127351822104
 31
0.0
  0
LINE
  5
320
330
1F
100
AcDbEntity
  8
GR1
  6
Continuous
 62
     3
370
    50
100
AcDbLine
 10
321.0545001181144
 20
180.9734666256321
 30
0.0
 11
319.9898008008269
 21
183.6914207675553
 31
0.0
  0
ARC
  5
321
330
1F
100
AcDbEntity
  8
GR1
  6
Continuous
 62
     3
370
    50
100
AcDbCircle
 10
288.5607970357487
 20
169.3733415943608
 30
0.0
 40
34.50222660562747
100
AcDbArc
 50
18.14416666093136
 51
19.64636596052978
  0
ARC
  5
322
330
1F
100
AcDbEntity
  8
GR1
  6
Continuous
 62
     3
370
    50
100
AcDbCircle
 10
-361.3025718103726
 20
-44.7379350612589
 30
0.0
 40
718.7890077620168
100
AcDbArc
 50
17.99560210542728
 51
18.22959532575296
  0
LINE
  5
323
330
1F
100
AcDbEntity
  8
GR1
  6
Continuous
 62
     3
370
    50
100
AcDbLine
 10
322.1306088515207
 20
177.2936085348446
 30
0.0
 11
321.3474336554508
 21
180.1176470588235
 31
0.0
  0
LINE
  5
324
330
1F
100
AcDbEntity
  8
GR1
  6
Continuous
 62
     3
370
    50
100
AcDbLine
 10
357.756458135721
 20
364.5176470588234
 30
0.0
 11
357.756458135721
 21
365.3176470588234
 31
0.0
  0
LINE
  5
325
330
1F
100
AcDbEntity
  8
GR1
  6
Continuous
 62
     3
370
    50
100
AcDbLine
 10
357.7492229025744
 20
365.3176470588234
 30
0.0
 11
358.7492229025744
 21
366.3176470588234
 31
0.0
  0
LINE
  5
326
330
1F
100
AcDbEntity
  8
GR1
  6
Continuous
 62
     3
370
    50
100
AcDbLine
 10
358.7492229025744
 20
366.3176470588234
 30
0.0
 11
370.7492229025744
 21
366.3176470588235
 31
0.0
  0
LINE
  5
327
330
1F
100
AcDbEntity
  8
GR1
  6
Continuous
 62
     3
370
    50
100
AcDbLine
 10
370.7492229025744
 20
366.3176470588235
 30
0.0
 11
371.7492229025744
 21
365.3176470588235
 31
0.0
  0
LINE
  5
328
330
1F
100
AcDbEntity
  8
GR1
  6
Continuous
 62
     3
370
    50
100
AcDbLine
 10
371.7492229025744
 20
365.3176470588235
 30
0.0
 11
371.7492229025744
 21
364.5176470588235
 31
0.0
  0
LINE
  5
329
330
1F
100
AcDbEntity
  8
GR1
  6
Continuous
 62
     6
370
    25
100
AcDbLine
 10
370.9408405191477
 20
366.1260294422501
 30
0.0
 11
370.9408405191477
 21
364.5176470588235
 31
0.0
  0
LINE
  5
32A
330
1F
100
AcDbEntity
  8
GR1
  6
Continuous
 62
     6
370
    25
100
AcDbLine
 10
371.7492229025744
 20
365.3176470588235
 30
0.0
 11
357.7492229025744
 21
365.3176470588234
 31
0.0
  0
LINE
  5
32B
330
1F
100
AcDbEntity
  8
GR1
  6
Continuous
 62
     6
370
    25
100
AcDbLine
 10
358.5648405191477
 20
364.5176470588233
 30
0.0
 11
358.5648405191475
 21
366.12602944225
 31
0.0
  0
LINE
  5
32C
330
1F
100
AcDbEntity
  8
基準ﾚｲﾔｸﾞﾙｰﾌﾟ
  6
Continuous
 62
     3
370
    50
100
AcDbLine
 10
342.2528405191478
 20
291.8178472837882
 30
0.0
 11
342.2528405191478
 21
289.9529041808037
 31
0.0
  0
LINE
  5
32D
330
1F
100
AcDbEntity
  8
基準ﾚｲﾔｸﾞﾙｰﾌﾟ
  6
Continuous
 62
     3
370
    50
100
AcDbLine
 10
342.2528405191478
 20
289.9529041808037
 30
0.0
 11
342.7528405191476
 21
289.2176470588235
 31
0.0
  0
LINE
  5
32E
330
1F
100
AcDbEntity
  8
基準ﾚｲﾔｸﾞﾙｰﾌﾟ
  6
Continuous
 62
     3
370
    50
100
AcDbLine
 10
342.7528405191476
 20
289.2176470588235
 30
0.0
 11
351.7528405191478
 21
289.2176470588235
 31
0.0
  0
LINE
  5
32F
330
1F
100
AcDbEntity
  8
基準ﾚｲﾔｸﾞﾙｰﾌﾟ
  6
Continuous
 62
     3
370
    50
100
AcDbLine
 10
352.2528405191476
 20
293.2176470588235
 30
0.0
 11
352.2528405191478
 21
289.9529041808037
 31
0.0
  0
LINE
  5
330
330
1F
100
AcDbEntity
  8
基準ﾚｲﾔｸﾞﾙｰﾌﾟ
  6
Continuous
 62
     3
370
    50
100
AcDbLine
 10
352.2528405191478
 20
289.9529041808037
 30
0.0
 11
351.7528405191478
 21
289.2176470588235
 31
0.0
  0
LINE
  5
331
330
1F
100
AcDbEntity
  8
基準ﾚｲﾔｸﾞﾙｰﾌﾟ
  6
Continuous
 62
     3
370
    50
100
AcDbLine
 10
347.2528405191476
 20
289.9529041808036
 30
0.0
 11
347.2528405191478
 21
293.2176470588235
 31
0.0
  0
ARC
  5
332
330
1F
100
AcDbEntity
  8
基準ﾚｲﾔｸﾞﾙｰﾌﾟ
  6
Continuous
 62
     3
370
    50
100
AcDbCircle
 10
344.7528405191478
 20
293.8354894655278
 30
0.0
 40
4.617842406704288
100
AcDbArc
 50
237.2224800821851
 51
302.7775199178141
  0
ARC
  5
333
330
1F
100
AcDbEntity
  8
基準ﾚｲﾔｸﾞﾙｰﾌﾟ
  6
Continuous
 62
     3
370
    50
100
AcDbCircle
 10
349.7528405191478
 20
293.8354894655278
 30
0.0
 40
4.617842406704288
100
AcDbArc
 50
237.2224800821861
 51
302.7775199178148
  0
INSERT
  5
337
330
1F
100
AcDbEntity
  8
GR1
  6
Continuous
 62
     3
370
    50
100
AcDbBlockReference
  2
BLKF026
 10
0.0
 20
0.0
 30
0.0
  0
LINE
  5
346
330
1F
100
AcDbEntity
  8
GR1
  6
DASHDOT
 62
     6
370
    25
100
AcDbLine
 10
316.2528405191477
 20
343.6160733929084
 30
0.0
 11
316.2528405191477
 21
357.6969449304901
 31
0.0
  0
LINE
  5
347
330
1F
100
AcDbEntity
  8
GR1
  6
DASHDOT
 62
     6
370
    25
100
AcDbLine
 10
322.5534978416525
 20
351.1176470588235
 30
0.0
 11
308.3190965521033
 21
351.1176470588235
 31
0.0
  0
LINE
  5
348
330
1F
100
AcDbEntity
  8
GR1
  6
DASHDOT
 62
     6
370
    25
100
AcDbLine
 10
314.7528405191477
 20
357.6969449304901
 30
0.0
 11
314.7528405191477
 21
343.6160733929084
 31
0.0
  0
LINE
  5
349
330
1F
100
AcDbEntity
  8
GR1
  6
DASHDOT
 62
     6
370
    25
100
AcDbLine
 10
308.9990140251018
 20
349.6176470588235
 30
0.0
 11
322.5534978416525
 21
349.6176470588235
 31
0.0
  0
LINE
  5
34A
330
1F
100
AcDbEntity
  8
GR1
  6
DASHDOT
 62
     6
370
    25
100
AcDbLine
 10
165.835583285777
 20
212.1099815179622
 30
0.0
 11
165.835583285777
 21
218.9052643369722
 31
0.0
  0
LINE
  5
34B
330
1F
100
AcDbEntity
  8
GR1
  6
DASHDOT
 62
     6
370
    25
100
AcDbLine
 10
167.335583285777
 20
212.1099815179622
 30
0.0
 11
167.335583285777
 21
218.9052643369722
 31
0.0
  0
LINE
  5
34C
330
1F
100
AcDbEntity
  8
GR1
  6
DASHDOT
 62
     6
370
    25
100
AcDbLine
 10
112.835583285777
 20
212.1099815179622
 30
0.0
 11
112.835583285777
 21
218.9052643369722
 31
0.0
  0
LINE
  5
34D
330
1F
100
AcDbEntity
  8
GR1
  6
DASHDOT
 62
     6
370
    25
100
AcDbLine
 10
111.335583285777
 20
212.1099815179622
 30
0.0
 11
111.335583285777
 21
218.9052643369722
 31
0.0
  0
LINE
  5
34E
330
1F
100
AcDbEntity
  8
図面枠ﾚｲﾔ
  6
DASHDOT
 62
     6
370
    25
100
AcDbLine
 10
414.7528405191478
 20
220.0516359691503
 30
0.0
 11
414.7528405191478
 21
211.2586098619102
 31
0.0
  0
LINE
  5
34F
330
1F
100
AcDbEntity
  8
図面枠ﾚｲﾔ
  6
DASHDOT
 62
     6
370
    25
100
AcDbLine
 10
413.2528405191477
 20
220.0516359691503
 30
0.0
 11
413.2528405191477
 21
211.2586098619102
 31
0.0
  0
LINE
  5
350
330
1F
100
AcDbEntity
  8
図面枠ﾚｲﾔ
  6
DASHDOT
 62
     6
370
    25
100
AcDbLine
 10
314.7528405191478
 20
220.0516359691503
 30
0.0
 11
314.7528405191478
 21
211.2586098619102
 31
0.0
  0
LINE
  5
351
330
1F
100
AcDbEntity
  8
図面枠ﾚｲﾔ
  6
DASHDOT
 62
     6
370
    25
100
AcDbLine
 10
316.2528405191478
 20
220.0516359691503
 30
0.0
 11
316.2528405191478
 21
211.2586098619102
 31
0.0
  0
LINE
  5
352
330
1F
100
AcDbEntity
  8
GR1
  6
DASHDOT
 62
     6
370
    25
100
AcDbLine
 10
413.2528405191478
 20
343.6160733929084
 30
0.0
 11
413.2528405191478
 21
357.6969449304901
 31
0.0
  0
LINE
  5
353
330
1F
100
AcDbEntity
  8
GR1
  6
DASHDOT
 62
     6
370
    25
100
AcDbLine
 10
406.952183196643
 20
351.1176470588235
 30
0.0
 11
421.1865844861922
 21
351.1176470588235
 31
0.0
  0
LINE
  5
354
330
1F
100
AcDbEntity
  8
GR1
  6
DASHDOT
 62
     6
370
    25
100
AcDbLine
 10
414.7528405191478
 20
357.6969449304901
 30
0.0
 11
414.7528405191478
 21
343.6160733929084
 31
0.0
  0
LINE
  5
355
330
1F
100
AcDbEntity
  8
GR1
  6
DASHDOT
 62
     6
370
    25
100
AcDbLine
 10
420.5066670131937
 20
349.6176470588235
 30
0.0
 11
406.952183196643
 21
349.6176470588235
 31
0.0
  0
LINE
  5
356
330
1F
100
AcDbEntity
  8
GR1
  6
DASHDOT
 62
     6
370
    25
100
AcDbLine
 10
316.2528405191477
 20
302.6192207247386
 30
0.0
 11
316.2528405191477
 21
288.5383491871568
 31
0.0
  0
LINE
  5
357
330
1F
100
AcDbEntity
  8
GR1
  6
DASHDOT
 62
     6
370
    25
100
AcDbLine
 10
322.5534978416525
 20
295.1176470588235
 30
0.0
 11
308.3190965521033
 21
295.1176470588235
 31
0.0
  0
LINE
  5
358
330
1F
100
AcDbEntity
  8
GR1
  6
DASHDOT
 62
     6
370
    25
100
AcDbLine
 10
314.7528405191477
 20
288.5383491871568
 30
0.0
 11
314.7528405191477
 21
302.6192207247386
 31
0.0
  0
LINE
  5
359
330
1F
100
AcDbEntity
  8
GR1
  6
DASHDOT
 62
     6
370
    25
100
AcDbLine
 10
308.9990140251018
 20
296.6176470588235
 30
0.0
 11
322.5534978416525
 21
296.6176470588235
 31
0.0
  0
LINE
  5
35A
330
1F
100
AcDbEntity
  8
GR1
  6
DASHDOT
 62
     6
370
    25
100
AcDbLine
 10
413.2528405191478
 20
302.6192207247386
 30
0.0
 11
413.2528405191478
 21
288.5383491871568
 31
0.0
  0
LINE
  5
35B
330
1F
100
AcDbEntity
  8
GR1
  6
DASHDOT
 62
     6
370
    25
100
AcDbLine
 10
406.952183196643
 20
295.1176470588235
 30
0.0
 11
421.1865844861922
 21
295.1176470588235
 31
0.0
  0
LINE
  5
35C
330
1F
100
AcDbEntity
  8
GR1
  6
DASHDOT
 62
     6
370
    25
100
AcDbLine
 10
414.7528405191478
 20
288.5383491871568
 30
0.0
 11
414.7528405191478
 21
302.6192207247386
 31
0.0
  0
LINE
  5
35D
330
1F
100
AcDbEntity
  8
GR1
  6
DASHDOT
 62
     6
370
    25
100
AcDbLine
 10
420.5066670131937
 20
296.6176470588235
 30
0.0
 11
406.952183196643
 21
296.6176470588235
 31
0.0
  0
LINE
  5
35E
330
1F
100
AcDbEntity
  8
図面枠ﾚｲﾔ
  6
DASHDOT
 62
     6
370
    25
100
AcDbLine
 10
347.252840519148
 20
365.6010347199378
 30
0.0
 11
347.252840519148
 21
350.7032207900954
 31
0.0
  0
LINE
  5
35F
330
1F
100
AcDbEntity
  8
図面枠ﾚｲﾔ
  6
DASHDOT
 62
     6
370
    25
100
AcDbLine
 10
347.252840519148
 20
298.1957295373666
 30
0.0
 11
347.252840519148
 21
285.0505995992703
 31
0.0
  0
LINE
  5
360
330
1F
100
AcDbEntity
  8
図面枠ﾚｲﾔ
  6
DASHDOT
 62
     6
370
    25
100
AcDbLine
 10
382.252840519148
 20
348.0366936810311
 30
0.0
 11
382.252840519148
 21
360.6528604324292
 31
0.0
  0
LINE
  5
361
330
1F
100
AcDbEntity
  8
GR1
  6
Continuous
 62
     3
370
    50
100
AcDbLine
 10
344.3660891731998
 20
187.8176470588235
 30
0.0
 11
341.4793378272517
 21
182.8176470588235
 31
0.0
  0
LINE
  5
362
330
1F
100
AcDbEntity
  8
GR1
  6
Continuous
 62
     3
370
    50
100
AcDbLine
 10
341.4793378272517
 20
182.8176470588235
 30
0.0
 11
342.5862127741922
 21
180.9004834130975
 31
0.0
  0
ARC
  5
363
330
1F
100
AcDbEntity
  8
基準ﾚｲﾔｸﾞﾙｰﾌﾟ
  6
Continuous
 62
     3
370
    50
100
AcDbCircle
 10
364.7528405191477
 20
104.1176470588235
 30
0.0
 40
65.0
100
AcDbArc
 50
124.8310289311044
 51
55.16897106889545
  0
LINE
  5
364
330
1F
100
AcDbEntity
  8
GR1
  6
Continuous
 62
     3
370
    50
100
AcDbLine
 10
166.635583285777
 20
114.1140294422502
 30
0.0
 11
166.335583285777
 21
114.1140294422502
 31
0.0
  0
LINE
  5
365
330
1F
100
AcDbEntity
  8
GR1
  6
Continuous
 62
     3
370
    50
100
AcDbLine
 10
166.335583285777
 20
94.11402944225023
 30
0.0
 11
166.635583285777
 21
94.11402944225024
 31
0.0
  0
LINE
  5
366
330
1F
100
AcDbEntity
  8
基準ﾚｲﾔｸﾞﾙｰﾌﾟ
  6
Continuous
 62
     3
370
    50
100
AcDbLine
 10
166.635583285777
 20
114.1176470588236
 30
0.0
 11
165.3355832857772
 21
114.1176470588236
 31
0.0
  0
LINE
  5
367
330
1F
100
AcDbEntity
  8
基準ﾚｲﾔｸﾞﾙｰﾌﾟ
  6
Continuous
 62
     3
370
    50
100
AcDbLine
 10
166.635583285777
 20
94.11764705882347
 30
0.0
 11
165.3355832857774
 21
94.11764705882348
 31
0.0
  0
LINE
  5
368
330
1F
100
AcDbEntity
  8
基準ﾚｲﾔｸﾞﾙｰﾌﾟ
  6
Continuous
 62
     3
370
    50
100
AcDbLine
 10
113.335583285777
 20
114.1176470588234
 30
0.0
 11
112.035583285777
 21
114.1176470588234
 31
0.0
  0
LINE
  5
369
330
1F
100
AcDbEntity
  8
基準ﾚｲﾔｸﾞﾙｰﾌﾟ
  6
Continuous
 62
     3
370
    50
100
AcDbLine
 10
113.3355832857768
 20
94.11764705882369
 30
0.0
 11
112.035583285777
 21
94.1176470588237
 31
0.0
  0
TEXT
  5
36A
330
1F
100
AcDbEntity
  8
基準ﾚｲﾔｸﾞﾙｰﾌﾟ
  6
Continuous
 62
     7
370
    25
100
AcDbText
 10
136.3355865478516
 20
25.11764717049691
 30
0.0
 40
4.0
  1
３８
 41
0.9545454545454547
  7
FX_VECTOR
 72
     5
 11
142.3355865478516
 21
25.11764717154411
 31
0.0
100
AcDbText
  0
LINE
  5
36B
330
1F
100
AcDbEntity
  8
基準ﾚｲﾔｸﾞﾙｰﾌﾟ
  6
Continuous
 62
     7
370
    25
100
AcDbLine
 10
120.335583285777
 20
24.11764705882352
 30
0.0
 11
158.3355832857772
 21
24.11764705882352
 31
0.0
  0
INSERT
  5
36C
330
1F
100
AcDbEntity
  8
基準ﾚｲﾔｸﾞﾙｰﾌﾟ
  6
Continuous
 62
     7
370
    25
100
AcDbBlockReference
  2
FXTIP_ARROW_S
 10
120.335583285777
 20
24.11764705882352
 30
0.0
 41
4.0
 42
4.0
 50
180.0
  0
INSERT
  5
36D
330
1F
100
AcDbEntity
  8
基準ﾚｲﾔｸﾞﾙｰﾌﾟ
  6
Continuous
 62
     7
370
    25
100
AcDbBlockReference
  2
FXTIP_ARROW_E
 10
158.3355832857772
 20
24.11764705882352
 30
0.0
 41
4.0
 42
4.0
 50
360.0
  0
LINE
  5
36E
330
1F
100
AcDbEntity
  8
基準ﾚｲﾔｸﾞﾙｰﾌﾟ
  6
Continuous
 62
     7
370
    25
100
AcDbLine
 10
120.335583285777
 20
41.30809444513555
 30
0.0
 11
120.335583285777
 21
23.11764705882352
 31
0.0
  0
LINE
  5
36F
330
1F
100
AcDbEntity
  8
基準ﾚｲﾔｸﾞﾙｰﾌﾟ
  6
Continuous
 62
     7
370
    25
100
AcDbLine
 10
158.3355832857771
 20
41.30809444513555
 30
0.0
 11
158.3355832857772
 21
23.11764705882352
 31
0.0
  0
TEXT
  5
370
330
1F
100
AcDbEntity
  8
基準ﾚｲﾔｸﾞﾙｰﾌﾟ
  6
Continuous
 62
     7
370
    25
100
AcDbText
 10
136.3355865478516
 20
15.11764717049691
 30
0.0
 40
4.0
  1
５２
 41
0.9545454545454547
  7
FX_VECTOR
 72
     5
 11
142.3355865478516
 21
15.11764717154411
 31
0.0
100
AcDbText
  0
LINE
  5
371
330
1F
100
AcDbEntity
  8
基準ﾚｲﾔｸﾞﾙｰﾌﾟ
  6
Continuous
 62
     7
370
    25
100
AcDbLine
 10
113.3355832857767
 20
14.11764705882352
 30
0.0
 11
165.3355832857773
 21
14.11764705882352
 31
0.0
  0
INSERT
  5
372
330
1F
100
AcDbEntity
  8
基準ﾚｲﾔｸﾞﾙｰﾌﾟ
  6
Continuous
 62
     7
370
    25
100
AcDbBlockReference
  2
FXTIP_ARROW_S
 10
113.3355832857767
 20
14.11764705882352
 30
0.0
 41
4.0
 42
4.0
 50
180.0
  0
INSERT
  5
373
330
1F
100
AcDbEntity
  8
基準ﾚｲﾔｸﾞﾙｰﾌﾟ
  6
Continuous
 62
     7
370
    25
100
AcDbBlockReference
  2
FXTIP_ARROW_E
 10
165.3355832857773
 20
14.11764705882352
 30
0.0
 41
4.0
 42
4.0
 50
360.0
  0
LINE
  5
374
330
1F
100
AcDbEntity
  8
基準ﾚｲﾔｸﾞﾙｰﾌﾟ
  6
Continuous
 62
     7
370
    25
100
AcDbLine
 10
113.3355832857767
 20
89.11764705882352
 30
0.0
 11
113.3355832857767
 21
13.11764705882352
 31
0.0
  0
LINE
  5
375
330
1F
100
AcDbEntity
  8
基準ﾚｲﾔｸﾞﾙｰﾌﾟ
  6
Continuous
 62
     7
370
    25
100
AcDbLine
 10
165.3355832857774
 20
89.11764705882352
 30
0.0
 11
165.3355832857773
 21
13.11764705882352
 31
0.0
  0
LINE
  5
376
330
1F
100
AcDbEntity
  8
基準ﾚｲﾔｸﾞﾙｰﾌﾟ
  6
Continuous
 62
     3
370
    50
100
AcDbLine
 10
115.335583285777
 20
86.61764705882352
 30
0.0
 11
115.335583285777
 21
121.6176470588235
 31
0.0
  0
ARC
  5
377
330
1F
100
AcDbEntity
  8
基準ﾚｲﾔｸﾞﾙｰﾌﾟ
  6
Continuous
 62
     3
370
    50
100
AcDbCircle
 10
139.335583285777
 20
-30.88235294117648
 30
0.0
 40
200.0
100
AcDbArc
 50
85.20767813702541
 51
94.79232186297465
  0
LINE
  5
378
330
1F
100
AcDbEntity
  8
基準ﾚｲﾔｸﾞﾙｰﾌﾟ
  6
Continuous
 62
     3
370
    50
100
AcDbLine
 10
120.335583285777
 20
42.30809444513555
 30
0.0
 11
120.335583285777
 21
165.9271996725114
 31
0.0
  0
LINE
  5
379
330
1F
100
AcDbEntity
  8
基準ﾚｲﾔｸﾞﾙｰﾌﾟ
  6
Continuous
 62
     3
370
    50
100
AcDbLine
 10
119.7652712318058
 20
124.1176470588235
 30
0.0
 11
117.835583285777
 21
124.1176470588235
 31
0.0
  0
LINE
  5
37A
330
1F
100
AcDbEntity
  8
基準ﾚｲﾔｸﾞﾙｰﾌﾟ
  6
Continuous
 62
     3
370
    50
100
AcDbLine
 10
114.335583285777
 20
118.1176470588235
 30
0.0
 11
113.335583285777
 21
118.1176470588235
 31
0.0
  0
ARC
  5
37B
330
1F
100
AcDbEntity
  8
基準ﾚｲﾔｸﾞﾙｰﾌﾟ
  6
Continuous
 62
     3
370
    50
100
AcDbCircle
 10
114.335583285777
 20
119.1176470588235
 30
0.0
 40
1.0
100
AcDbArc
 50
270.0
 51
0.0
  0
LINE
  5
37C
330
1F
100
AcDbEntity
  8
基準ﾚｲﾔｸﾞﾙｰﾌﾟ
  6
Continuous
 62
     3
370
    50
100
AcDbLine
 10
114.335583285777
 20
90.11764705882352
 30
0.0
 11
113.3355832857767
 21
90.11764705882352
 31
0.0
  0
ARC
  5
37D
330
1F
100
AcDbEntity
  8
基準ﾚｲﾔｸﾞﾙｰﾌﾟ
  6
Continuous
 62
     3
370
    50
100
AcDbCircle
 10
114.335583285777
 20
89.11764705882352
 30
0.0
 40
1.0
100
AcDbArc
 50
0.0
 51
90.0
  0
ARC
  5
37E
330
1F
100
AcDbEntity
  8
基準ﾚｲﾔｸﾞﾙｰﾌﾟ
  6
Continuous
 62
     3
370
    50
100
AcDbCircle
 10
119.7652712318058
 20
139.1176470588235
 30
0.0
 40
15.0
100
AcDbArc
 50
270.0
 51
272.1789567716482
  0
ARC
  5
37F
330
1F
100
AcDbEntity
  8
基準ﾚｲﾔｸﾞﾙｰﾌﾟ
  6
Continuous
 62
     3
370
    50
100
AcDbCircle
 10
139.335583285777
 20
239.1176470588235
 30
0.0
 40
200.0
100
AcDbArc
 50
265.2076781370254
 51
274.7923218629746
  0
LINE
  5
380
330
1F
100
AcDbEntity
  8
基準ﾚｲﾔｸﾞﾙｰﾌﾟ
  6
Continuous
 62
     3
370
    50
100
AcDbLine
 10
119.7652712318058
 20
84.11764705882352
 30
0.0
 11
117.835583285777
 21
84.11764705882352
 31
0.0
  0
ARC
  5
381
330
1F
100
AcDbEntity
  8
基準ﾚｲﾔｸﾞﾙｰﾌﾟ
  6
Continuous
 62
     3
370
    50
100
AcDbCircle
 10
119.7652712318058
 20
69.11764705882352
 30
0.0
 40
15.0
100
AcDbArc
 50
87.82104322835171
 51
90.0
  0
ARC
  5
382
330
1F
100
AcDbEntity
  8
基準ﾚｲﾔｸﾞﾙｰﾌﾟ
  6
Continuous
 62
     3
370
    50
100
AcDbCircle
 10
117.835583285777
 20
121.6176470588235
 30
0.0
 40
2.5
100
AcDbArc
 50
90.0
 51
180.0
  0
ARC
  5
383
330
1F
100
AcDbEntity
  8
基準ﾚｲﾔｸﾞﾙｰﾌﾟ
  6
Continuous
 62
     3
370
    50
100
AcDbCircle
 10
117.835583285777
 20
86.61764705882352
 30
0.0
 40
2.5
100
AcDbArc
 50
180.0
 51
270.0
  0
ARC
  5
384
330
1F
100
AcDbEntity
  8
基準ﾚｲﾔｸﾞﾙｰﾌﾟ
  6
Continuous
 62
     3
370
    50
100
AcDbCircle
 10
122.8355832857769
 20
165.9271996725114
 30
0.0
 40
2.5
100
AcDbArc
 50
94.79232186297473
 51
180.0
  0
ARC
  5
385
330
1F
100
AcDbEntity
  8
基準ﾚｲﾔｸﾞﾙｰﾌﾟ
  6
Continuous
 62
     3
370
    50
100
AcDbCircle
 10
155.835583285777
 20
165.9271996725114
 30
0.0
 40
2.5
100
AcDbArc
 50
0.0
 51
85.2076781370256
  0
ARC
  5
386
330
1F
100
AcDbEntity
  8
基準ﾚｲﾔｸﾞﾙｰﾌﾟ
  6
Continuous
 62
     3
370
    50
100
AcDbCircle
 10
155.8355832857769
 20
42.30809444513555
 30
0.0
 40
2.5
100
AcDbArc
 50
274.7923218629747
 51
0.0000000000003562
  0
ARC
  5
387
330
1F
100
AcDbEntity
  8
基準ﾚｲﾔｸﾞﾙｰﾌﾟ
  6
Continuous
 62
     3
370
    50
100
AcDbCircle
 10
122.835583285777
 20
42.30809444513555
 30
0.0
 40
2.5
100
AcDbArc
 50
179.9999999999997
 51
265.2076781370253
  0
LINE
  5
388
330
1F
100
AcDbEntity
  8
基準ﾚｲﾔｸﾞﾙｰﾌﾟ
  6
Continuous
 62
     3
370
    50
100
AcDbLine
 10
113.335583285777
 20
118.1176470588235
 30
0.0
 11
113.3355832857767
 21
90.11764705882352
 31
0.0
  0
LINE
  5
389
330
1F
100
AcDbEntity
  8
基準ﾚｲﾔｸﾞﾙｰﾌﾟ
  6
Continuous
 62
     3
370
    50
100
AcDbLine
 10
163.3355832857771
 20
86.61764705882352
 30
0.0
 11
163.3355832857771
 21
121.6176470588235
 31
0.0
  0
LINE
  5
38A
330
1F
100
AcDbEntity
  8
基準ﾚｲﾔｸﾞﾙｰﾌﾟ
  6
Continuous
 62
     3
370
    50
100
AcDbLine
 10
158.3355832857771
 20
42.30809444513555
 30
0.0
 11
158.3355832857771
 21
165.9271996725114
 31
0.0
  0
LINE
  5
38B
330
1F
100
AcDbEntity
  8
基準ﾚｲﾔｸﾞﾙｰﾌﾟ
  6
Continuous
 62
     3
370
    50
100
AcDbLine
 10
158.9058953397483
 20
124.1176470588235
 30
0.0
 11
160.8355832857771
 21
124.1176470588235
 31
0.0
  0
LINE
  5
38C
330
1F
100
AcDbEntity
  8
基準ﾚｲﾔｸﾞﾙｰﾌﾟ
  6
Continuous
 62
     3
370
    50
100
AcDbLine
 10
164.3355832857771
 20
118.1176470588235
 30
0.0
 11
165.3355832857771
 21
118.1176470588235
 31
0.0
  0
ARC
  5
38D
330
1F
100
AcDbEntity
  8
基準ﾚｲﾔｸﾞﾙｰﾌﾟ
  6
Continuous
 62
     3
370
    50
100
AcDbCircle
 10
164.3355832857771
 20
119.1176470588235
 30
0.0
 40
1.0
100
AcDbArc
 50
180.0
 51
270.0
  0
LINE
  5
38E
330
1F
100
AcDbEntity
  8
基準ﾚｲﾔｸﾞﾙｰﾌﾟ
  6
Continuous
 62
     3
370
    50
100
AcDbLine
 10
164.3355832857771
 20
90.11764705882352
 30
0.0
 11
165.3355832857774
 21
90.11764705882352
 31
0.0
  0
ARC
  5
38F
330
1F
100
AcDbEntity
  8
基準ﾚｲﾔｸﾞﾙｰﾌﾟ
  6
Continuous
 62
     3
370
    50
100
AcDbCircle
 10
164.3355832857771
 20
89.11764705882352
 30
0.0
 40
1.0
100
AcDbArc
 50
90.0
 51
180.0
  0
ARC
  5
390
330
1F
100
AcDbEntity
  8
基準ﾚｲﾔｸﾞﾙｰﾌﾟ
  6
Continuous
 62
     3
370
    50
100
AcDbCircle
 10
158.9058953397483
 20
139.1176470588235
 30
0.0
 40
15.0
100
AcDbArc
 50
267.8210432283517
 51
270.0
  0
LINE
  5
391
330
1F
100
AcDbEntity
  8
基準ﾚｲﾔｸﾞﾙｰﾌﾟ
  6
Continuous
 62
     3
370
    50
100
AcDbLine
 10
158.9058953397483
 20
84.11764705882352
 30
0.0
 11
160.8355832857771
 21
84.11764705882352
 31
0.0
  0
ARC
  5
392
330
1F
100
AcDbEntity
  8
基準ﾚｲﾔｸﾞﾙｰﾌﾟ
  6
Continuous
 62
     3
370
    50
100
AcDbCircle
 10
158.9058953397483
 20
69.11764705882352
 30
0.0
 40
15.0
100
AcDbArc
 50
90.0
 51
92.1789567716483
  0
ARC
  5
393
330
1F
100
AcDbEntity
  8
基準ﾚｲﾔｸﾞﾙｰﾌﾟ
  6
Continuous
 62
     3
370
    50
100
AcDbCircle
 10
160.8355832857771
 20
121.6176470588235
 30
0.0
 40
2.5
100
AcDbArc
 50
0.0
 51
90.0
  0
ARC
  5
394
330
1F
100
AcDbEntity
  8
基準ﾚｲﾔｸﾞﾙｰﾌﾟ
  6
Continuous
 62
     3
370
    50
100
AcDbCircle
 10
160.8355832857771
 20
86.61764705882352
 30
0.0
 40
2.5
100
AcDbArc
 50
270.0
 51
0.0
  0
LINE
  5
395
330
1F
100
AcDbEntity
  8
基準ﾚｲﾔｸﾞﾙｰﾌﾟ
  6
Continuous
 62
     3
370
    50
100
AcDbLine
 10
165.3355832857771
 20
118.1176470588235
 30
0.0
 11
165.3355832857774
 21
90.11764705882352
 31
0.0
  0
INSERT
  5
399
330
1F
100
AcDbEntity
  8
基準ﾚｲﾔｸﾞﾙｰﾌﾟ
  6
Continuous
 62
     7
370
    25
100
AcDbBlockReference
  2
BLKF027
 10
0.0
 20
0.0
 30
0.0
  0
ARC
  5
3A5
330
1F
100
AcDbEntity
  8
基準ﾚｲﾔｸﾞﾙｰﾌﾟ
  6
DASHED
 62
     6
370
    25
100
AcDbCircle
 10
364.7528405191478
 20
104.1176470588235
 30
0.0
 40
24.25547084863027
100
AcDbArc
 50
168.0091580411303
 51
11.99084195886967
  0
ARC
  5
3A6
330
1F
100
AcDbEntity
  8
基準ﾚｲﾔｸﾞﾙｰﾌﾟ
  6
DASHED
 62
     6
370
    25
100
AcDbCircle
 10
364.7528405191478
 20
104.1176470588235
 30
0.0
 40
55.23875111416251
100
AcDbArc
 50
128.4246998607418
 51
51.57530013925815
  0
ARC
  5
3A7
330
1F
100
AcDbEntity
  8
基準ﾚｲﾔｸﾞﾙｰﾌﾟ
  6
Continuous
 62
     6
370
    25
100
AcDbCircle
 10
364.7528405191478
 20
104.1176470588235
 30
0.0
 40
58.0730273495009
100
AcDbArc
 50
127.2470927954488
 51
52.75290720455119
  0
INSERT
  5
3AB
330
1F
100
AcDbEntity
  8
基準ﾚｲﾔｸﾞﾙｰﾌﾟ
  6
Continuous
 62
     7
370
    25
100
AcDbBlockReference
  2
BLKF028
 10
0.0
 20
0.0
 30
0.0
  0
ARC
  5
3B2
330
1F
100
AcDbEntity
  8
基準ﾚｲﾔｸﾞﾙｰﾌﾟ
  6
Continuous
 62
     6
370
    25
100
AcDbCircle
 10
364.7528405191478
 20
104.1176470588235
 30
0.0
 40
63.41078758044904
100
AcDbArc
 50
125.3355528687659
 51
54.66444713123418
  0
LINE
  5
3B3
330
1F
100
AcDbEntity
  8
基準ﾚｲﾔｸﾞﾙｰﾌﾟ
  6
Continuous
 62
     3
370
    50
100
AcDbLine
 10
164.8355832857772
 20
186.9176470588235
 30
0.0
 11
113.985767561828
 21
186.9176470588235
 31
0.0
  0
LINE
  5
3B4
330
1F
100
AcDbEntity
  8
基準ﾚｲﾔｸﾞﾙｰﾌﾟ
  6
Continuous
 62
     3
370
    50
100
AcDbLine
 10
113.8355832857771
 20
178.7176470588235
 30
0.0
 11
164.8355832857771
 21
178.7176470588235
 31
0.0
  0
LINE
  5
3B5
330
1F
100
AcDbEntity
  8
基準ﾚｲﾔｸﾞﾙｰﾌﾟ
  6
Continuous
 62
     3
370
    50
100
AcDbLine
 10
164.8355832857772
 20
186.9176470588235
 30
0.0
 11
164.8355832857772
 21
178.7176470588236
 31
0.0
  0
LINE
  5
3B6
330
1F
100
AcDbEntity
  8
基準ﾚｲﾔｸﾞﾙｰﾌﾟ
  6
Continuous
 62
     3
370
    50
100
AcDbLine
 10
113.8355832857771
 20
186.867955584203
 30
0.0
 11
113.8355832857771
 21
178.7176470588235
 31
0.0
  0
ARC
  5
3B7
330
1F
100
AcDbEntity
  8
基準ﾚｲﾔｸﾞﾙｰﾌﾟ
  6
Continuous
 62
     3
370
    50
100
AcDbCircle
 10
120.8944649036294
 20
191.4802391673735
 30
0.0
 40
4.896378724026826
100
AcDbArc
 50
291.2781160386826
 51
310.6721865813783
  0
LINE
  5
3B8
330
1F
100
AcDbEntity
  8
基準ﾚｲﾔｸﾞﾙｰﾌﾟ
  6
Continuous
 62
     3
370
    50
100
AcDbLine
 10
124.085583285777
 20
176.7176470588236
 30
0.0
 11
124.085583285777
 21
170.4430720137938
 31
0.0
  0
ARC
  5
3B9
330
1F
100
AcDbEntity
  8
基準ﾚｲﾔｸﾞﾙｰﾌﾟ
  6
Continuous
 62
     3
370
    50
100
AcDbCircle
 10
117.8355832857771
 20
167.9520220588234
 30
0.0
 40
10.76562500000011
100
AcDbArc
 50
54.51065674988636
 51
90.0
  0
ARC
  5
3BA
330
1F
100
AcDbEntity
  8
基準ﾚｲﾔｸﾞﾙｰﾌﾟ
  6
Continuous
 62
     3
370
    50
100
AcDbCircle
 10
160.8355832857769
 20
167.9520220588234
 30
0.0
 40
10.76562500000011
100
AcDbArc
 50
90.0
 51
125.4893432501136
  0
ARC
  5
3BB
330
1F
100
AcDbEntity
  8
基準ﾚｲﾔｸﾞﾙｰﾌﾟ
  6
Continuous
 62
     3
370
    50
100
AcDbCircle
 10
157.7767016679246
 20
191.4802391673735
 30
0.0
 40
4.896378724026826
100
AcDbArc
 50
229.3278134186217
 51
248.7218839613172
  0
LINE
  5
3BC
330
1F
100
AcDbEntity
  8
基準ﾚｲﾔｸﾞﾙｰﾌﾟ
  6
Continuous
 62
     3
370
    50
100
AcDbLine
 10
154.585583285777
 20
187.7665768132786
 30
0.0
 11
154.585583285777
 21
188.7488108799957
 31
0.0
  0
ENDSEC
  0
SECTION
  2
OBJECTS
  0
DICTIONARY
  5
C
330
0
100
AcDbDictionary
281
     1
  3
ACAD_GROUP
350
D
  3
ACAD_LAYOUT
350
1A
  3
ACAD_MATERIAL
350
43
  3
ACAD_MLEADERSTYLE
350
6B
  3
ACAD_MLINESTYLE
350
17
  3
ACAD_PLOTSETTINGS
350
19
  3
ACAD_PLOTSTYLENAME
350
E
  3
ACAD_SCALELIST
350
47
  3
ACAD_TABLESTYLE
350
69
  3
ACAD_VISUALSTYLE
350
2A
  3
AcDbVariableDictionary
350
3BD
  0
DICTIONARY
  5
3C7
330
8
100
AcDbDictionary
280
     1
281
     1
  3
ACAD_XREC_ROUNDTRIP
360
3C8
  0
DICTIONARY
  5
D
102
{ACAD_REACTORS
330
C
102
}
330
C
100
AcDbDictionary
281
     1
  0
DICTIONARY
  5
1A
102
{ACAD_REACTORS
330
C
102
}
330
C
100
AcDbDictionary
281
     1
  3
Layout1
350
1E
  3
Layout2
350
26
  3
Model
350
22
  0
DICTIONARY
  5
43
102
{ACAD_REACTORS
330
C
102
}
330
C
100
AcDbDictionary
281
     1
  3
ByBlock
350
45
  3
ByLayer
350
44
  3
Global
350
46
  0
DICTIONARY
  5
6B
102
{ACAD_REACTORS
330
C
102
}
330
C
100
AcDbDictionary
281
     1
  3
Standard
350
6C
  0
DICTIONARY
  5
17
102
{ACAD_REACTORS
330
C
102
}
330
C
100
AcDbDictionary
281
     1
  3
Standard
350
18
  0
DICTIONARY
  5
19
102
{ACAD_REACTORS
330
C
102
}
330
C
100
AcDbDictionary
281
     1
  0
ACDBDICTIONARYWDFLT
  5
E
102
{ACAD_REACTORS
330
C
102
}
330
C
100
AcDbDictionary
281
     1
  3
Normal
350
F
100
AcDbDictionaryWithDefault
340
F
  0
DICTIONARY
  5
47
102
{ACAD_REACTORS
330
C
102
}
330
C
100
AcDbDictionary
281
     1
  3
A0
350
48
  3
A1
350
49
  3
A2
350
4A
  3
A3
350
4B
  3
A4
350
4C
  3
A5
350
4D
  3
A6
350
4E
  3
A7
350
4F
  3
A8
350
50
  3
A9
350
51
  3
B0
350
52
  3
B1
350
53
  3
B2
350
54
  3
B3
350
55
  3
B4
350
56
  3
B5
350
57
  3
B6
350
58
  3
B7
350
59
  3
B8
350
5A
  3
B9
350
5B
  3
C0
350
5C
  3
C1
350
5D
  3
C2
350
5E
  3
C3
350
5F
  3
C4
350
60
  3
C5
350
61
  3
C6
350
62
  3
C7
350
63
  3
C8
350
64
  3
C9
350
65
  3
D0
350
66
  3
D1
350
67
  3
D2
350
68
  0
DICTIONARY
  5
69
102
{ACAD_REACTORS
330
C
102
}
330
C
100
AcDbDictionary
281
     1
  3
Standard
350
6A
  0
DICTIONARY
  5
2A
102
{ACAD_REACTORS
330
C
102
}
330
C
100
AcDbDictionary
281
     1
  3
2dWireframe
350
2F
  3
Basic
350
32
  3
Brighten
350
36
  3
ColorChange
350
3A
  3
Conceptual
350
34
  3
Dim
350
35
  3
EdgeColorOff
350
3D
  3
Facepattern
350
39
  3
Flat
350
2B
  3
FlatWithEdges
350
2C
  3
Gouraud
350
2D
  3
GouraudWithEdges
350
2E
  3
Hidden
350
31
  3
JitterOff
350
3B
  3
Linepattern
350
38
  3
OverhangOff
350
3C
  3
Realistic
350
33
  3
Shaded
350
42
  3
Shaded with edges
350
41
  3
Shades of Gray
350
3E
  3
Sketchy
350
3F
  3
Thicken
350
37
  3
Wireframe
350
30
  3
X-Ray
350
40
  0
DICTIONARY
  5
3BD
102
{ACAD_REACTORS
330
C
102
}
330
C
100
AcDbDictionary
281
     1
  3
CANNOSCALE
350
3C9
  3
CMLEADERSTYLE
350
3BF
  3
CTABLESTYLE
350
3BE
  3
DIMASSOC
350
3C5
  3
HIDETEXT
350
3C6
  3
MSLTSCALE
350
3CA
  3
PSOLHEIGHT
350
3C1
  3
PSOLWIDTH
350
3C0
  3
SECTIONTHICKNESSINC
350
3C4
  0
XRECORD
  5
3C8
102
{ACAD_REACTORS
330
3C7
102
}
330
3C7
100
AcDbXrecord
280
     1
102
VTR_0.000_0.000_1.000_1.000_VISUALSTYLE
340
2F
102
VTR_0.000_0.000_1.000_1.000_GRIDDISPLAY
 70
     3
102
VTR_0.000_0.000_1.000_1.000_GRIDMAJOR
 70
     5
102
VTR_0.000_0.000_1.000_1.000_DEFAULTLIGHTING
280
     1
102
VTR_0.000_0.000_1.000_1.000_DEFAULTLIGHTINGTYPE
 70
     1
102
VTR_0.000_0.000_1.000_1.000_BRIGHTNESS
141
0.0
102
VTR_0.000_0.000_1.000_1.000_CONTRAST
142
0.0
  0
LAYOUT
  5
1E
102
{ACAD_REACTORS
330
1A
102
}
330
1A
100
AcDbPlotSettings
  1

  2
none_device
  4

  6

 40
0.0
 41
0.0
 42
0.0
 43
0.0
 44
0.0
 45
0.0
 46
0.0
 47
0.0
 48
0.0
 49
0.0
140
0.0
141
0.0
142
1.0
143
1.0
 70
   688
 72
     1
 73
     0
 74
     5
  7

 75
    16
147
1.0
148
0.0
149
0.0
100
AcDbLayout
  1
Layout1
 70
     1
 71
     1
 10
0.0
 20
0.0
 11
420.0
 21
297.0
 12
0.0
 22
0.0
 32
0.0
 14
1.000000000000000E+20
 24
1.000000000000000E+20
 34
1.000000000000000E+20
 15
-1.000000000000000E+20
 25
-1.000000000000000E+20
 35
-1.000000000000000E+20
146
0.0
 13
0.0
 23
0.0
 33
0.0
 16
1.0
 26
0.0
 36
0.0
 17
0.0
 27
1.0
 37
0.0
 76
     0
330
1B
  0
LAYOUT
  5
26
102
{ACAD_REACTORS
330
1A
102
}
330
1A
100
AcDbPlotSettings
  1

  2
none_device
  4

  6

 40
0.0
 41
0.0
 42
0.0
 43
0.0
 44
0.0
 45
0.0
 46
0.0
 47
0.0
 48
0.0
 49
0.0
140
0.0
141
0.0
142
1.0
143
1.0
 70
   688
 72
     1
 73
     0
 74
     5
  7

 75
    16
147
1.0
148
0.0
149
0.0
100
AcDbLayout
  1
Layout2
 70
     1
 71
     2
 10
0.0
 20
0.0
 11
0.0
 21
0.0
 12
0.0
 22
0.0
 32
0.0
 14
0.0
 24
0.0
 34
0.0
 15
0.0
 25
0.0
 35
0.0
146
0.0
 13
0.0
 23
0.0
 33
0.0
 16
1.0
 26
0.0
 36
0.0
 17
0.0
 27
1.0
 37
0.0
 76
     0
330
23
  0
LAYOUT
  5
22
102
{ACAD_REACTORS
330
1A
102
}
330
1A
100
AcDbPlotSettings
  1

  2
none_device
  4
Letter_(8.50_x_11.00_Inches)
  6

 40
6.35
 41
6.35
 42
6.35000508
 43
6.35000508
 44
215.9
 45
279.4
 46
0.0
 47
0.0
 48
0.0
 49
0.0
140
0.0
141
0.0
142
1.0
143
1.0
 70
  1712
 72
     1
 73
     0
 74
     0
  7

 75
     0
147
1.0
148
0.0
149
0.0
100
AcDbLayout
  1
Model
 70
     1
 71
     0
 10
0.0
 20
0.0
 11
594.0
 21
420.0
 12
0.0
 22
0.0
 32
0.0
 14
0.0
 24
0.0
 34
0.0
 15
594.0
 25
420.0
 35
0.0
146
0.0
 13
0.0
 23
0.0
 33
0.0
 16
1.0
 26
0.0
 36
0.0
 17
0.0
 27
1.0
 37
0.0
 76
     0
330
1F
331
29
  0
MATERIAL
  5
45
102
{ACAD_REACTORS
330
43
102
}
102
{ACAD_XDICTIONARY
360
3FD
102
}
330
43
100
AcDbMaterial
  1
ByBlock
  0
MATERIAL
  5
44
102
{ACAD_REACTORS
330
43
102
}
102
{ACAD_XDICTIONARY
360
3FB
102
}
330
43
100
AcDbMaterial
  1
ByLayer
  0
MATERIAL
  5
46
102
{ACAD_REACTORS
330
43
102
}
102
{ACAD_XDICTIONARY
360
3FF
102
}
330
43
100
AcDbMaterial
  1
Global
  0
MLEADERSTYLE
  5
6C
102
{ACAD_REACTORS
330
6B
102
}
102
{ACAD_XDICTIONARY
360
402
102
}
330
6B
100
AcDbMLeaderStyle
170
     2
171
     1
172
     0
 90
        2
 40
0.0
 41
0.0
173
     1
 91
-1056964608
340
14
 92
       -2
290
     1
 42
2.0
291
     1
 43
8.0
  3
Standard
341
0
 44
4.0
300

342
11
174
     1
178
     6
175
     1
176
     0
 93
-1056964608
 45
4.0
292
     0
297
     0
 46
4.0
343
0
 94
-1056964608
 47
1.0
 49
1.0
140
1.0
293
     1
141
0.0
294
     1
177
     0
142
1.0
295
     0
296
     0
143
3.75
1001
ACAD_MLEADERVER
1070
     2
  0
MLINESTYLE
  5
18
102
{ACAD_REACTORS
330
17
102
}
330
17
100
AcDbMlineStyle
  2
Standard
 70
     0
  3

 62
   256
 51
90.0
 52
90.0
 71
     2
 49
0.5
 62
   256
  6
BYLAYER
 49
-0.5
 62
   256
  6
BYLAYER
  0
ACDBPLACEHOLDER
  5
F
102
{ACAD_REACTORS
330
E
102
}
330
E
  0
SCALE
  5
48
102
{ACAD_REACTORS
330
47
102
}
330
47
100
AcDbScale
 70
     0
300
1:1
140
1.0
141
1.0
290
     1
  0
SCALE
  5
49
102
{ACAD_REACTORS
330
47
102
}
330
47
100
AcDbScale
 70
     0
300
1:2
140
1.0
141
2.0
290
     0
  0
SCALE
  5
4A
102
{ACAD_REACTORS
330
47
102
}
330
47
100
AcDbScale
 70
     0
300
1:4
140
1.0
141
4.0
290
     0
  0
SCALE
  5
4B
102
{ACAD_REACTORS
330
47
102
}
330
47
100
AcDbScale
 70
     0
300
1:5
140
1.0
141
5.0
290
     0
  0
SCALE
  5
4C
102
{ACAD_REACTORS
330
47
102
}
330
47
100
AcDbScale
 70
     0
300
1:8
140
1.0
141
8.0
290
     0
  0
SCALE
  5
4D
102
{ACAD_REACTORS
330
47
102
}
330
47
100
AcDbScale
 70
     0
300
1:10
140
1.0
141
10.0
290
     0
  0
SCALE
  5
4E
102
{ACAD_REACTORS
330
47
102
}
330
47
100
AcDbScale
 70
     0
300
1:16
140
1.0
141
16.0
290
     0
  0
SCALE
  5
4F
102
{ACAD_REACTORS
330
47
102
}
330
47
100
AcDbScale
 70
     0
300
1:20
140
1.0
141
20.0
290
     0
  0
SCALE
  5
50
102
{ACAD_REACTORS
330
47
102
}
330
47
100
AcDbScale
 70
     0
300
1:30
140
1.0
141
30.0
290
     0
  0
SCALE
  5
51
102
{ACAD_REACTORS
330
47
102
}
330
47
100
AcDbScale
 70
     0
300
1:40
140
1.0
141
40.0
290
     0
  0
SCALE
  5
52
102
{ACAD_REACTORS
330
47
102
}
330
47
100
AcDbScale
 70
     0
300
1:50
140
1.0
141
50.0
290
     0
  0
SCALE
  5
53
102
{ACAD_REACTORS
330
47
102
}
330
47
100
AcDbScale
 70
     0
300
1:100
140
1.0
141
100.0
290
     0
  0
SCALE
  5
54
102
{ACAD_REACTORS
330
47
102
}
330
47
100
AcDbScale
 70
     0
300
2:1
140
2.0
141
1.0
290
     0
  0
SCALE
  5
55
102
{ACAD_REACTORS
330
47
102
}
330
47
100
AcDbScale
 70
     0
300
4:1
140
4.0
141
1.0
290
     0
  0
SCALE
  5
56
102
{ACAD_REACTORS
330
47
102
}
330
47
100
AcDbScale
 70
     0
300
8:1
140
8.0
141
1.0
290
     0
  0
SCALE
  5
57
102
{ACAD_REACTORS
330
47
102
}
330
47
100
AcDbScale
 70
     0
300
10:1
140
10.0
141
1.0
290
     0
  0
SCALE
  5
58
102
{ACAD_REACTORS
330
47
102
}
330
47
100
AcDbScale
 70
     0
300
100:1
140
100.0
141
1.0
290
     0
  0
SCALE
  5
59
102
{ACAD_REACTORS
330
47
102
}
330
47
100
AcDbScale
 70
     0
300
1/128" = 1'-0"
140
0.0078125
141
12.0
290
     0
  0
SCALE
  5
5A
102
{ACAD_REACTORS
330
47
102
}
330
47
100
AcDbScale
 70
     0
300
1/64" = 1'-0"
140
0.015625
141
12.0
290
     0
  0
SCALE
  5
5B
102
{ACAD_REACTORS
330
47
102
}
330
47
100
AcDbScale
 70
     0
300
1/32" = 1'-0"
140
0.03125
141
12.0
290
     0
  0
SCALE
  5
5C
102
{ACAD_REACTORS
330
47
102
}
330
47
100
AcDbScale
 70
     0
300
1/16" = 1'-0"
140
0.0625
141
12.0
290
     0
  0
SCALE
  5
5D
102
{ACAD_REACTORS
330
47
102
}
330
47
100
AcDbScale
 70
     0
300
3/32" = 1'-0"
140
0.09375
141
12.0
290
     0
  0
SCALE
  5
5E
102
{ACAD_REACTORS
330
47
102
}
330
47
100
AcDbScale
 70
     0
300
1/8" = 1'-0"
140
0.125
141
12.0
290
     0
  0
SCALE
  5
5F
102
{ACAD_REACTORS
330
47
102
}
330
47
100
AcDbScale
 70
     0
300
3/16" = 1'-0"
140
0.1875
141
12.0
290
     0
  0
SCALE
  5
60
102
{ACAD_REACTORS
330
47
102
}
330
47
100
AcDbScale
 70
     0
300
1/4" = 1'-0"
140
0.25
141
12.0
290
     0
  0
SCALE
  5
61
102
{ACAD_REACTORS
330
47
102
}
330
47
100
AcDbScale
 70
     0
300
3/8" = 1'-0"
140
0.375
141
12.0
290
     0
  0
SCALE
  5
62
102
{ACAD_REACTORS
330
47
102
}
330
47
100
AcDbScale
 70
     0
300
1/2" = 1'-0"
140
0.5
141
12.0
290
     0
  0
SCALE
  5
63
102
{ACAD_REACTORS
330
47
102
}
330
47
100
AcDbScale
 70
     0
300
3/4" = 1'-0"
140
0.75
141
12.0
290
     0
  0
SCALE
  5
64
102
{ACAD_REACTORS
330
47
102
}
330
47
100
AcDbScale
 70
     0
300
1" = 1'-0"
140
1.0
141
12.0
290
     0
  0
SCALE
  5
65
102
{ACAD_REACTORS
330
47
102
}
330
47
100
AcDbScale
 70
     0
300
1-1/2" = 1'-0"
140
1.5
141
12.0
290
     0
  0
SCALE
  5
66
102
{ACAD_REACTORS
330
47
102
}
330
47
100
AcDbScale
 70
     0
300
3" = 1'-0"
140
3.0
141
12.0
290
     0
  0
SCALE
  5
67
102
{ACAD_REACTORS
330
47
102
}
330
47
100
AcDbScale
 70
     0
300
6" = 1'-0"
140
6.0
141
12.0
290
     0
  0
SCALE
  5
68
102
{ACAD_REACTORS
330
47
102
}
330
47
100
AcDbScale
 70
     0
300
1'-0" = 1'-0"
140
12.0
141
12.0
290
     0
  0
TABLESTYLE
  5
6A
102
{ACAD_REACTORS
330
69
102
}
330
69
100
AcDbTableStyle
  3
Standard
 70
     0
 71
     0
 40
1.5
 41
1.5
280
     0
281
     0
  7
Standard
140
4.5
170
     2
 62
     0
 63
   257
283
     0
274
    -2
284
     1
 64
     0
275
    -2
285
     1
 65
     0
276
    -2
286
     1
 66
     0
277
    -2
287
     1
 67
     0
278
    -2
288
     1
 68
     0
279
    -2
289
     1
 69
     0
  7
Standard
140
6.0
170
     5
 62
     0
 63
   257
283
     0
274
    -2
284
     1
 64
     0
275
    -2
285
     1
 65
     0
276
    -2
286
     1
 66
     0
277
    -2
287
     1
 67
     0
278
    -2
288
     1
 68
     0
279
    -2
289
     1
 69
     0
  7
Standard
140
4.5
170
     5
 62
     0
 63
   257
283
     0
274
    -2
284
     1
 64
     0
275
    -2
285
     1
 65
     0
276
    -2
286
     1
 66
     0
277
    -2
287
     1
 67
     0
278
    -2
288
     1
 68
     0
279
    -2
289
     1
 69
     0
  0
VISUALSTYLE
  5
2F
102
{ACAD_REACTORS
330
2A
102
}
102
{ACAD_XDICTIONARY
360
3D3
102
}
330
2A
100
AcDbVisualStyle
  2
2dWireframe
 70
     4
 71
     0
 72
     2
 73
     0
 90
        0
 40
0.6
 41
30.0
 62
     5
 63
     7
 74
     1
 91
        4
 64
     7
 65
   257
 75
     1
175
     1
 42
1.0
 92
        0
 66
   257
 43
1.0
 76
     1
 77
     6
 78
     2
 67
     7
 79
     5
170
     0
171
     0
290
     0
174
     0
 93
        1
 44
0.0
173
     0
291
     0
 45
0.0
1001
ACAD
1000
AcDbSavedByObjectVersion
1070
     0
  0
VISUALSTYLE
  5
32
102
{ACAD_REACTORS
330
2A
102
}
102
{ACAD_XDICTIONARY
360
3D9
102
}
330
2A
100
AcDbVisualStyle
  2
Basic
 70
     7
 71
     1
 72
     0
 73
     1
 90
        0
 40
0.6
 41
30.0
 62
     5
 63
     7
 74
     0
 91
        4
 64
     7
 65
   257
 75
     1
175
     1
 42
1.0
 92
        8
 66
     7
 43
1.0
 76
     1
 77
     6
 78
     2
 67
     7
 79
     5
170
     0
171
     0
290
     0
174
     0
 93
        1
 44
0.0
173
     0
291
     1
 45
0.0
1001
ACAD
1000
AcDbSavedByObjectVersion
1070
     0
  0
VISUALSTYLE
  5
36
102
{ACAD_REACTORS
330
2A
102
}
102
{ACAD_XDICTIONARY
360
3E1
102
}
330
2A
100
AcDbVisualStyle
  2
Brighten
 70
    12
 71
     2
 72
     2
 73
     0
 90
        0
 40
0.6
 41
30.0
 62
     5
 63
     7
 74
     1
 91
        4
 64
     7
 65
   257
 75
     1
175
     1
 42
1.0
 92
        8
 66
     7
 43
1.0
 76
     1
 77
     6
 78
     2
 67
     7
 79
     5
170
     0
171
     0
290
     0
174
     0
 93
        1
 44
50.0
173
     0
291
     1
 45
0.0
1001
ACAD
1000
AcDbSavedByObjectVersion
1070
     0
  0
VISUALSTYLE
  5
3A
102
{ACAD_REACTORS
330
2A
102
}
102
{ACAD_XDICTIONARY
360
3E9
102
}
330
2A
100
AcDbVisualStyle
  2
ColorChange
 70
    16
 71
     2
 72
     2
 73
     3
 90
        0
 40
0.6
 41
30.0
 62
     5
 63
     8
 74
     1
 91
        4
 64
     7
 65
   257
 75
     1
175
     1
 42
1.0
 92
        8
 66
     8
 43
1.0
 76
     1
 77
     6
 78
     2
 67
     7
 79
     5
170
     0
171
     0
290
     0
174
     0
 93
        1
 44
0.0
173
     0
291
     1
 45
0.0
1001
ACAD
1000
AcDbSavedByObjectVersion
1070
     0
  0
VISUALSTYLE
  5
34
102
{ACAD_REACTORS
330
2A
102
}
102
{ACAD_XDICTIONARY
360
3DD
102
}
330
2A
100
AcDbVisualStyle
  2
Conceptual
 70
     9
 71
     3
 72
     2
 73
     0
 90
        0
 40
0.6
 41
30.0
 62
     5
 63
     7
 74
     2
 91
        2
 64
     7
 65
   257
 75
     1
175
     1
 42
179.0
 92
        8
 66
     7
 43
1.0
 76
     1
 77
     6
 78
     2
 67
     7
 79
     3
170
     0
171
     0
290
     0
174
     0
 93
        1
 44
0.0
173
     0
291
     0
 45
0.0
1001
ACAD
1000
AcDbSavedByObjectVersion
1070
     0
  0
VISUALSTYLE
  5
35
102
{ACAD_REACTORS
330
2A
102
}
102
{ACAD_XDICTIONARY
360
3DF
102
}
330
2A
100
AcDbVisualStyle
  2
Dim
 70
    11
 71
     2
 72
     2
 73
     0
 90
        0
 40
0.6
 41
30.0
 62
     5
 63
     7
 74
     1
 91
        4
 64
     7
 65
   257
 75
     1
175
     1
 42
1.0
 92
        8
 66
     7
 43
1.0
 76
     1
 77
     6
 78
     2
 67
     7
 79
     5
170
     0
171
     0
290
     0
174
     0
 93
        1
 44
-50.0
173
     0
291
     1
 45
0.0
1001
ACAD
1000
AcDbSavedByObjectVersion
1070
     0
  0
VISUALSTYLE
  5
3D
102
{ACAD_REACTORS
330
2A
102
}
102
{ACAD_XDICTIONARY
360
3EF
102
}
330
2A
100
AcDbVisualStyle
  2
EdgeColorOff
 70
    22
 71
     2
 72
     2
 73
     0
 90
        0
 40
0.6
 41
30.0
 62
     5
 63
     7
 74
     1
 91
        4
 64
     7
 65
   257
 75
     1
175
     1
 42
1.0
 92
        8
 66
     7
 43
1.0
 76
     1
 77
     6
 78
     2
 67
     7
 79
     5
170
     0
171
     0
290
     0
174
     0
 93
        1
 44
0.0
173
     0
291
     1
 45
0.0
1001
ACAD
1000
AcDbSavedByObjectVersion
1070
     0
  0
VISUALSTYLE
  5
39
102
{ACAD_REACTORS
330
2A
102
}
102
{ACAD_XDICTIONARY
360
3E7
102
}
330
2A
100
AcDbVisualStyle
  2
Facepattern
 70
    15
 71
     2
 72
     2
 73
     0
 90
        0
 40
0.6
 41
30.0
 62
     5
 63
     7
 74
     1
 91
        4
 64
     7
 65
   257
 75
     1
175
     1
 42
1.0
 92
        8
 66
     7
 43
1.0
 76
     1
 77
     6
 78
     2
 67
     7
 79
     5
170
     0
171
     0
290
     0
174
     0
 93
        1
 44
0.0
173
     0
291
     1
 45
0.0
1001
ACAD
1000
AcDbSavedByObjectVersion
1070
     0
  0
VISUALSTYLE
  5
2B
102
{ACAD_REACTORS
330
2A
102
}
102
{ACAD_XDICTIONARY
360
3CB
102
}
330
2A
100
AcDbVisualStyle
  2
Flat
 70
     0
 71
     2
 72
     1
 73
     1
 90
        2
 40
0.6
 41
30.0
 62
     5
 63
     7
 74
     0
 91
        0
 64
     7
 65
   257
 75
     1
175
     1
 42
1.0
 92
        8
 66
     7
 43
1.0
 76
     1
 77
     6
 78
     2
 67
     7
 79
     5
170
     0
171
     0
290
     0
174
     0
 93
       13
 44
0.0
173
     0
291
     1
 45
0.0
1001
ACAD
1000
AcDbSavedByObjectVersion
1070
     0
  0
VISUALSTYLE
  5
2C
102
{ACAD_REACTORS
330
2A
102
}
102
{ACAD_XDICTIONARY
360
3CD
102
}
330
2A
100
AcDbVisualStyle
  2
FlatWithEdges
 70
     1
 71
     2
 72
     1
 73
     1
 90
        2
 40
0.6
 41
30.0
 62
     5
 63
     7
 74
     1
 91
        0
 64
     7
 65
   257
 75
     1
175
     1
 42
1.0
 92
        0
 66
   257
 43
1.0
 76
     1
 77
     6
 78
     2
 67
     7
 79
     5
170
     0
171
     0
290
     0
174
     0
 93
       13
 44
0.0
173
     0
291
     1
 45
0.0
1001
ACAD
1000
AcDbSavedByObjectVersion
1070
     0
  0
VISUALSTYLE
  5
2D
102
{ACAD_REACTORS
330
2A
102
}
102
{ACAD_XDICTIONARY
360
3CF
102
}
330
2A
100
AcDbVisualStyle
  2
Gouraud
 70
     2
 71
     2
 72
     2
 73
     1
 90
        2
 40
0.6
 41
30.0
 62
     5
 63
     7
 74
     0
 91
        0
 64
     7
 65
   257
 75
     1
175
     1
 42
1.0
 92
        0
 66
     7
 43
1.0
 76
     1
 77
     6
 78
     2
 67
     7
 79
     5
170
     0
171
     0
290
     0
174
     0
 93
       13
 44
0.0
173
     0
291
     1
 45
0.0
1001
ACAD
1000
AcDbSavedByObjectVersion
1070
     0
  0
VISUALSTYLE
  5
2E
102
{ACAD_REACTORS
330
2A
102
}
102
{ACAD_XDICTIONARY
360
3D1
102
}
330
2A
100
AcDbVisualStyle
  2
GouraudWithEdges
 70
     3
 71
     2
 72
     2
 73
     1
 90
        2
 40
0.6
 41
30.0
 62
     5
 63
     7
 74
     1
 91
        0
 64
     7
 65
   257
 75
     1
175
     1
 42
1.0
 92
        0
 66
   257
 43
1.0
 76
     1
 77
     6
 78
     2
 67
     7
 79
     5
170
     0
171
     0
290
     0
174
     0
 93
       13
 44
0.0
173
     0
291
     1
 45
0.0
1001
ACAD
1000
AcDbSavedByObjectVersion
1070
     0
  0
VISUALSTYLE
  5
31
102
{ACAD_REACTORS
330
2A
102
}
102
{ACAD_XDICTIONARY
360
3D7
102
}
330
2A
100
AcDbVisualStyle
  2
Hidden
 70
     6
 71
     1
 72
     2
 73
     2
 90
        0
 40
0.6
 41
30.0
 62
     5
 63
     7
 74
     2
 91
        2
 64
     7
 65
   257
 75
     2
175
     1
 42
40.0
 92
        0
 66
   257
 43
1.0
 76
     1
 77
     6
 78
     2
 67
     7
 79
     3
170
     0
171
     0
290
     0
174
     0
 93
        1
 44
0.0
173
     0
291
     0
 45
0.0
1001
ACAD
1000
AcDbSavedByObjectVersion
1070
     0
  0
VISUALSTYLE
  5
3B
102
{ACAD_REACTORS
330
2A
102
}
102
{ACAD_XDICTIONARY
360
3EB
102
}
330
2A
100
AcDbVisualStyle
  2
JitterOff
 70
    20
 71
     2
 72
     2
 73
     0
 90
        0
 40
0.6
 41
30.0
 62
     5
 63
     7
 74
     1
 91
        4
 64
     7
 65
   257
 75
     1
175
     1
 42
1.0
 92
       10
 66
     7
 43
1.0
 76
     1
 77
     6
 78
     2
 67
     7
 79
     5
170
     0
171
     0
290
     0
174
     0
 93
        1
 44
0.0
173
     0
291
     1
 45
0.0
1001
ACAD
1000
AcDbSavedByObjectVersion
1070
     0
  0
VISUALSTYLE
  5
38
102
{ACAD_REACTORS
330
2A
102
}
102
{ACAD_XDICTIONARY
360
3E5
102
}
330
2A
100
AcDbVisualStyle
  2
Linepattern
 70
    14
 71
     2
 72
     2
 73
     0
 90
        0
 40
0.6
 41
30.0
 62
     5
 63
     7
 74
     1
 91
        4
 64
     7
 65
   257
 75
     7
175
     7
 42
1.0
 92
        8
 66
     7
 43
1.0
 76
     1
 77
     6
 78
     2
 67
     7
 79
     5
170
     0
171
     0
290
     0
174
     0
 93
        1
 44
0.0
173
     0
291
     1
 45
0.0
1001
ACAD
1000
AcDbSavedByObjectVersion
1070
     0
  0
VISUALSTYLE
  5
3C
102
{ACAD_REACTORS
330
2A
102
}
102
{ACAD_XDICTIONARY
360
3ED
102
}
330
2A
100
AcDbVisualStyle
  2
OverhangOff
 70
    21
 71
     2
 72
     2
 73
     0
 90
        0
 40
0.6
 41
30.0
 62
     5
 63
     7
 74
     1
 91
        4
 64
     7
 65
   257
 75
     1
175
     1
 42
1.0
 92
        9
 66
     7
 43
1.0
 76
     1
 77
     6
 78
     2
 67
     7
 79
     5
170
     0
171
     0
290
     0
174
     0
 93
        1
 44
0.0
173
     0
291
     1
 45
0.0
1001
ACAD
1000
AcDbSavedByObjectVersion
1070
     0
  0
VISUALSTYLE
  5
33
102
{ACAD_REACTORS
330
2A
102
}
102
{ACAD_XDICTIONARY
360
3DB
102
}
330
2A
100
AcDbVisualStyle
  2
Realistic
 70
     8
 71
     2
 72
     3
 73
     0
 90
        2
 40
0.6
 41
30.0
 62
     5
 63
     7
 74
     0
 91
        0
 64
     7
 65
   257
 75
     1
175
     1
 42
1.0
 92
        8
 66
   257
 43
1.0
 76
     1
 77
     6
 78
     2
 67
     7
 79
     3
170
     0
171
     0
290
     0
174
     0
 93
       13
 44
0.0
173
     0
291
     0
 45
0.0
1001
ACAD
1000
AcDbSavedByObjectVersion
1070
     0
  0
VISUALSTYLE
  5
42
102
{ACAD_REACTORS
330
2A
102
}
102
{ACAD_XDICTIONARY
360
3F9
102
}
330
2A
100
AcDbVisualStyle
  2
Shaded
 70
    27
 71
     2
 72
     2
 73
     1
 90
        2
 40
0.6
 41
30.0
 62
     5
 63
     7
 74
     0
 91
        4
 64
     7
 65
   257
 75
     1
175
     1
 42
1.0
 92
        8
 66
   257
 43
1.0
 76
     1
 77
     6
 78
     2
 67
     8
 79
     3
170
     0
171
     0
290
     0
174
     0
 93
        5
 44
0.0
173
     0
291
     0
 45
0.0
1001
ACAD
1000
AcDbSavedByObjectVersion
1070
     0
  0
VISUALSTYLE
  5
41
102
{ACAD_REACTORS
330
2A
102
}
102
{ACAD_XDICTIONARY
360
3F7
102
}
330
2A
100
AcDbVisualStyle
  2
Shaded with edges
 70
    26
 71
     2
 72
     2
 73
     1
 90
        2
 40
0.6
 41
30.0
 62
     5
 63
     7
 74
     1
 91
       10
 64
     7
 65
   257
 75
     2
175
     1
 42
1.0
 92
        8
 66
   257
 43
1.0
 76
     1
 77
     6
 78
     2
 67
     7
 79
     3
170
     0
171
     0
290
     0
174
     0
 93
        5
 44
0.0
173
     0
291
     0
 45
0.0
1001
ACAD
1000
AcDbSavedByObjectVersion
1070
     0
  0
VISUALSTYLE
  5
3E
102
{ACAD_REACTORS
330
2A
102
}
102
{ACAD_XDICTIONARY
360
3F1
102
}
330
2A
100
AcDbVisualStyle
  2
Shades of Gray
 70
    23
 71
     2
 72
     2
 73
     3
 90
        0
 40
0.6
 41
30.0
 62
     5
 63
     7
 74
     2
 91
        2
 64
     7
 65
     7
 75
     1
175
     1
 42
40.0
 92
        8
 66
     7
 43
1.0
 76
     1
 77
     6
 78
     2
 67
     7
 79
     3
170
     0
171
     0
290
     0
174
     0
 93
        1
 44
0.0
173
     0
291
     0
 45
0.0
1001
ACAD
1000
AcDbSavedByObjectVersion
1070
     0
  0
VISUALSTYLE
  5
3F
102
{ACAD_REACTORS
330
2A
102
}
102
{ACAD_XDICTIONARY
360
3F3
102
}
330
2A
100
AcDbVisualStyle
  2
Sketchy
 70
    24
 71
     1
 72
     2
 73
     2
 90
        0
 40
0.6
 41
30.0
 62
     5
 63
     7
 74
     2
 91
        2
 64
     7
 65
     7
 75
     1
175
     1
 42
40.0
 92
       11
 66
     7
 43
1.0
 76
     1
 77
     6
 78
     2
 67
     7
 79
     6
170
     0
171
     0
290
     0
174
     0
 93
        1
 44
0.0
173
     0
291
     0
 45
0.0
1001
ACAD
1000
AcDbSavedByObjectVersion
1070
     0
  0
VISUALSTYLE
  5
37
102
{ACAD_REACTORS
330
2A
102
}
102
{ACAD_XDICTIONARY
360
3E3
102
}
330
2A
100
AcDbVisualStyle
  2
Thicken
 70
    13
 71
     2
 72
     2
 73
     0
 90
        0
 40
0.6
 41
30.0
 62
     5
 63
     7
 74
     1
 91
        4
 64
     7
 65
   257
 75
     1
175
     1
 42
1.0
 92
       12
 66
     7
 43
1.0
 76
     1
 77
     6
 78
     2
 67
     7
 79
     5
170
     0
171
     0
290
     0
174
     0
 93
        1
 44
0.0
173
     0
291
     1
 45
0.0
1001
ACAD
1000
AcDbSavedByObjectVersion
1070
     0
  0
VISUALSTYLE
  5
30
102
{ACAD_REACTORS
330
2A
102
}
102
{ACAD_XDICTIONARY
360
3D5
102
}
330
2A
100
AcDbVisualStyle
  2
Wireframe
 70
     5
 71
     0
 72
     2
 73
     0
 90
        0
 40
0.6
 41
30.0
 62
     5
 63
     7
 74
     1
 91
        4
 64
     7
 65
   257
 75
     1
175
     1
 42
1.0
 92
        0
 66
   257
 43
1.0
 76
     1
 77
     6
 78
     2
 67
     7
 79
     3
170
     0
171
     0
290
     0
174
     0
 93
        1
 44
0.0
173
     0
291
     0
 45
0.0
1001
ACAD
1000
AcDbSavedByObjectVersion
1070
     0
  0
VISUALSTYLE
  5
40
102
{ACAD_REACTORS
330
2A
102
}
102
{ACAD_XDICTIONARY
360
3F5
102
}
330
2A
100
AcDbVisualStyle
  2
X-Ray
 70
    25
 71
     2
 72
     2
 73
     1
 90
        1
 40
0.5
 41
30.0
 62
     5
 63
     7
 74
     1
 91
        0
 64
     7
 65
   257
 75
     1
175
     1
 42
1.0
 92
        8
 66
     7
 43
1.0
 76
     1
 77
     6
 78
     2
 67
     7
 79
     3
170
     0
171
     0
290
     0
174
     0
 93
       13
 44
0.0
173
     0
291
     0
 45
0.0
1001
ACAD
1000
AcDbSavedByObjectVersion
1070
     0
  0
DICTIONARYVAR
  5
3C9
102
{ACAD_REACTORS
330
3BD
102
}
330
3BD
100
DictionaryVariables
280
     0
  1
1:1
  0
DICTIONARYVAR
  5
3BF
102
{ACAD_REACTORS
330
3BD
102
}
330
3BD
100
DictionaryVariables
280
     0
  1
Standard
  0
DICTIONARYVAR
  5
3BE
102
{ACAD_REACTORS
330
3BD
102
}
330
3BD
100
DictionaryVariables
280
     0
  1
Standard
  0
DICTIONARYVAR
  5
3C5
102
{ACAD_REACTORS
330
3BD
102
}
330
3BD
100
DictionaryVariables
280
     0
  1
2
  0
DICTIONARYVAR
  5
3C6
102
{ACAD_REACTORS
330
3BD
102
}
330
3BD
100
DictionaryVariables
280
     0
  1
1
  0
DICTIONARYVAR
  5
3CA
102
{ACAD_REACTORS
330
3BD
102
}
330
3BD
100
DictionaryVariables
280
     0
  1
1
  0
DICTIONARYVAR
  5
3C1
102
{ACAD_REACTORS
330
3BD
102
}
330
3BD
100
DictionaryVariables
280
     0
  1
80.000000
  0
DICTIONARYVAR
  5
3C0
102
{ACAD_REACTORS
330
3BD
102
}
330
3BD
100
DictionaryVariables
280
     0
  1
5.000000
  0
DICTIONARYVAR
  5
3C4
102
{ACAD_REACTORS
330
3BD
102
}
330
3BD
100
DictionaryVariables
280
     0
  1
6.000000
  0
DICTIONARY
  5
3FD
330
45
100
AcDbDictionary
280
     1
281
     1
  3
ACAD_XREC_ROUNDTRIP
360
3FE
  0
DICTIONARY
  5
3FB
330
44
100
AcDbDictionary
280
     1
281
     1
  3
ACAD_XREC_ROUNDTRIP
360
3FC
  0
DICTIONARY
  5
3FF
330
46
100
AcDbDictionary
280
     1
281
     1
  3
ACAD_XREC_ROUNDTRIP
360
400
  0
DICTIONARY
  5
402
330
6C
100
AcDbDictionary
280
     1
281
     1
  3
ACAD_XREC_ROUNDTRIP
360
403
  0
DICTIONARY
  5
3D3
330
2F
100
AcDbDictionary
280
     1
281
     1
  3
ACAD_XREC_ROUNDTRIP
360
3D4
  0
DICTIONARY
  5
3D9
330
32
100
AcDbDictionary
280
     1
281
     1
  3
ACAD_XREC_ROUNDTRIP
360
3DA
  0
DICTIONARY
  5
3E1
330
36
100
AcDbDictionary
280
     1
281
     1
  3
ACAD_XREC_ROUNDTRIP
360
3E2
  0
DICTIONARY
  5
3E9
330
3A
100
AcDbDictionary
280
     1
281
     1
  3
ACAD_XREC_ROUNDTRIP
360
3EA
  0
DICTIONARY
  5
3DD
330
34
100
AcDbDictionary
280
     1
281
     1
  3
ACAD_XREC_ROUNDTRIP
360
3DE
  0
DICTIONARY
  5
3DF
330
35
100
AcDbDictionary
280
     1
281
     1
  3
ACAD_XREC_ROUNDTRIP
360
3E0
  0
DICTIONARY
  5
3EF
330
3D
100
AcDbDictionary
280
     1
281
     1
  3
ACAD_XREC_ROUNDTRIP
360
3F0
  0
DICTIONARY
  5
3E7
330
39
100
AcDbDictionary
280
     1
281
     1
  3
ACAD_XREC_ROUNDTRIP
360
3E8
  0
DICTIONARY
  5
3CB
330
2B
100
AcDbDictionary
280
     1
281
     1
  3
ACAD_XREC_ROUNDTRIP
360
3CC
  0
DICTIONARY
  5
3CD
330
2C
100
AcDbDictionary
280
     1
281
     1
  3
ACAD_XREC_ROUNDTRIP
360
3CE
  0
DICTIONARY
  5
3CF
330
2D
100
AcDbDictionary
280
     1
281
     1
  3
ACAD_XREC_ROUNDTRIP
360
3D0
  0
DICTIONARY
  5
3D1
330
2E
100
AcDbDictionary
280
     1
281
     1
  3
ACAD_XREC_ROUNDTRIP
360
3D2
  0
DICTIONARY
  5
3D7
330
31
100
AcDbDictionary
280
     1
281
     1
  3
ACAD_XREC_ROUNDTRIP
360
3D8
  0
DICTIONARY
  5
3EB
330
3B
100
AcDbDictionary
280
     1
281
     1
  3
ACAD_XREC_ROUNDTRIP
360
3EC
  0
DICTIONARY
  5
3E5
330
38
100
AcDbDictionary
280
     1
281
     1
  3
ACAD_XREC_ROUNDTRIP
360
3E6
  0
DICTIONARY
  5
3ED
330
3C
100
AcDbDictionary
280
     1
281
     1
  3
ACAD_XREC_ROUNDTRIP
360
3EE
  0
DICTIONARY
  5
3DB
330
33
100
AcDbDictionary
280
     1
281
     1
  3
ACAD_XREC_ROUNDTRIP
360
3DC
  0
DICTIONARY
  5
3F9
330
42
100
AcDbDictionary
280
     1
281
     1
  3
ACAD_XREC_ROUNDTRIP
360
3FA
  0
DICTIONARY
  5
3F7
330
41
100
AcDbDictionary
280
     1
281
     1
  3
ACAD_XREC_ROUNDTRIP
360
3F8
  0
DICTIONARY
  5
3F1
330
3E
100
AcDbDictionary
280
     1
281
     1
  3
ACAD_XREC_ROUNDTRIP
360
3F2
  0
DICTIONARY
  5
3F3
330
3F
100
AcDbDictionary
280
     1
281
     1
  3
ACAD_XREC_ROUNDTRIP
360
3F4
  0
DICTIONARY
  5
3E3
330
37
100
AcDbDictionary
280
     1
281
     1
  3
ACAD_XREC_ROUNDTRIP
360
3E4
  0
DICTIONARY
  5
3D5
330
30
100
AcDbDictionary
280
     1
281
     1
  3
ACAD_XREC_ROUNDTRIP
360
3D6
  0
DICTIONARY
  5
3F5
330
40
100
AcDbDictionary
280
     1
281
     1
  3
ACAD_XREC_ROUNDTRIP
360
3F6
  0
XRECORD
  5
3FE
102
{ACAD_REACTORS
330
3FD
102
}
330
3FD
100
AcDbXrecord
280
     1
102
MATERIAL
148
0.0
149
0.0
149
0.0
 93
        0
 94
      127
282
     0
 72
     1
 77
     1
171
     1
175
     1
179
     1
273
     0
  0
XRECORD
  5
3FC
102
{ACAD_REACTORS
330
3FB
102
}
330
3FB
100
AcDbXrecord
280
     1
102
MATERIAL
148
0.0
149
0.0
149
0.0
 93
        0
 94
      127
282
     0
 72
     1
 77
     1
171
     1
175
     1
179
     1
273
     0
  0
XRECORD
  5
400
102
{ACAD_REACTORS
330
3FF
102
}
330
3FF
100
AcDbXrecord
280
     1
102
MATERIAL
148
0.0
149
0.0
149
0.0
 93
        0
 94
      127
282
     0
 72
     1
 77
     1
171
     1
175
     1
179
     1
273
     0
  0
XRECORD
  5
403
102
{ACAD_REACTORS
330
402
102
}
330
402
100
AcDbXrecord
280
     1
102
ACAD_ROUNDTRIP_2010_MLEADER_STYLE
  0
XRECORD
  5
3D4
102
{ACAD_REACTORS
330
3D3
102
}
330
3D3
100
AcDbXrecord
280
     1
102
RTVSPropertyOp0
 70
     1
102
RTVSPropertyOp1
 70
     1
102
RTVSPropertyOp2
 70
     1
102
RTVSPropertyOp3
 70
     1
102
RTVSPropertyOp4
 70
     1
102
RTVSPropertyOp5
 70
     1
102
RTVSPropertyOp6
 70
     1
102
RTVSPropertyOp7
 70
     1
102
RTVSPropertyOp8
 70
     1
102
RTVSPropertyOp9
 70
     1
102
RTVSPropertyOp10
 70
     1
102
RTVSPropertyOp11
 70
     1
102
RTVSPropertyOp12
 70
     1
102
RTVSPropertyOp13
 70
     1
102
RTVSPropertyOp14
 70
     1
102
RTVSPropertyOp15
 70
     1
102
RTVSPropertyOp16
 70
     1
102
RTVSPropertyOp17
 70
     1
102
RTVSPropertyOp18
 70
     1
102
RTVSPropertyOp19
 70
     1
102
RTVSPropertyOp20
 70
     1
102
RTVSPropertyOp21
 70
     1
102
RTVSPropertyOp22
 70
     1
102
RTVSPropertyOp23
 70
     1
102
RTVSPropertyOp24
 70
     1
102
RTVSPropertyOp25
 70
     1
102
RTVSPropertyOp26
 70
     1
102
RTVSPropertyOp27
 70
     1
102
RTVSPropertyOp28
 70
     1
102
RTVSPropertyOp29
 70
     1
102
RTVSPropertyOp30
 70
     1
102
RTVSPropertyOp31
 70
     1
102
RTVSPropertyOp32
 70
     1
102
RTVSPropertyOp33
 70
     1
102
RTVSPropertyOp34
 70
     1
102
RTVSPropertyOp35
 70
     1
102
RTVSPropertyOp36
 70
     1
102
RTVSPropertyOp37
 70
     1
102
RTVSPropertyOp38
 70
     1
102
RTVSPropertyOp39
 70
     1
102
RTVSPropertyOp40
 70
     1
102
RTVSPropertyOp41
 70
     1
102
RTVSPropertyOp42
 70
     1
102
RTVSPropertyOp43
 70
     1
102
RTVSPropertyOp44
 70
     1
102
RTVSPropertyOp45
 70
     1
102
RTVSPropertyOp46
 70
     1
102
RTVSPropertyOp47
 70
     1
102
RTVSPropertyOp48
 70
     1
102
RTVSPropertyOp49
 70
     1
102
RTVSPropertyOp50
 70
     1
102
RTVSPropertyOp51
 70
     0
102
RTVSPropertyOp52
 70
     0
102
RTVSPropertyOp53
 70
     1
102
RTVSPropertyOp54
 70
     1
102
RTVSPropertyOp55
 70
     1
102
RTVSPropertyOp56
 70
     1
102
RTVSPropertyOp57
 70
     1
102
RTVSPost2010Prop28
280
     1
102
RTVSPost2010PropOp28
 70
     1
102
RTVSPost2010Prop29
280
     1
102
RTVSPost2010PropOp29
 70
     1
102
RTVSPost2010Prop30
280
     0
102
RTVSPost2010PropOp30
 70
     1
102
RTVSPost2010Prop31
280
     0
102
RTVSPost2010PropOp31
 70
     1
102
RTVSPost2010Prop32
280
     0
102
RTVSPost2010PropOp32
 70
     1
102
RTVSPost2010Prop33
280
     0
102
RTVSPost2010PropOp33
 70
     1
102
RTVSPost2010Prop34
280
     0
102
RTVSPost2010PropOp34
 70
     1
102
RTVSPost2010Prop35
280
     0
102
RTVSPost2010PropOp35
 70
     1
102
RTVSPost2010Prop36
280
     0
102
RTVSPost2010PropOp36
 70
     1
102
RTVSPost2010Prop37
 90
       50
102
RTVSPost2010PropOp37
 70
     1
102
RTVSPost2010Prop38
140
0.0
102
RTVSPost2010PropOp38
 70
     1
102
RTVSPost2010Prop39
140
1.0
102
RTVSPost2010PropOp39
 70
     1
102
RTVSPost2010Prop40
 90
        0
102
RTVSPost2010PropOp40
 70
     1
102
RTVSPost2010Prop41ColorIndex
 90
       18
102
RTVSPost2010Prop41ColorRGB
 90
        0
102
RTVSPost2010PropOp41
 70
     1
102
RTVSPost2010Prop42
 90
       50
102
RTVSPost2010PropOp42
 70
     1
102
RTVSPost2010Prop43
 90
        3
102
RTVSPost2010PropOp43
 70
     1
102
RTVSPost2010Prop44ColorIndex
 90
        5
102
RTVSPost2010Prop44ColorRGB
 90
      255
102
RTVSPost2010PropOp44
 70
     1
102
RTVSPost2010Prop45
280
     0
102
RTVSPost2010PropOp45
 70
     1
102
RTVSPost2010Prop46
 90
       50
102
RTVSPost2010PropOp46
 70
     1
102
RTVSPost2010Prop47
 90
       50
102
RTVSPost2010PropOp47
 70
     1
102
RTVSPost2010Prop48
 90
       50
102
RTVSPost2010PropOp48
 70
     1
102
RTVSPost2010Prop49
280
     0
102
RTVSPost2010PropOp49
 70
     1
102
RTVSPost2010Prop50
 90
       50
102
RTVSPost2010PropOp50
 70
     1
102
RTVSPost2010Prop51ColorIndex
 90
      256
102
RTVSPost2010Prop51ColorRGB
 90
-16777216
102
RTVSPost2010PropOp51
 70
     0
102
RTVSPost2010Prop52
140
1.0
102
RTVSPost2010PropOp52
 70
     0
102
RTVSPost2010Prop53
 90
        2
102
RTVSPost2010PropOp53
 70
     1
102
RTVSPost2010Prop54
  1
strokes_ogs.tif
102
RTVSPost2010PropOp54
 70
     1
102
RTVSPost2010Prop55
280
     0
102
RTVSPost2010PropOp55
 70
     1
102
RTVSPost2010Prop56
140
1.0
102
RTVSPost2010PropOp56
 70
     1
102
RTVSPost2010Prop57
140
1.0
102
RTVSPost2010PropOp57
 70
     1
  0
XRECORD
  5
3DA
102
{ACAD_REACTORS
330
3D9
102
}
330
3D9
100
AcDbXrecord
280
     1
102
RTVSPropertyOp0
 70
     1
102
RTVSPropertyOp1
 70
     1
102
RTVSPropertyOp2
 70
     1
102
RTVSPropertyOp3
 70
     1
102
RTVSPropertyOp4
 70
     1
102
RTVSPropertyOp5
 70
     1
102
RTVSPropertyOp6
 70
     1
102
RTVSPropertyOp7
 70
     1
102
RTVSPropertyOp8
 70
     1
102
RTVSPropertyOp9
 70
     1
102
RTVSPropertyOp10
 70
     1
102
RTVSPropertyOp11
 70
     1
102
RTVSPropertyOp12
 70
     1
102
RTVSPropertyOp13
 70
     1
102
RTVSPropertyOp14
 70
     1
102
RTVSPropertyOp15
 70
     1
102
RTVSPropertyOp16
 70
     1
102
RTVSPropertyOp17
 70
     1
102
RTVSPropertyOp18
 70
     1
102
RTVSPropertyOp19
 70
     1
102
RTVSPropertyOp20
 70
     1
102
RTVSPropertyOp21
 70
     1
102
RTVSPropertyOp22
 70
     1
102
RTVSPropertyOp23
 70
     1
102
RTVSPropertyOp24
 70
     1
102
RTVSPropertyOp25
 70
     1
102
RTVSPropertyOp26
 70
     1
102
RTVSPropertyOp27
 70
     1
102
RTVSPropertyOp28
 70
     1
102
RTVSPropertyOp29
 70
     1
102
RTVSPropertyOp30
 70
     1
102
RTVSPropertyOp31
 70
     1
102
RTVSPropertyOp32
 70
     1
102
RTVSPropertyOp33
 70
     1
102
RTVSPropertyOp34
 70
     1
102
RTVSPropertyOp35
 70
     1
102
RTVSPropertyOp36
 70
     1
102
RTVSPropertyOp37
 70
     1
102
RTVSPropertyOp38
 70
     1
102
RTVSPropertyOp39
 70
     1
102
RTVSPropertyOp40
 70
     1
102
RTVSPropertyOp41
 70
     1
102
RTVSPropertyOp42
 70
     1
102
RTVSPropertyOp43
 70
     1
102
RTVSPropertyOp44
 70
     1
102
RTVSPropertyOp45
 70
     1
102
RTVSPropertyOp46
 70
     1
102
RTVSPropertyOp47
 70
     1
102
RTVSPropertyOp48
 70
     1
102
RTVSPropertyOp49
 70
     1
102
RTVSPropertyOp50
 70
     1
102
RTVSPropertyOp51
 70
     0
102
RTVSPropertyOp52
 70
     0
102
RTVSPropertyOp53
 70
     1
102
RTVSPropertyOp54
 70
     1
102
RTVSPropertyOp55
 70
     1
102
RTVSPropertyOp56
 70
     1
102
RTVSPropertyOp57
 70
     1
102
RTVSPost2010Prop28
280
     0
102
RTVSPost2010PropOp28
 70
     1
102
RTVSPost2010Prop29
280
     1
102
RTVSPost2010PropOp29
 70
     1
102
RTVSPost2010Prop30
280
     1
102
RTVSPost2010PropOp30
 70
     1
102
RTVSPost2010Prop31
280
     0
102
RTVSPost2010PropOp31
 70
     1
102
RTVSPost2010Prop32
280
     0
102
RTVSPost2010PropOp32
 70
     1
102
RTVSPost2010Prop33
280
     0
102
RTVSPost2010PropOp33
 70
     1
102
RTVSPost2010Prop34
280
     0
102
RTVSPost2010PropOp34
 70
     1
102
RTVSPost2010Prop35
280
     0
102
RTVSPost2010PropOp35
 70
     1
102
RTVSPost2010Prop36
280
     0
102
RTVSPost2010PropOp36
 70
     1
102
RTVSPost2010Prop37
 90
       50
102
RTVSPost2010PropOp37
 70
     1
102
RTVSPost2010Prop38
140
0.0
102
RTVSPost2010PropOp38
 70
     1
102
RTVSPost2010Prop39
140
1.0
102
RTVSPost2010PropOp39
 70
     1
102
RTVSPost2010Prop40
 90
        0
102
RTVSPost2010PropOp40
 70
     1
102
RTVSPost2010Prop41ColorIndex
 90
       18
102
RTVSPost2010Prop41ColorRGB
 90
        0
102
RTVSPost2010PropOp41
 70
     1
102
RTVSPost2010Prop42
 90
       50
102
RTVSPost2010PropOp42
 70
     1
102
RTVSPost2010Prop43
 90
        3
102
RTVSPost2010PropOp43
 70
     1
102
RTVSPost2010Prop44ColorIndex
 90
        5
102
RTVSPost2010Prop44ColorRGB
 90
      255
102
RTVSPost2010PropOp44
 70
     1
102
RTVSPost2010Prop45
280
     0
102
RTVSPost2010PropOp45
 70
     1
102
RTVSPost2010Prop46
 90
       50
102
RTVSPost2010PropOp46
 70
     1
102
RTVSPost2010Prop47
 90
       50
102
RTVSPost2010PropOp47
 70
     1
102
RTVSPost2010Prop48
 90
       50
102
RTVSPost2010PropOp48
 70
     1
102
RTVSPost2010Prop49
280
     0
102
RTVSPost2010PropOp49
 70
     1
102
RTVSPost2010Prop50
 90
       50
102
RTVSPost2010PropOp50
 70
     1
102
RTVSPost2010Prop51ColorIndex
 90
      256
102
RTVSPost2010Prop51ColorRGB
 90
-16777216
102
RTVSPost2010PropOp51
 70
     0
102
RTVSPost2010Prop52
140
1.0
102
RTVSPost2010PropOp52
 70
     0
102
RTVSPost2010Prop53
 90
        2
102
RTVSPost2010PropOp53
 70
     1
102
RTVSPost2010Prop54
  1
strokes_ogs.tif
102
RTVSPost2010PropOp54
 70
     1
102
RTVSPost2010Prop55
280
     0
102
RTVSPost2010PropOp55
 70
     1
102
RTVSPost2010Prop56
140
1.0
102
RTVSPost2010PropOp56
 70
     1
102
RTVSPost2010Prop57
140
1.0
102
RTVSPost2010PropOp57
 70
     1
  0
XRECORD
  5
3E2
102
{ACAD_REACTORS
330
3E1
102
}
330
3E1
100
AcDbXrecord
280
     1
102
RTVSPropertyOp0
 70
     1
102
RTVSPropertyOp1
 70
     1
102
RTVSPropertyOp2
 70
     1
102
RTVSPropertyOp3
 70
     1
102
RTVSPropertyOp4
 70
     1
102
RTVSPropertyOp5
 70
     1
102
RTVSPropertyOp6
 70
     1
102
RTVSPropertyOp7
 70
     1
102
RTVSPropertyOp8
 70
     1
102
RTVSPropertyOp9
 70
     1
102
RTVSPropertyOp10
 70
     1
102
RTVSPropertyOp11
 70
     1
102
RTVSPropertyOp12
 70
     1
102
RTVSPropertyOp13
 70
     1
102
RTVSPropertyOp14
 70
     1
102
RTVSPropertyOp15
 70
     1
102
RTVSPropertyOp16
 70
     1
102
RTVSPropertyOp17
 70
     1
102
RTVSPropertyOp18
 70
     1
102
RTVSPropertyOp19
 70
     1
102
RTVSPropertyOp20
 70
     1
102
RTVSPropertyOp21
 70
     1
102
RTVSPropertyOp22
 70
     1
102
RTVSPropertyOp23
 70
     1
102
RTVSPropertyOp24
 70
     1
102
RTVSPropertyOp25
 70
     1
102
RTVSPropertyOp26
 70
     1
102
RTVSPropertyOp27
 70
     1
102
RTVSPropertyOp28
 70
     1
102
RTVSPropertyOp29
 70
     1
102
RTVSPropertyOp30
 70
     1
102
RTVSPropertyOp31
 70
     1
102
RTVSPropertyOp32
 70
     1
102
RTVSPropertyOp33
 70
     1
102
RTVSPropertyOp34
 70
     1
102
RTVSPropertyOp35
 70
     1
102
RTVSPropertyOp36
 70
     1
102
RTVSPropertyOp37
 70
     1
102
RTVSPropertyOp38
 70
     1
102
RTVSPropertyOp39
 70
     1
102
RTVSPropertyOp40
 70
     1
102
RTVSPropertyOp41
 70
     1
102
RTVSPropertyOp42
 70
     1
102
RTVSPropertyOp43
 70
     1
102
RTVSPropertyOp44
 70
     1
102
RTVSPropertyOp45
 70
     1
102
RTVSPropertyOp46
 70
     1
102
RTVSPropertyOp47
 70
     1
102
RTVSPropertyOp48
 70
     1
102
RTVSPropertyOp49
 70
     1
102
RTVSPropertyOp50
 70
     1
102
RTVSPropertyOp51
 70
     0
102
RTVSPropertyOp52
 70
     0
102
RTVSPropertyOp53
 70
     1
102
RTVSPropertyOp54
 70
     1
102
RTVSPropertyOp55
 70
     1
102
RTVSPropertyOp56
 70
     1
102
RTVSPropertyOp57
 70
     1
102
RTVSPost2010Prop28
280
     0
102
RTVSPost2010PropOp28
 70
     1
102
RTVSPost2010Prop29
280
     1
102
RTVSPost2010PropOp29
 70
     1
102
RTVSPost2010Prop30
280
     1
102
RTVSPost2010PropOp30
 70
     1
102
RTVSPost2010Prop31
280
     0
102
RTVSPost2010PropOp31
 70
     1
102
RTVSPost2010Prop32
280
     0
102
RTVSPost2010PropOp32
 70
     1
102
RTVSPost2010Prop33
280
     0
102
RTVSPost2010PropOp33
 70
     1
102
RTVSPost2010Prop34
280
     0
102
RTVSPost2010PropOp34
 70
     1
102
RTVSPost2010Prop35
280
     0
102
RTVSPost2010PropOp35
 70
     1
102
RTVSPost2010Prop36
280
     0
102
RTVSPost2010PropOp36
 70
     1
102
RTVSPost2010Prop37
 90
       50
102
RTVSPost2010PropOp37
 70
     1
102
RTVSPost2010Prop38
140
0.0
102
RTVSPost2010PropOp38
 70
     1
102
RTVSPost2010Prop39
140
1.0
102
RTVSPost2010PropOp39
 70
     1
102
RTVSPost2010Prop40
 90
        0
102
RTVSPost2010PropOp40
 70
     1
102
RTVSPost2010Prop41ColorIndex
 90
       18
102
RTVSPost2010Prop41ColorRGB
 90
        0
102
RTVSPost2010PropOp41
 70
     1
102
RTVSPost2010Prop42
 90
       50
102
RTVSPost2010PropOp42
 70
     1
102
RTVSPost2010Prop43
 90
        3
102
RTVSPost2010PropOp43
 70
     1
102
RTVSPost2010Prop44ColorIndex
 90
        5
102
RTVSPost2010Prop44ColorRGB
 90
      255
102
RTVSPost2010PropOp44
 70
     1
102
RTVSPost2010Prop45
280
     0
102
RTVSPost2010PropOp45
 70
     1
102
RTVSPost2010Prop46
 90
       50
102
RTVSPost2010PropOp46
 70
     1
102
RTVSPost2010Prop47
 90
       50
102
RTVSPost2010PropOp47
 70
     1
102
RTVSPost2010Prop48
 90
       50
102
RTVSPost2010PropOp48
 70
     1
102
RTVSPost2010Prop49
280
     0
102
RTVSPost2010PropOp49
 70
     1
102
RTVSPost2010Prop50
 90
       50
102
RTVSPost2010PropOp50
 70
     1
102
RTVSPost2010Prop51ColorIndex
 90
      256
102
RTVSPost2010Prop51ColorRGB
 90
-16777216
102
RTVSPost2010PropOp51
 70
     0
102
RTVSPost2010Prop52
140
1.0
102
RTVSPost2010PropOp52
 70
     0
102
RTVSPost2010Prop53
 90
        2
102
RTVSPost2010PropOp53
 70
     1
102
RTVSPost2010Prop54
  1
strokes_ogs.tif
102
RTVSPost2010PropOp54
 70
     1
102
RTVSPost2010Prop55
280
     0
102
RTVSPost2010PropOp55
 70
     1
102
RTVSPost2010Prop56
140
1.0
102
RTVSPost2010PropOp56
 70
     1
102
RTVSPost2010Prop57
140
1.0
102
RTVSPost2010PropOp57
 70
     1
  0
XRECORD
  5
3EA
102
{ACAD_REACTORS
330
3E9
102
}
330
3E9
100
AcDbXrecord
280
     1
102
RTVSPropertyOp0
 70
     1
102
RTVSPropertyOp1
 70
     1
102
RTVSPropertyOp2
 70
     1
102
RTVSPropertyOp3
 70
     1
102
RTVSPropertyOp4
 70
     1
102
RTVSPropertyOp5
 70
     1
102
RTVSPropertyOp6
 70
     1
102
RTVSPropertyOp7
 70
     1
102
RTVSPropertyOp8
 70
     1
102
RTVSPropertyOp9
 70
     1
102
RTVSPropertyOp10
 70
     1
102
RTVSPropertyOp11
 70
     1
102
RTVSPropertyOp12
 70
     1
102
RTVSPropertyOp13
 70
     1
102
RTVSPropertyOp14
 70
     1
102
RTVSPropertyOp15
 70
     1
102
RTVSPropertyOp16
 70
     1
102
RTVSPropertyOp17
 70
     1
102
RTVSPropertyOp18
 70
     1
102
RTVSPropertyOp19
 70
     1
102
RTVSPropertyOp20
 70
     1
102
RTVSPropertyOp21
 70
     1
102
RTVSPropertyOp22
 70
     1
102
RTVSPropertyOp23
 70
     1
102
RTVSPropertyOp24
 70
     1
102
RTVSPropertyOp25
 70
     1
102
RTVSPropertyOp26
 70
     1
102
RTVSPropertyOp27
 70
     1
102
RTVSPropertyOp28
 70
     1
102
RTVSPropertyOp29
 70
     1
102
RTVSPropertyOp30
 70
     1
102
RTVSPropertyOp31
 70
     1
102
RTVSPropertyOp32
 70
     1
102
RTVSPropertyOp33
 70
     1
102
RTVSPropertyOp34
 70
     1
102
RTVSPropertyOp35
 70
     1
102
RTVSPropertyOp36
 70
     1
102
RTVSPropertyOp37
 70
     1
102
RTVSPropertyOp38
 70
     1
102
RTVSPropertyOp39
 70
     1
102
RTVSPropertyOp40
 70
     1
102
RTVSPropertyOp41
 70
     1
102
RTVSPropertyOp42
 70
     1
102
RTVSPropertyOp43
 70
     1
102
RTVSPropertyOp44
 70
     1
102
RTVSPropertyOp45
 70
     1
102
RTVSPropertyOp46
 70
     1
102
RTVSPropertyOp47
 70
     1
102
RTVSPropertyOp48
 70
     1
102
RTVSPropertyOp49
 70
     1
102
RTVSPropertyOp50
 70
     1
102
RTVSPropertyOp51
 70
     0
102
RTVSPropertyOp52
 70
     0
102
RTVSPropertyOp53
 70
     1
102
RTVSPropertyOp54
 70
     1
102
RTVSPropertyOp55
 70
     1
102
RTVSPropertyOp56
 70
     1
102
RTVSPropertyOp57
 70
     1
102
RTVSPost2010Prop28
280
     0
102
RTVSPost2010PropOp28
 70
     1
102
RTVSPost2010Prop29
280
     1
102
RTVSPost2010PropOp29
 70
     1
102
RTVSPost2010Prop30
280
     1
102
RTVSPost2010PropOp30
 70
     1
102
RTVSPost2010Prop31
280
     0
102
RTVSPost2010PropOp31
 70
     1
102
RTVSPost2010Prop32
280
     0
102
RTVSPost2010PropOp32
 70
     1
102
RTVSPost2010Prop33
280
     0
102
RTVSPost2010PropOp33
 70
     1
102
RTVSPost2010Prop34
280
     0
102
RTVSPost2010PropOp34
 70
     1
102
RTVSPost2010Prop35
280
     0
102
RTVSPost2010PropOp35
 70
     1
102
RTVSPost2010Prop36
280
     0
102
RTVSPost2010PropOp36
 70
     1
102
RTVSPost2010Prop37
 90
       50
102
RTVSPost2010PropOp37
 70
     1
102
RTVSPost2010Prop38
140
0.0
102
RTVSPost2010PropOp38
 70
     1
102
RTVSPost2010Prop39
140
1.0
102
RTVSPost2010PropOp39
 70
     1
102
RTVSPost2010Prop40
 90
        0
102
RTVSPost2010PropOp40
 70
     1
102
RTVSPost2010Prop41ColorIndex
 90
       18
102
RTVSPost2010Prop41ColorRGB
 90
        0
102
RTVSPost2010PropOp41
 70
     1
102
RTVSPost2010Prop42
 90
       50
102
RTVSPost2010PropOp42
 70
     1
102
RTVSPost2010Prop43
 90
        3
102
RTVSPost2010PropOp43
 70
     1
102
RTVSPost2010Prop44ColorIndex
 90
        5
102
RTVSPost2010Prop44ColorRGB
 90
      255
102
RTVSPost2010PropOp44
 70
     1
102
RTVSPost2010Prop45
280
     0
102
RTVSPost2010PropOp45
 70
     1
102
RTVSPost2010Prop46
 90
       50
102
RTVSPost2010PropOp46
 70
     1
102
RTVSPost2010Prop47
 90
       50
102
RTVSPost2010PropOp47
 70
     1
102
RTVSPost2010Prop48
 90
       50
102
RTVSPost2010PropOp48
 70
     1
102
RTVSPost2010Prop49
280
     0
102
RTVSPost2010PropOp49
 70
     1
102
RTVSPost2010Prop50
 90
       50
102
RTVSPost2010PropOp50
 70
     1
102
RTVSPost2010Prop51ColorIndex
 90
      256
102
RTVSPost2010Prop51ColorRGB
 90
-16777216
102
RTVSPost2010PropOp51
 70
     0
102
RTVSPost2010Prop52
140
1.0
102
RTVSPost2010PropOp52
 70
     0
102
RTVSPost2010Prop53
 90
        2
102
RTVSPost2010PropOp53
 70
     1
102
RTVSPost2010Prop54
  1
strokes_ogs.tif
102
RTVSPost2010PropOp54
 70
     1
102
RTVSPost2010Prop55
280
     0
102
RTVSPost2010PropOp55
 70
     1
102
RTVSPost2010Prop56
140
1.0
102
RTVSPost2010PropOp56
 70
     1
102
RTVSPost2010Prop57
140
1.0
102
RTVSPost2010PropOp57
 70
     1
  0
XRECORD
  5
3DE
102
{ACAD_REACTORS
330
3DD
102
}
330
3DD
100
AcDbXrecord
280
     1
102
RTVSPropertyOp0
 70
     1
102
RTVSPropertyOp1
 70
     1
102
RTVSPropertyOp2
 70
     1
102
RTVSPropertyOp3
 70
     1
102
RTVSPropertyOp4
 70
     1
102
RTVSPropertyOp5
 70
     1
102
RTVSPropertyOp6
 70
     1
102
RTVSPropertyOp7
 70
     1
102
RTVSPropertyOp8
 70
     1
102
RTVSPropertyOp9
 70
     1
102
RTVSPropertyOp10
 70
     1
102
RTVSPropertyOp11
 70
     1
102
RTVSPropertyOp12
 70
     1
102
RTVSPropertyOp13
 70
     1
102
RTVSPropertyOp14
 70
     1
102
RTVSPropertyOp15
 70
     1
102
RTVSPropertyOp16
 70
     1
102
RTVSPropertyOp17
 70
     1
102
RTVSPropertyOp18
 70
     1
102
RTVSPropertyOp19
 70
     1
102
RTVSPropertyOp20
 70
     1
102
RTVSPropertyOp21
 70
     1
102
RTVSPropertyOp22
 70
     1
102
RTVSPropertyOp23
 70
     1
102
RTVSPropertyOp24
 70
     1
102
RTVSPropertyOp25
 70
     1
102
RTVSPropertyOp26
 70
     1
102
RTVSPropertyOp27
 70
     1
102
RTVSPropertyOp28
 70
     1
102
RTVSPropertyOp29
 70
     1
102
RTVSPropertyOp30
 70
     1
102
RTVSPropertyOp31
 70
     1
102
RTVSPropertyOp32
 70
     1
102
RTVSPropertyOp33
 70
     1
102
RTVSPropertyOp34
 70
     1
102
RTVSPropertyOp35
 70
     1
102
RTVSPropertyOp36
 70
     1
102
RTVSPropertyOp37
 70
     1
102
RTVSPropertyOp38
 70
     1
102
RTVSPropertyOp39
 70
     1
102
RTVSPropertyOp40
 70
     1
102
RTVSPropertyOp41
 70
     1
102
RTVSPropertyOp42
 70
     1
102
RTVSPropertyOp43
 70
     1
102
RTVSPropertyOp44
 70
     1
102
RTVSPropertyOp45
 70
     1
102
RTVSPropertyOp46
 70
     1
102
RTVSPropertyOp47
 70
     1
102
RTVSPropertyOp48
 70
     1
102
RTVSPropertyOp49
 70
     1
102
RTVSPropertyOp50
 70
     1
102
RTVSPropertyOp51
 70
     0
102
RTVSPropertyOp52
 70
     0
102
RTVSPropertyOp53
 70
     1
102
RTVSPropertyOp54
 70
     1
102
RTVSPropertyOp55
 70
     1
102
RTVSPropertyOp56
 70
     1
102
RTVSPropertyOp57
 70
     1
102
RTVSPost2010Prop28
280
     0
102
RTVSPost2010PropOp28
 70
     1
102
RTVSPost2010Prop29
280
     1
102
RTVSPost2010PropOp29
 70
     1
102
RTVSPost2010Prop30
280
     1
102
RTVSPost2010PropOp30
 70
     1
102
RTVSPost2010Prop31
280
     0
102
RTVSPost2010PropOp31
 70
     1
102
RTVSPost2010Prop32
280
     0
102
RTVSPost2010PropOp32
 70
     1
102
RTVSPost2010Prop33
280
     0
102
RTVSPost2010PropOp33
 70
     1
102
RTVSPost2010Prop34
280
     0
102
RTVSPost2010PropOp34
 70
     1
102
RTVSPost2010Prop35
280
     0
102
RTVSPost2010PropOp35
 70
     1
102
RTVSPost2010Prop36
280
     0
102
RTVSPost2010PropOp36
 70
     1
102
RTVSPost2010Prop37
 90
       50
102
RTVSPost2010PropOp37
 70
     1
102
RTVSPost2010Prop38
140
0.0
102
RTVSPost2010PropOp38
 70
     1
102
RTVSPost2010Prop39
140
1.0
102
RTVSPost2010PropOp39
 70
     1
102
RTVSPost2010Prop40
 90
        0
102
RTVSPost2010PropOp40
 70
     1
102
RTVSPost2010Prop41ColorIndex
 90
       18
102
RTVSPost2010Prop41ColorRGB
 90
        0
102
RTVSPost2010PropOp41
 70
     1
102
RTVSPost2010Prop42
 90
       50
102
RTVSPost2010PropOp42
 70
     1
102
RTVSPost2010Prop43
 90
        3
102
RTVSPost2010PropOp43
 70
     1
102
RTVSPost2010Prop44ColorIndex
 90
        5
102
RTVSPost2010Prop44ColorRGB
 90
      255
102
RTVSPost2010PropOp44
 70
     1
102
RTVSPost2010Prop45
280
     0
102
RTVSPost2010PropOp45
 70
     1
102
RTVSPost2010Prop46
 90
       50
102
RTVSPost2010PropOp46
 70
     1
102
RTVSPost2010Prop47
 90
       50
102
RTVSPost2010PropOp47
 70
     1
102
RTVSPost2010Prop48
 90
       50
102
RTVSPost2010PropOp48
 70
     1
102
RTVSPost2010Prop49
280
     0
102
RTVSPost2010PropOp49
 70
     1
102
RTVSPost2010Prop50
 90
       50
102
RTVSPost2010PropOp50
 70
     1
102
RTVSPost2010Prop51ColorIndex
 90
      256
102
RTVSPost2010Prop51ColorRGB
 90
-16777216
102
RTVSPost2010PropOp51
 70
     0
102
RTVSPost2010Prop52
140
1.0
102
RTVSPost2010PropOp52
 70
     0
102
RTVSPost2010Prop53
 90
        2
102
RTVSPost2010PropOp53
 70
     1
102
RTVSPost2010Prop54
  1
strokes_ogs.tif
102
RTVSPost2010PropOp54
 70
     1
102
RTVSPost2010Prop55
280
     0
102
RTVSPost2010PropOp55
 70
     1
102
RTVSPost2010Prop56
140
1.0
102
RTVSPost2010PropOp56
 70
     1
102
RTVSPost2010Prop57
140
1.0
102
RTVSPost2010PropOp57
 70
     1
  0
XRECORD
  5
3E0
102
{ACAD_REACTORS
330
3DF
102
}
330
3DF
100
AcDbXrecord
280
     1
102
RTVSPropertyOp0
 70
     1
102
RTVSPropertyOp1
 70
     1
102
RTVSPropertyOp2
 70
     1
102
RTVSPropertyOp3
 70
     1
102
RTVSPropertyOp4
 70
     1
102
RTVSPropertyOp5
 70
     1
102
RTVSPropertyOp6
 70
     1
102
RTVSPropertyOp7
 70
     1
102
RTVSPropertyOp8
 70
     1
102
RTVSPropertyOp9
 70
     1
102
RTVSPropertyOp10
 70
     1
102
RTVSPropertyOp11
 70
     1
102
RTVSPropertyOp12
 70
     1
102
RTVSPropertyOp13
 70
     1
102
RTVSPropertyOp14
 70
     1
102
RTVSPropertyOp15
 70
     1
102
RTVSPropertyOp16
 70
     1
102
RTVSPropertyOp17
 70
     1
102
RTVSPropertyOp18
 70
     1
102
RTVSPropertyOp19
 70
     1
102
RTVSPropertyOp20
 70
     1
102
RTVSPropertyOp21
 70
     1
102
RTVSPropertyOp22
 70
     1
102
RTVSPropertyOp23
 70
     1
102
RTVSPropertyOp24
 70
     1
102
RTVSPropertyOp25
 70
     1
102
RTVSPropertyOp26
 70
     1
102
RTVSPropertyOp27
 70
     1
102
RTVSPropertyOp28
 70
     1
102
RTVSPropertyOp29
 70
     1
102
RTVSPropertyOp30
 70
     1
102
RTVSPropertyOp31
 70
     1
102
RTVSPropertyOp32
 70
     1
102
RTVSPropertyOp33
 70
     1
102
RTVSPropertyOp34
 70
     1
102
RTVSPropertyOp35
 70
     1
102
RTVSPropertyOp36
 70
     1
102
RTVSPropertyOp37
 70
     1
102
RTVSPropertyOp38
 70
     1
102
RTVSPropertyOp39
 70
     1
102
RTVSPropertyOp40
 70
     1
102
RTVSPropertyOp41
 70
     1
102
RTVSPropertyOp42
 70
     1
102
RTVSPropertyOp43
 70
     1
102
RTVSPropertyOp44
 70
     1
102
RTVSPropertyOp45
 70
     1
102
RTVSPropertyOp46
 70
     1
102
RTVSPropertyOp47
 70
     1
102
RTVSPropertyOp48
 70
     1
102
RTVSPropertyOp49
 70
     1
102
RTVSPropertyOp50
 70
     1
102
RTVSPropertyOp51
 70
     0
102
RTVSPropertyOp52
 70
     0
102
RTVSPropertyOp53
 70
     1
102
RTVSPropertyOp54
 70
     1
102
RTVSPropertyOp55
 70
     1
102
RTVSPropertyOp56
 70
     1
102
RTVSPropertyOp57
 70
     1
102
RTVSPost2010Prop28
280
     0
102
RTVSPost2010PropOp28
 70
     1
102
RTVSPost2010Prop29
280
     1
102
RTVSPost2010PropOp29
 70
     1
102
RTVSPost2010Prop30
280
     1
102
RTVSPost2010PropOp30
 70
     1
102
RTVSPost2010Prop31
280
     0
102
RTVSPost2010PropOp31
 70
     1
102
RTVSPost2010Prop32
280
     0
102
RTVSPost2010PropOp32
 70
     1
102
RTVSPost2010Prop33
280
     0
102
RTVSPost2010PropOp33
 70
     1
102
RTVSPost2010Prop34
280
     0
102
RTVSPost2010PropOp34
 70
     1
102
RTVSPost2010Prop35
280
     0
102
RTVSPost2010PropOp35
 70
     1
102
RTVSPost2010Prop36
280
     0
102
RTVSPost2010PropOp36
 70
     1
102
RTVSPost2010Prop37
 90
       50
102
RTVSPost2010PropOp37
 70
     1
102
RTVSPost2010Prop38
140
0.0
102
RTVSPost2010PropOp38
 70
     1
102
RTVSPost2010Prop39
140
1.0
102
RTVSPost2010PropOp39
 70
     1
102
RTVSPost2010Prop40
 90
        0
102
RTVSPost2010PropOp40
 70
     1
102
RTVSPost2010Prop41ColorIndex
 90
       18
102
RTVSPost2010Prop41ColorRGB
 90
        0
102
RTVSPost2010PropOp41
 70
     1
102
RTVSPost2010Prop42
 90
       50
102
RTVSPost2010PropOp42
 70
     1
102
RTVSPost2010Prop43
 90
        3
102
RTVSPost2010PropOp43
 70
     1
102
RTVSPost2010Prop44ColorIndex
 90
        5
102
RTVSPost2010Prop44ColorRGB
 90
      255
102
RTVSPost2010PropOp44
 70
     1
102
RTVSPost2010Prop45
280
     0
102
RTVSPost2010PropOp45
 70
     1
102
RTVSPost2010Prop46
 90
       50
102
RTVSPost2010PropOp46
 70
     1
102
RTVSPost2010Prop47
 90
       50
102
RTVSPost2010PropOp47
 70
     1
102
RTVSPost2010Prop48
 90
       50
102
RTVSPost2010PropOp48
 70
     1
102
RTVSPost2010Prop49
280
     0
102
RTVSPost2010PropOp49
 70
     1
102
RTVSPost2010Prop50
 90
       50
102
RTVSPost2010PropOp50
 70
     1
102
RTVSPost2010Prop51ColorIndex
 90
      256
102
RTVSPost2010Prop51ColorRGB
 90
-16777216
102
RTVSPost2010PropOp51
 70
     0
102
RTVSPost2010Prop52
140
1.0
102
RTVSPost2010PropOp52
 70
     0
102
RTVSPost2010Prop53
 90
        2
102
RTVSPost2010PropOp53
 70
     1
102
RTVSPost2010Prop54
  1
strokes_ogs.tif
102
RTVSPost2010PropOp54
 70
     1
102
RTVSPost2010Prop55
280
     0
102
RTVSPost2010PropOp55
 70
     1
102
RTVSPost2010Prop56
140
1.0
102
RTVSPost2010PropOp56
 70
     1
102
RTVSPost2010Prop57
140
1.0
102
RTVSPost2010PropOp57
 70
     1
  0
XRECORD
  5
3F0
102
{ACAD_REACTORS
330
3EF
102
}
330
3EF
100
AcDbXrecord
280
     1
102
RTVSPropertyOp0
 70
     0
102
RTVSPropertyOp1
 70
     0
102
RTVSPropertyOp2
 70
     0
102
RTVSPropertyOp3
 70
     0
102
RTVSPropertyOp4
 70
     0
102
RTVSPropertyOp5
 70
     0
102
RTVSPropertyOp6
 70
     0
102
RTVSPropertyOp7
 70
     0
102
RTVSPropertyOp8
 70
     0
102
RTVSPropertyOp9
 70
     0
102
RTVSPropertyOp10
 70
     0
102
RTVSPropertyOp11
 70
     0
102
RTVSPropertyOp12
 70
     0
102
RTVSPropertyOp13
 70
     0
102
RTVSPropertyOp14
 70
     2
102
RTVSPropertyOp15
 70
     0
102
RTVSPropertyOp16
 70
     0
102
RTVSPropertyOp17
 70
     0
102
RTVSPropertyOp18
 70
     0
102
RTVSPropertyOp19
 70
     0
102
RTVSPropertyOp20
 70
     0
102
RTVSPropertyOp21
 70
     0
102
RTVSPropertyOp22
 70
     0
102
RTVSPropertyOp23
 70
     0
102
RTVSPropertyOp24
 70
     0
102
RTVSPropertyOp25
 70
     0
102
RTVSPropertyOp26
 70
     0
102
RTVSPropertyOp27
 70
     0
102
RTVSPropertyOp28
 70
     0
102
RTVSPropertyOp29
 70
     0
102
RTVSPropertyOp30
 70
     0
102
RTVSPropertyOp31
 70
     0
102
RTVSPropertyOp32
 70
     0
102
RTVSPropertyOp33
 70
     0
102
RTVSPropertyOp34
 70
     0
102
RTVSPropertyOp35
 70
     0
102
RTVSPropertyOp36
 70
     0
102
RTVSPropertyOp37
 70
     0
102
RTVSPropertyOp38
 70
     0
102
RTVSPropertyOp39
 70
     0
102
RTVSPropertyOp40
 70
     0
102
RTVSPropertyOp41
 70
     0
102
RTVSPropertyOp42
 70
     0
102
RTVSPropertyOp43
 70
     0
102
RTVSPropertyOp44
 70
     0
102
RTVSPropertyOp45
 70
     0
102
RTVSPropertyOp46
 70
     0
102
RTVSPropertyOp47
 70
     0
102
RTVSPropertyOp48
 70
     0
102
RTVSPropertyOp49
 70
     0
102
RTVSPropertyOp50
 70
     0
102
RTVSPropertyOp51
 70
     0
102
RTVSPropertyOp52
 70
     0
102
RTVSPropertyOp53
 70
     0
102
RTVSPropertyOp54
 70
     0
102
RTVSPropertyOp55
 70
     0
102
RTVSPropertyOp56
 70
     0
102
RTVSPropertyOp57
 70
     0
102
RTVSPost2010Prop28
280
     0
102
RTVSPost2010PropOp28
 70
     0
102
RTVSPost2010Prop29
280
     1
102
RTVSPost2010PropOp29
 70
     0
102
RTVSPost2010Prop30
280
     1
102
RTVSPost2010PropOp30
 70
     0
102
RTVSPost2010Prop31
280
     0
102
RTVSPost2010PropOp31
 70
     0
102
RTVSPost2010Prop32
280
     0
102
RTVSPost2010PropOp32
 70
     0
102
RTVSPost2010Prop33
280
     0
102
RTVSPost2010PropOp33
 70
     0
102
RTVSPost2010Prop34
280
     0
102
RTVSPost2010PropOp34
 70
     0
102
RTVSPost2010Prop35
280
     0
102
RTVSPost2010PropOp35
 70
     0
102
RTVSPost2010Prop36
280
     0
102
RTVSPost2010PropOp36
 70
     0
102
RTVSPost2010Prop37
 90
       50
102
RTVSPost2010PropOp37
 70
     0
102
RTVSPost2010Prop38
140
0.0
102
RTVSPost2010PropOp38
 70
     0
102
RTVSPost2010Prop39
140
1.0
102
RTVSPost2010PropOp39
 70
     0
102
RTVSPost2010Prop40
 90
        0
102
RTVSPost2010PropOp40
 70
     0
102
RTVSPost2010Prop41ColorIndex
 90
       18
102
RTVSPost2010Prop41ColorRGB
 90
        0
102
RTVSPost2010PropOp41
 70
     0
102
RTVSPost2010Prop42
 90
       50
102
RTVSPost2010PropOp42
 70
     0
102
RTVSPost2010Prop43
 90
        3
102
RTVSPost2010PropOp43
 70
     0
102
RTVSPost2010Prop44ColorIndex
 90
        5
102
RTVSPost2010Prop44ColorRGB
 90
      255
102
RTVSPost2010PropOp44
 70
     0
102
RTVSPost2010Prop45
280
     0
102
RTVSPost2010PropOp45
 70
     0
102
RTVSPost2010Prop46
 90
       50
102
RTVSPost2010PropOp46
 70
     0
102
RTVSPost2010Prop47
 90
       50
102
RTVSPost2010PropOp47
 70
     0
102
RTVSPost2010Prop48
 90
       50
102
RTVSPost2010PropOp48
 70
     0
102
RTVSPost2010Prop49
280
     0
102
RTVSPost2010PropOp49
 70
     0
102
RTVSPost2010Prop50
 90
       50
102
RTVSPost2010PropOp50
 70
     0
102
RTVSPost2010Prop51ColorIndex
 90
      256
102
RTVSPost2010Prop51ColorRGB
 90
-16777216
102
RTVSPost2010PropOp51
 70
     0
102
RTVSPost2010Prop52
140
1.0
102
RTVSPost2010PropOp52
 70
     0
102
RTVSPost2010Prop53
 90
        2
102
RTVSPost2010PropOp53
 70
     0
102
RTVSPost2010Prop54
  1
strokes_ogs.tif
102
RTVSPost2010PropOp54
 70
     0
102
RTVSPost2010Prop55
280
     0
102
RTVSPost2010PropOp55
 70
     0
102
RTVSPost2010Prop56
140
1.0
102
RTVSPost2010PropOp56
 70
     0
102
RTVSPost2010Prop57
140
1.0
102
RTVSPost2010PropOp57
 70
     0
  0
XRECORD
  5
3E8
102
{ACAD_REACTORS
330
3E7
102
}
330
3E7
100
AcDbXrecord
280
     1
102
RTVSPropertyOp0
 70
     1
102
RTVSPropertyOp1
 70
     1
102
RTVSPropertyOp2
 70
     1
102
RTVSPropertyOp3
 70
     1
102
RTVSPropertyOp4
 70
     1
102
RTVSPropertyOp5
 70
     1
102
RTVSPropertyOp6
 70
     1
102
RTVSPropertyOp7
 70
     1
102
RTVSPropertyOp8
 70
     1
102
RTVSPropertyOp9
 70
     1
102
RTVSPropertyOp10
 70
     1
102
RTVSPropertyOp11
 70
     1
102
RTVSPropertyOp12
 70
     1
102
RTVSPropertyOp13
 70
     1
102
RTVSPropertyOp14
 70
     1
102
RTVSPropertyOp15
 70
     1
102
RTVSPropertyOp16
 70
     1
102
RTVSPropertyOp17
 70
     1
102
RTVSPropertyOp18
 70
     1
102
RTVSPropertyOp19
 70
     1
102
RTVSPropertyOp20
 70
     1
102
RTVSPropertyOp21
 70
     1
102
RTVSPropertyOp22
 70
     1
102
RTVSPropertyOp23
 70
     1
102
RTVSPropertyOp24
 70
     1
102
RTVSPropertyOp25
 70
     1
102
RTVSPropertyOp26
 70
     1
102
RTVSPropertyOp27
 70
     1
102
RTVSPropertyOp28
 70
     1
102
RTVSPropertyOp29
 70
     1
102
RTVSPropertyOp30
 70
     1
102
RTVSPropertyOp31
 70
     1
102
RTVSPropertyOp32
 70
     1
102
RTVSPropertyOp33
 70
     1
102
RTVSPropertyOp34
 70
     1
102
RTVSPropertyOp35
 70
     1
102
RTVSPropertyOp36
 70
     1
102
RTVSPropertyOp37
 70
     1
102
RTVSPropertyOp38
 70
     1
102
RTVSPropertyOp39
 70
     1
102
RTVSPropertyOp40
 70
     1
102
RTVSPropertyOp41
 70
     1
102
RTVSPropertyOp42
 70
     1
102
RTVSPropertyOp43
 70
     1
102
RTVSPropertyOp44
 70
     1
102
RTVSPropertyOp45
 70
     1
102
RTVSPropertyOp46
 70
     1
102
RTVSPropertyOp47
 70
     1
102
RTVSPropertyOp48
 70
     1
102
RTVSPropertyOp49
 70
     1
102
RTVSPropertyOp50
 70
     1
102
RTVSPropertyOp51
 70
     0
102
RTVSPropertyOp52
 70
     0
102
RTVSPropertyOp53
 70
     1
102
RTVSPropertyOp54
 70
     1
102
RTVSPropertyOp55
 70
     1
102
RTVSPropertyOp56
 70
     1
102
RTVSPropertyOp57
 70
     1
102
RTVSPost2010Prop28
280
     0
102
RTVSPost2010PropOp28
 70
     1
102
RTVSPost2010Prop29
280
     1
102
RTVSPost2010PropOp29
 70
     1
102
RTVSPost2010Prop30
280
     1
102
RTVSPost2010PropOp30
 70
     1
102
RTVSPost2010Prop31
280
     0
102
RTVSPost2010PropOp31
 70
     1
102
RTVSPost2010Prop32
280
     0
102
RTVSPost2010PropOp32
 70
     1
102
RTVSPost2010Prop33
280
     0
102
RTVSPost2010PropOp33
 70
     1
102
RTVSPost2010Prop34
280
     0
102
RTVSPost2010PropOp34
 70
     1
102
RTVSPost2010Prop35
280
     0
102
RTVSPost2010PropOp35
 70
     1
102
RTVSPost2010Prop36
280
     0
102
RTVSPost2010PropOp36
 70
     1
102
RTVSPost2010Prop37
 90
       50
102
RTVSPost2010PropOp37
 70
     1
102
RTVSPost2010Prop38
140
0.0
102
RTVSPost2010PropOp38
 70
     1
102
RTVSPost2010Prop39
140
1.0
102
RTVSPost2010PropOp39
 70
     1
102
RTVSPost2010Prop40
 90
        0
102
RTVSPost2010PropOp40
 70
     1
102
RTVSPost2010Prop41ColorIndex
 90
       18
102
RTVSPost2010Prop41ColorRGB
 90
        0
102
RTVSPost2010PropOp41
 70
     1
102
RTVSPost2010Prop42
 90
       50
102
RTVSPost2010PropOp42
 70
     1
102
RTVSPost2010Prop43
 90
        3
102
RTVSPost2010PropOp43
 70
     1
102
RTVSPost2010Prop44ColorIndex
 90
        5
102
RTVSPost2010Prop44ColorRGB
 90
      255
102
RTVSPost2010PropOp44
 70
     1
102
RTVSPost2010Prop45
280
     0
102
RTVSPost2010PropOp45
 70
     1
102
RTVSPost2010Prop46
 90
       50
102
RTVSPost2010PropOp46
 70
     1
102
RTVSPost2010Prop47
 90
       50
102
RTVSPost2010PropOp47
 70
     1
102
RTVSPost2010Prop48
 90
       50
102
RTVSPost2010PropOp48
 70
     1
102
RTVSPost2010Prop49
280
     0
102
RTVSPost2010PropOp49
 70
     1
102
RTVSPost2010Prop50
 90
       50
102
RTVSPost2010PropOp50
 70
     1
102
RTVSPost2010Prop51ColorIndex
 90
      256
102
RTVSPost2010Prop51ColorRGB
 90
-16777216
102
RTVSPost2010PropOp51
 70
     0
102
RTVSPost2010Prop52
140
1.0
102
RTVSPost2010PropOp52
 70
     0
102
RTVSPost2010Prop53
 90
        2
102
RTVSPost2010PropOp53
 70
     1
102
RTVSPost2010Prop54
  1
strokes_ogs.tif
102
RTVSPost2010PropOp54
 70
     1
102
RTVSPost2010Prop55
280
     0
102
RTVSPost2010PropOp55
 70
     1
102
RTVSPost2010Prop56
140
1.0
102
RTVSPost2010PropOp56
 70
     1
102
RTVSPost2010Prop57
140
1.0
102
RTVSPost2010PropOp57
 70
     1
  0
XRECORD
  5
3CC
102
{ACAD_REACTORS
330
3CB
102
}
330
3CB
100
AcDbXrecord
280
     1
102
RTVSPropertyOp0
 70
     1
102
RTVSPropertyOp1
 70
     1
102
RTVSPropertyOp2
 70
     1
102
RTVSPropertyOp3
 70
     1
102
RTVSPropertyOp4
 70
     1
102
RTVSPropertyOp5
 70
     1
102
RTVSPropertyOp6
 70
     1
102
RTVSPropertyOp7
 70
     1
102
RTVSPropertyOp8
 70
     1
102
RTVSPropertyOp9
 70
     1
102
RTVSPropertyOp10
 70
     1
102
RTVSPropertyOp11
 70
     1
102
RTVSPropertyOp12
 70
     1
102
RTVSPropertyOp13
 70
     1
102
RTVSPropertyOp14
 70
     1
102
RTVSPropertyOp15
 70
     1
102
RTVSPropertyOp16
 70
     1
102
RTVSPropertyOp17
 70
     1
102
RTVSPropertyOp18
 70
     1
102
RTVSPropertyOp19
 70
     1
102
RTVSPropertyOp20
 70
     1
102
RTVSPropertyOp21
 70
     1
102
RTVSPropertyOp22
 70
     1
102
RTVSPropertyOp23
 70
     1
102
RTVSPropertyOp24
 70
     1
102
RTVSPropertyOp25
 70
     1
102
RTVSPropertyOp26
 70
     1
102
RTVSPropertyOp27
 70
     1
102
RTVSPropertyOp28
 70
     1
102
RTVSPropertyOp29
 70
     1
102
RTVSPropertyOp30
 70
     1
102
RTVSPropertyOp31
 70
     1
102
RTVSPropertyOp32
 70
     1
102
RTVSPropertyOp33
 70
     1
102
RTVSPropertyOp34
 70
     1
102
RTVSPropertyOp35
 70
     1
102
RTVSPropertyOp36
 70
     1
102
RTVSPropertyOp37
 70
     1
102
RTVSPropertyOp38
 70
     1
102
RTVSPropertyOp39
 70
     1
102
RTVSPropertyOp40
 70
     1
102
RTVSPropertyOp41
 70
     1
102
RTVSPropertyOp42
 70
     1
102
RTVSPropertyOp43
 70
     1
102
RTVSPropertyOp44
 70
     1
102
RTVSPropertyOp45
 70
     1
102
RTVSPropertyOp46
 70
     1
102
RTVSPropertyOp47
 70
     1
102
RTVSPropertyOp48
 70
     1
102
RTVSPropertyOp49
 70
     1
102
RTVSPropertyOp50
 70
     1
102
RTVSPropertyOp51
 70
     0
102
RTVSPropertyOp52
 70
     0
102
RTVSPropertyOp53
 70
     1
102
RTVSPropertyOp54
 70
     1
102
RTVSPropertyOp55
 70
     1
102
RTVSPropertyOp56
 70
     1
102
RTVSPropertyOp57
 70
     1
102
RTVSPost2010Prop28
280
     0
102
RTVSPost2010PropOp28
 70
     1
102
RTVSPost2010Prop29
280
     1
102
RTVSPost2010PropOp29
 70
     1
102
RTVSPost2010Prop30
280
     1
102
RTVSPost2010PropOp30
 70
     1
102
RTVSPost2010Prop31
280
     0
102
RTVSPost2010PropOp31
 70
     1
102
RTVSPost2010Prop32
280
     0
102
RTVSPost2010PropOp32
 70
     1
102
RTVSPost2010Prop33
280
     0
102
RTVSPost2010PropOp33
 70
     1
102
RTVSPost2010Prop34
280
     0
102
RTVSPost2010PropOp34
 70
     1
102
RTVSPost2010Prop35
280
     0
102
RTVSPost2010PropOp35
 70
     1
102
RTVSPost2010Prop36
280
     0
102
RTVSPost2010PropOp36
 70
     1
102
RTVSPost2010Prop37
 90
       50
102
RTVSPost2010PropOp37
 70
     1
102
RTVSPost2010Prop38
140
0.0
102
RTVSPost2010PropOp38
 70
     1
102
RTVSPost2010Prop39
140
1.0
102
RTVSPost2010PropOp39
 70
     1
102
RTVSPost2010Prop40
 90
        0
102
RTVSPost2010PropOp40
 70
     1
102
RTVSPost2010Prop41ColorIndex
 90
       18
102
RTVSPost2010Prop41ColorRGB
 90
        0
102
RTVSPost2010PropOp41
 70
     1
102
RTVSPost2010Prop42
 90
       50
102
RTVSPost2010PropOp42
 70
     1
102
RTVSPost2010Prop43
 90
        3
102
RTVSPost2010PropOp43
 70
     1
102
RTVSPost2010Prop44ColorIndex
 90
        5
102
RTVSPost2010Prop44ColorRGB
 90
      255
102
RTVSPost2010PropOp44
 70
     1
102
RTVSPost2010Prop45
280
     0
102
RTVSPost2010PropOp45
 70
     1
102
RTVSPost2010Prop46
 90
       50
102
RTVSPost2010PropOp46
 70
     1
102
RTVSPost2010Prop47
 90
       50
102
RTVSPost2010PropOp47
 70
     1
102
RTVSPost2010Prop48
 90
       50
102
RTVSPost2010PropOp48
 70
     1
102
RTVSPost2010Prop49
280
     0
102
RTVSPost2010PropOp49
 70
     1
102
RTVSPost2010Prop50
 90
       50
102
RTVSPost2010PropOp50
 70
     1
102
RTVSPost2010Prop51ColorIndex
 90
      256
102
RTVSPost2010Prop51ColorRGB
 90
-16777216
102
RTVSPost2010PropOp51
 70
     0
102
RTVSPost2010Prop52
140
1.0
102
RTVSPost2010PropOp52
 70
     0
102
RTVSPost2010Prop53
 90
        2
102
RTVSPost2010PropOp53
 70
     1
102
RTVSPost2010Prop54
  1
strokes_ogs.tif
102
RTVSPost2010PropOp54
 70
     1
102
RTVSPost2010Prop55
280
     0
102
RTVSPost2010PropOp55
 70
     1
102
RTVSPost2010Prop56
140
1.0
102
RTVSPost2010PropOp56
 70
     1
102
RTVSPost2010Prop57
140
1.0
102
RTVSPost2010PropOp57
 70
     1
  0
XRECORD
  5
3CE
102
{ACAD_REACTORS
330
3CD
102
}
330
3CD
100
AcDbXrecord
280
     1
102
RTVSPropertyOp0
 70
     1
102
RTVSPropertyOp1
 70
     1
102
RTVSPropertyOp2
 70
     1
102
RTVSPropertyOp3
 70
     1
102
RTVSPropertyOp4
 70
     1
102
RTVSPropertyOp5
 70
     1
102
RTVSPropertyOp6
 70
     1
102
RTVSPropertyOp7
 70
     1
102
RTVSPropertyOp8
 70
     1
102
RTVSPropertyOp9
 70
     1
102
RTVSPropertyOp10
 70
     1
102
RTVSPropertyOp11
 70
     1
102
RTVSPropertyOp12
 70
     1
102
RTVSPropertyOp13
 70
     1
102
RTVSPropertyOp14
 70
     1
102
RTVSPropertyOp15
 70
     1
102
RTVSPropertyOp16
 70
     1
102
RTVSPropertyOp17
 70
     1
102
RTVSPropertyOp18
 70
     1
102
RTVSPropertyOp19
 70
     1
102
RTVSPropertyOp20
 70
     1
102
RTVSPropertyOp21
 70
     1
102
RTVSPropertyOp22
 70
     1
102
RTVSPropertyOp23
 70
     1
102
RTVSPropertyOp24
 70
     1
102
RTVSPropertyOp25
 70
     1
102
RTVSPropertyOp26
 70
     1
102
RTVSPropertyOp27
 70
     1
102
RTVSPropertyOp28
 70
     1
102
RTVSPropertyOp29
 70
     1
102
RTVSPropertyOp30
 70
     1
102
RTVSPropertyOp31
 70
     1
102
RTVSPropertyOp32
 70
     1
102
RTVSPropertyOp33
 70
     1
102
RTVSPropertyOp34
 70
     1
102
RTVSPropertyOp35
 70
     1
102
RTVSPropertyOp36
 70
     1
102
RTVSPropertyOp37
 70
     1
102
RTVSPropertyOp38
 70
     1
102
RTVSPropertyOp39
 70
     1
102
RTVSPropertyOp40
 70
     1
102
RTVSPropertyOp41
 70
     1
102
RTVSPropertyOp42
 70
     1
102
RTVSPropertyOp43
 70
     1
102
RTVSPropertyOp44
 70
     1
102
RTVSPropertyOp45
 70
     1
102
RTVSPropertyOp46
 70
     1
102
RTVSPropertyOp47
 70
     1
102
RTVSPropertyOp48
 70
     1
102
RTVSPropertyOp49
 70
     1
102
RTVSPropertyOp50
 70
     1
102
RTVSPropertyOp51
 70
     0
102
RTVSPropertyOp52
 70
     0
102
RTVSPropertyOp53
 70
     1
102
RTVSPropertyOp54
 70
     1
102
RTVSPropertyOp55
 70
     1
102
RTVSPropertyOp56
 70
     1
102
RTVSPropertyOp57
 70
     1
102
RTVSPost2010Prop28
280
     0
102
RTVSPost2010PropOp28
 70
     1
102
RTVSPost2010Prop29
280
     1
102
RTVSPost2010PropOp29
 70
     1
102
RTVSPost2010Prop30
280
     1
102
RTVSPost2010PropOp30
 70
     1
102
RTVSPost2010Prop31
280
     0
102
RTVSPost2010PropOp31
 70
     1
102
RTVSPost2010Prop32
280
     0
102
RTVSPost2010PropOp32
 70
     1
102
RTVSPost2010Prop33
280
     0
102
RTVSPost2010PropOp33
 70
     1
102
RTVSPost2010Prop34
280
     0
102
RTVSPost2010PropOp34
 70
     1
102
RTVSPost2010Prop35
280
     0
102
RTVSPost2010PropOp35
 70
     1
102
RTVSPost2010Prop36
280
     0
102
RTVSPost2010PropOp36
 70
     1
102
RTVSPost2010Prop37
 90
       50
102
RTVSPost2010PropOp37
 70
     1
102
RTVSPost2010Prop38
140
0.0
102
RTVSPost2010PropOp38
 70
     1
102
RTVSPost2010Prop39
140
1.0
102
RTVSPost2010PropOp39
 70
     1
102
RTVSPost2010Prop40
 90
        0
102
RTVSPost2010PropOp40
 70
     1
102
RTVSPost2010Prop41ColorIndex
 90
       18
102
RTVSPost2010Prop41ColorRGB
 90
        0
102
RTVSPost2010PropOp41
 70
     1
102
RTVSPost2010Prop42
 90
       50
102
RTVSPost2010PropOp42
 70
     1
102
RTVSPost2010Prop43
 90
        3
102
RTVSPost2010PropOp43
 70
     1
102
RTVSPost2010Prop44ColorIndex
 90
        5
102
RTVSPost2010Prop44ColorRGB
 90
      255
102
RTVSPost2010PropOp44
 70
     1
102
RTVSPost2010Prop45
280
     0
102
RTVSPost2010PropOp45
 70
     1
102
RTVSPost2010Prop46
 90
       50
102
RTVSPost2010PropOp46
 70
     1
102
RTVSPost2010Prop47
 90
       50
102
RTVSPost2010PropOp47
 70
     1
102
RTVSPost2010Prop48
 90
       50
102
RTVSPost2010PropOp48
 70
     1
102
RTVSPost2010Prop49
280
     0
102
RTVSPost2010PropOp49
 70
     1
102
RTVSPost2010Prop50
 90
       50
102
RTVSPost2010PropOp50
 70
     1
102
RTVSPost2010Prop51ColorIndex
 90
      256
102
RTVSPost2010Prop51ColorRGB
 90
-16777216
102
RTVSPost2010PropOp51
 70
     0
102
RTVSPost2010Prop52
140
1.0
102
RTVSPost2010PropOp52
 70
     0
102
RTVSPost2010Prop53
 90
        2
102
RTVSPost2010PropOp53
 70
     1
102
RTVSPost2010Prop54
  1
strokes_ogs.tif
102
RTVSPost2010PropOp54
 70
     1
102
RTVSPost2010Prop55
280
     0
102
RTVSPost2010PropOp55
 70
     1
102
RTVSPost2010Prop56
140
1.0
102
RTVSPost2010PropOp56
 70
     1
102
RTVSPost2010Prop57
140
1.0
102
RTVSPost2010PropOp57
 70
     1
  0
XRECORD
  5
3D0
102
{ACAD_REACTORS
330
3CF
102
}
330
3CF
100
AcDbXrecord
280
     1
102
RTVSPropertyOp0
 70
     1
102
RTVSPropertyOp1
 70
     1
102
RTVSPropertyOp2
 70
     1
102
RTVSPropertyOp3
 70
     1
102
RTVSPropertyOp4
 70
     1
102
RTVSPropertyOp5
 70
     1
102
RTVSPropertyOp6
 70
     1
102
RTVSPropertyOp7
 70
     1
102
RTVSPropertyOp8
 70
     1
102
RTVSPropertyOp9
 70
     1
102
RTVSPropertyOp10
 70
     1
102
RTVSPropertyOp11
 70
     1
102
RTVSPropertyOp12
 70
     1
102
RTVSPropertyOp13
 70
     1
102
RTVSPropertyOp14
 70
     1
102
RTVSPropertyOp15
 70
     1
102
RTVSPropertyOp16
 70
     1
102
RTVSPropertyOp17
 70
     1
102
RTVSPropertyOp18
 70
     1
102
RTVSPropertyOp19
 70
     1
102
RTVSPropertyOp20
 70
     1
102
RTVSPropertyOp21
 70
     1
102
RTVSPropertyOp22
 70
     1
102
RTVSPropertyOp23
 70
     1
102
RTVSPropertyOp24
 70
     1
102
RTVSPropertyOp25
 70
     1
102
RTVSPropertyOp26
 70
     1
102
RTVSPropertyOp27
 70
     1
102
RTVSPropertyOp28
 70
     1
102
RTVSPropertyOp29
 70
     1
102
RTVSPropertyOp30
 70
     1
102
RTVSPropertyOp31
 70
     1
102
RTVSPropertyOp32
 70
     1
102
RTVSPropertyOp33
 70
     1
102
RTVSPropertyOp34
 70
     1
102
RTVSPropertyOp35
 70
     1
102
RTVSPropertyOp36
 70
     1
102
RTVSPropertyOp37
 70
     1
102
RTVSPropertyOp38
 70
     1
102
RTVSPropertyOp39
 70
     1
102
RTVSPropertyOp40
 70
     1
102
RTVSPropertyOp41
 70
     1
102
RTVSPropertyOp42
 70
     1
102
RTVSPropertyOp43
 70
     1
102
RTVSPropertyOp44
 70
     1
102
RTVSPropertyOp45
 70
     1
102
RTVSPropertyOp46
 70
     1
102
RTVSPropertyOp47
 70
     1
102
RTVSPropertyOp48
 70
     1
102
RTVSPropertyOp49
 70
     1
102
RTVSPropertyOp50
 70
     1
102
RTVSPropertyOp51
 70
     0
102
RTVSPropertyOp52
 70
     0
102
RTVSPropertyOp53
 70
     1
102
RTVSPropertyOp54
 70
     1
102
RTVSPropertyOp55
 70
     1
102
RTVSPropertyOp56
 70
     1
102
RTVSPropertyOp57
 70
     1
102
RTVSPost2010Prop28
280
     0
102
RTVSPost2010PropOp28
 70
     1
102
RTVSPost2010Prop29
280
     1
102
RTVSPost2010PropOp29
 70
     1
102
RTVSPost2010Prop30
280
     1
102
RTVSPost2010PropOp30
 70
     1
102
RTVSPost2010Prop31
280
     0
102
RTVSPost2010PropOp31
 70
     1
102
RTVSPost2010Prop32
280
     0
102
RTVSPost2010PropOp32
 70
     1
102
RTVSPost2010Prop33
280
     0
102
RTVSPost2010PropOp33
 70
     1
102
RTVSPost2010Prop34
280
     0
102
RTVSPost2010PropOp34
 70
     1
102
RTVSPost2010Prop35
280
     0
102
RTVSPost2010PropOp35
 70
     1
102
RTVSPost2010Prop36
280
     0
102
RTVSPost2010PropOp36
 70
     1
102
RTVSPost2010Prop37
 90
       50
102
RTVSPost2010PropOp37
 70
     1
102
RTVSPost2010Prop38
140
0.0
102
RTVSPost2010PropOp38
 70
     1
102
RTVSPost2010Prop39
140
1.0
102
RTVSPost2010PropOp39
 70
     1
102
RTVSPost2010Prop40
 90
        0
102
RTVSPost2010PropOp40
 70
     1
102
RTVSPost2010Prop41ColorIndex
 90
       18
102
RTVSPost2010Prop41ColorRGB
 90
        0
102
RTVSPost2010PropOp41
 70
     1
102
RTVSPost2010Prop42
 90
       50
102
RTVSPost2010PropOp42
 70
     1
102
RTVSPost2010Prop43
 90
        3
102
RTVSPost2010PropOp43
 70
     1
102
RTVSPost2010Prop44ColorIndex
 90
        5
102
RTVSPost2010Prop44ColorRGB
 90
      255
102
RTVSPost2010PropOp44
 70
     1
102
RTVSPost2010Prop45
280
     0
102
RTVSPost2010PropOp45
 70
     1
102
RTVSPost2010Prop46
 90
       50
102
RTVSPost2010PropOp46
 70
     1
102
RTVSPost2010Prop47
 90
       50
102
RTVSPost2010PropOp47
 70
     1
102
RTVSPost2010Prop48
 90
       50
102
RTVSPost2010PropOp48
 70
     1
102
RTVSPost2010Prop49
280
     0
102
RTVSPost2010PropOp49
 70
     1
102
RTVSPost2010Prop50
 90
       50
102
RTVSPost2010PropOp50
 70
     1
102
RTVSPost2010Prop51ColorIndex
 90
      256
102
RTVSPost2010Prop51ColorRGB
 90
-16777216
102
RTVSPost2010PropOp51
 70
     0
102
RTVSPost2010Prop52
140
1.0
102
RTVSPost2010PropOp52
 70
     0
102
RTVSPost2010Prop53
 90
        2
102
RTVSPost2010PropOp53
 70
     1
102
RTVSPost2010Prop54
  1
strokes_ogs.tif
102
RTVSPost2010PropOp54
 70
     1
102
RTVSPost2010Prop55
280
     0
102
RTVSPost2010PropOp55
 70
     1
102
RTVSPost2010Prop56
140
1.0
102
RTVSPost2010PropOp56
 70
     1
102
RTVSPost2010Prop57
140
1.0
102
RTVSPost2010PropOp57
 70
     1
  0
XRECORD
  5
3D2
102
{ACAD_REACTORS
330
3D1
102
}
330
3D1
100
AcDbXrecord
280
     1
102
RTVSPropertyOp0
 70
     1
102
RTVSPropertyOp1
 70
     1
102
RTVSPropertyOp2
 70
     1
102
RTVSPropertyOp3
 70
     1
102
RTVSPropertyOp4
 70
     1
102
RTVSPropertyOp5
 70
     1
102
RTVSPropertyOp6
 70
     1
102
RTVSPropertyOp7
 70
     1
102
RTVSPropertyOp8
 70
     1
102
RTVSPropertyOp9
 70
     1
102
RTVSPropertyOp10
 70
     1
102
RTVSPropertyOp11
 70
     1
102
RTVSPropertyOp12
 70
     1
102
RTVSPropertyOp13
 70
     1
102
RTVSPropertyOp14
 70
     1
102
RTVSPropertyOp15
 70
     1
102
RTVSPropertyOp16
 70
     1
102
RTVSPropertyOp17
 70
     1
102
RTVSPropertyOp18
 70
     1
102
RTVSPropertyOp19
 70
     1
102
RTVSPropertyOp20
 70
     1
102
RTVSPropertyOp21
 70
     1
102
RTVSPropertyOp22
 70
     1
102
RTVSPropertyOp23
 70
     1
102
RTVSPropertyOp24
 70
     1
102
RTVSPropertyOp25
 70
     1
102
RTVSPropertyOp26
 70
     1
102
RTVSPropertyOp27
 70
     1
102
RTVSPropertyOp28
 70
     1
102
RTVSPropertyOp29
 70
     1
102
RTVSPropertyOp30
 70
     1
102
RTVSPropertyOp31
 70
     1
102
RTVSPropertyOp32
 70
     1
102
RTVSPropertyOp33
 70
     1
102
RTVSPropertyOp34
 70
     1
102
RTVSPropertyOp35
 70
     1
102
RTVSPropertyOp36
 70
     1
102
RTVSPropertyOp37
 70
     1
102
RTVSPropertyOp38
 70
     1
102
RTVSPropertyOp39
 70
     1
102
RTVSPropertyOp40
 70
     1
102
RTVSPropertyOp41
 70
     1
102
RTVSPropertyOp42
 70
     1
102
RTVSPropertyOp43
 70
     1
102
RTVSPropertyOp44
 70
     1
102
RTVSPropertyOp45
 70
     1
102
RTVSPropertyOp46
 70
     1
102
RTVSPropertyOp47
 70
     1
102
RTVSPropertyOp48
 70
     1
102
RTVSPropertyOp49
 70
     1
102
RTVSPropertyOp50
 70
     1
102
RTVSPropertyOp51
 70
     0
102
RTVSPropertyOp52
 70
     0
102
RTVSPropertyOp53
 70
     1
102
RTVSPropertyOp54
 70
     1
102
RTVSPropertyOp55
 70
     1
102
RTVSPropertyOp56
 70
     1
102
RTVSPropertyOp57
 70
     1
102
RTVSPost2010Prop28
280
     0
102
RTVSPost2010PropOp28
 70
     1
102
RTVSPost2010Prop29
280
     1
102
RTVSPost2010PropOp29
 70
     1
102
RTVSPost2010Prop30
280
     1
102
RTVSPost2010PropOp30
 70
     1
102
RTVSPost2010Prop31
280
     0
102
RTVSPost2010PropOp31
 70
     1
102
RTVSPost2010Prop32
280
     0
102
RTVSPost2010PropOp32
 70
     1
102
RTVSPost2010Prop33
280
     0
102
RTVSPost2010PropOp33
 70
     1
102
RTVSPost2010Prop34
280
     0
102
RTVSPost2010PropOp34
 70
     1
102
RTVSPost2010Prop35
280
     0
102
RTVSPost2010PropOp35
 70
     1
102
RTVSPost2010Prop36
280
     0
102
RTVSPost2010PropOp36
 70
     1
102
RTVSPost2010Prop37
 90
       50
102
RTVSPost2010PropOp37
 70
     1
102
RTVSPost2010Prop38
140
0.0
102
RTVSPost2010PropOp38
 70
     1
102
RTVSPost2010Prop39
140
1.0
102
RTVSPost2010PropOp39
 70
     1
102
RTVSPost2010Prop40
 90
        0
102
RTVSPost2010PropOp40
 70
     1
102
RTVSPost2010Prop41ColorIndex
 90
       18
102
RTVSPost2010Prop41ColorRGB
 90
        0
102
RTVSPost2010PropOp41
 70
     1
102
RTVSPost2010Prop42
 90
       50
102
RTVSPost2010PropOp42
 70
     1
102
RTVSPost2010Prop43
 90
        3
102
RTVSPost2010PropOp43
 70
     1
102
RTVSPost2010Prop44ColorIndex
 90
        5
102
RTVSPost2010Prop44ColorRGB
 90
      255
102
RTVSPost2010PropOp44
 70
     1
102
RTVSPost2010Prop45
280
     0
102
RTVSPost2010PropOp45
 70
     1
102
RTVSPost2010Prop46
 90
       50
102
RTVSPost2010PropOp46
 70
     1
102
RTVSPost2010Prop47
 90
       50
102
RTVSPost2010PropOp47
 70
     1
102
RTVSPost2010Prop48
 90
       50
102
RTVSPost2010PropOp48
 70
     1
102
RTVSPost2010Prop49
280
     0
102
RTVSPost2010PropOp49
 70
     1
102
RTVSPost2010Prop50
 90
       50
102
RTVSPost2010PropOp50
 70
     1
102
RTVSPost2010Prop51ColorIndex
 90
      256
102
RTVSPost2010Prop51ColorRGB
 90
-16777216
102
RTVSPost2010PropOp51
 70
     0
102
RTVSPost2010Prop52
140
1.0
102
RTVSPost2010PropOp52
 70
     0
102
RTVSPost2010Prop53
 90
        2
102
RTVSPost2010PropOp53
 70
     1
102
RTVSPost2010Prop54
  1
strokes_ogs.tif
102
RTVSPost2010PropOp54
 70
     1
102
RTVSPost2010Prop55
280
     0
102
RTVSPost2010PropOp55
 70
     1
102
RTVSPost2010Prop56
140
1.0
102
RTVSPost2010PropOp56
 70
     1
102
RTVSPost2010Prop57
140
1.0
102
RTVSPost2010PropOp57
 70
     1
  0
XRECORD
  5
3D8
102
{ACAD_REACTORS
330
3D7
102
}
330
3D7
100
AcDbXrecord
280
     1
102
RTVSPropertyOp0
 70
     1
102
RTVSPropertyOp1
 70
     1
102
RTVSPropertyOp2
 70
     1
102
RTVSPropertyOp3
 70
     1
102
RTVSPropertyOp4
 70
     1
102
RTVSPropertyOp5
 70
     1
102
RTVSPropertyOp6
 70
     1
102
RTVSPropertyOp7
 70
     1
102
RTVSPropertyOp8
 70
     1
102
RTVSPropertyOp9
 70
     1
102
RTVSPropertyOp10
 70
     1
102
RTVSPropertyOp11
 70
     1
102
RTVSPropertyOp12
 70
     1
102
RTVSPropertyOp13
 70
     1
102
RTVSPropertyOp14
 70
     1
102
RTVSPropertyOp15
 70
     1
102
RTVSPropertyOp16
 70
     1
102
RTVSPropertyOp17
 70
     1
102
RTVSPropertyOp18
 70
     1
102
RTVSPropertyOp19
 70
     1
102
RTVSPropertyOp20
 70
     1
102
RTVSPropertyOp21
 70
     1
102
RTVSPropertyOp22
 70
     1
102
RTVSPropertyOp23
 70
     1
102
RTVSPropertyOp24
 70
     1
102
RTVSPropertyOp25
 70
     1
102
RTVSPropertyOp26
 70
     1
102
RTVSPropertyOp27
 70
     1
102
RTVSPropertyOp28
 70
     1
102
RTVSPropertyOp29
 70
     1
102
RTVSPropertyOp30
 70
     1
102
RTVSPropertyOp31
 70
     1
102
RTVSPropertyOp32
 70
     1
102
RTVSPropertyOp33
 70
     1
102
RTVSPropertyOp34
 70
     1
102
RTVSPropertyOp35
 70
     1
102
RTVSPropertyOp36
 70
     1
102
RTVSPropertyOp37
 70
     1
102
RTVSPropertyOp38
 70
     1
102
RTVSPropertyOp39
 70
     1
102
RTVSPropertyOp40
 70
     1
102
RTVSPropertyOp41
 70
     1
102
RTVSPropertyOp42
 70
     1
102
RTVSPropertyOp43
 70
     1
102
RTVSPropertyOp44
 70
     1
102
RTVSPropertyOp45
 70
     1
102
RTVSPropertyOp46
 70
     1
102
RTVSPropertyOp47
 70
     1
102
RTVSPropertyOp48
 70
     1
102
RTVSPropertyOp49
 70
     1
102
RTVSPropertyOp50
 70
     1
102
RTVSPropertyOp51
 70
     0
102
RTVSPropertyOp52
 70
     0
102
RTVSPropertyOp53
 70
     1
102
RTVSPropertyOp54
 70
     1
102
RTVSPropertyOp55
 70
     1
102
RTVSPropertyOp56
 70
     1
102
RTVSPropertyOp57
 70
     1
102
RTVSPost2010Prop28
280
     0
102
RTVSPost2010PropOp28
 70
     1
102
RTVSPost2010Prop29
280
     1
102
RTVSPost2010PropOp29
 70
     1
102
RTVSPost2010Prop30
280
     1
102
RTVSPost2010PropOp30
 70
     1
102
RTVSPost2010Prop31
280
     0
102
RTVSPost2010PropOp31
 70
     1
102
RTVSPost2010Prop32
280
     0
102
RTVSPost2010PropOp32
 70
     1
102
RTVSPost2010Prop33
280
     0
102
RTVSPost2010PropOp33
 70
     1
102
RTVSPost2010Prop34
280
     0
102
RTVSPost2010PropOp34
 70
     1
102
RTVSPost2010Prop35
280
     0
102
RTVSPost2010PropOp35
 70
     1
102
RTVSPost2010Prop36
280
     0
102
RTVSPost2010PropOp36
 70
     1
102
RTVSPost2010Prop37
 90
       50
102
RTVSPost2010PropOp37
 70
     1
102
RTVSPost2010Prop38
140
0.0
102
RTVSPost2010PropOp38
 70
     1
102
RTVSPost2010Prop39
140
1.0
102
RTVSPost2010PropOp39
 70
     1
102
RTVSPost2010Prop40
 90
        0
102
RTVSPost2010PropOp40
 70
     1
102
RTVSPost2010Prop41ColorIndex
 90
       18
102
RTVSPost2010Prop41ColorRGB
 90
        0
102
RTVSPost2010PropOp41
 70
     1
102
RTVSPost2010Prop42
 90
       50
102
RTVSPost2010PropOp42
 70
     1
102
RTVSPost2010Prop43
 90
        3
102
RTVSPost2010PropOp43
 70
     1
102
RTVSPost2010Prop44ColorIndex
 90
        5
102
RTVSPost2010Prop44ColorRGB
 90
      255
102
RTVSPost2010PropOp44
 70
     1
102
RTVSPost2010Prop45
280
     0
102
RTVSPost2010PropOp45
 70
     1
102
RTVSPost2010Prop46
 90
       50
102
RTVSPost2010PropOp46
 70
     1
102
RTVSPost2010Prop47
 90
       50
102
RTVSPost2010PropOp47
 70
     1
102
RTVSPost2010Prop48
 90
       50
102
RTVSPost2010PropOp48
 70
     1
102
RTVSPost2010Prop49
280
     0
102
RTVSPost2010PropOp49
 70
     1
102
RTVSPost2010Prop50
 90
       50
102
RTVSPost2010PropOp50
 70
     1
102
RTVSPost2010Prop51ColorIndex
 90
      256
102
RTVSPost2010Prop51ColorRGB
 90
-16777216
102
RTVSPost2010PropOp51
 70
     0
102
RTVSPost2010Prop52
140
1.0
102
RTVSPost2010PropOp52
 70
     0
102
RTVSPost2010Prop53
 90
        2
102
RTVSPost2010PropOp53
 70
     1
102
RTVSPost2010Prop54
  1
strokes_ogs.tif
102
RTVSPost2010PropOp54
 70
     1
102
RTVSPost2010Prop55
280
     0
102
RTVSPost2010PropOp55
 70
     1
102
RTVSPost2010Prop56
140
1.0
102
RTVSPost2010PropOp56
 70
     1
102
RTVSPost2010Prop57
140
1.0
102
RTVSPost2010PropOp57
 70
     1
  0
XRECORD
  5
3EC
102
{ACAD_REACTORS
330
3EB
102
}
330
3EB
100
AcDbXrecord
280
     1
102
RTVSPropertyOp0
 70
     0
102
RTVSPropertyOp1
 70
     0
102
RTVSPropertyOp2
 70
     0
102
RTVSPropertyOp3
 70
     0
102
RTVSPropertyOp4
 70
     0
102
RTVSPropertyOp5
 70
     0
102
RTVSPropertyOp6
 70
     0
102
RTVSPropertyOp7
 70
     0
102
RTVSPropertyOp8
 70
     0
102
RTVSPropertyOp9
 70
     0
102
RTVSPropertyOp10
 70
     0
102
RTVSPropertyOp11
 70
     0
102
RTVSPropertyOp12
 70
     0
102
RTVSPropertyOp13
 70
     0
102
RTVSPropertyOp14
 70
     2
102
RTVSPropertyOp15
 70
     0
102
RTVSPropertyOp16
 70
     0
102
RTVSPropertyOp17
 70
     0
102
RTVSPropertyOp18
 70
     0
102
RTVSPropertyOp19
 70
     0
102
RTVSPropertyOp20
 70
     0
102
RTVSPropertyOp21
 70
     0
102
RTVSPropertyOp22
 70
     0
102
RTVSPropertyOp23
 70
     0
102
RTVSPropertyOp24
 70
     0
102
RTVSPropertyOp25
 70
     0
102
RTVSPropertyOp26
 70
     0
102
RTVSPropertyOp27
 70
     0
102
RTVSPropertyOp28
 70
     0
102
RTVSPropertyOp29
 70
     0
102
RTVSPropertyOp30
 70
     0
102
RTVSPropertyOp31
 70
     0
102
RTVSPropertyOp32
 70
     0
102
RTVSPropertyOp33
 70
     0
102
RTVSPropertyOp34
 70
     0
102
RTVSPropertyOp35
 70
     0
102
RTVSPropertyOp36
 70
     0
102
RTVSPropertyOp37
 70
     0
102
RTVSPropertyOp38
 70
     0
102
RTVSPropertyOp39
 70
     0
102
RTVSPropertyOp40
 70
     0
102
RTVSPropertyOp41
 70
     0
102
RTVSPropertyOp42
 70
     0
102
RTVSPropertyOp43
 70
     0
102
RTVSPropertyOp44
 70
     0
102
RTVSPropertyOp45
 70
     0
102
RTVSPropertyOp46
 70
     0
102
RTVSPropertyOp47
 70
     0
102
RTVSPropertyOp48
 70
     0
102
RTVSPropertyOp49
 70
     0
102
RTVSPropertyOp50
 70
     0
102
RTVSPropertyOp51
 70
     0
102
RTVSPropertyOp52
 70
     0
102
RTVSPropertyOp53
 70
     0
102
RTVSPropertyOp54
 70
     0
102
RTVSPropertyOp55
 70
     0
102
RTVSPropertyOp56
 70
     0
102
RTVSPropertyOp57
 70
     0
102
RTVSPost2010Prop28
280
     0
102
RTVSPost2010PropOp28
 70
     0
102
RTVSPost2010Prop29
280
     1
102
RTVSPost2010PropOp29
 70
     0
102
RTVSPost2010Prop30
280
     1
102
RTVSPost2010PropOp30
 70
     0
102
RTVSPost2010Prop31
280
     0
102
RTVSPost2010PropOp31
 70
     0
102
RTVSPost2010Prop32
280
     0
102
RTVSPost2010PropOp32
 70
     0
102
RTVSPost2010Prop33
280
     0
102
RTVSPost2010PropOp33
 70
     0
102
RTVSPost2010Prop34
280
     0
102
RTVSPost2010PropOp34
 70
     0
102
RTVSPost2010Prop35
280
     0
102
RTVSPost2010PropOp35
 70
     0
102
RTVSPost2010Prop36
280
     0
102
RTVSPost2010PropOp36
 70
     0
102
RTVSPost2010Prop37
 90
       50
102
RTVSPost2010PropOp37
 70
     0
102
RTVSPost2010Prop38
140
0.0
102
RTVSPost2010PropOp38
 70
     0
102
RTVSPost2010Prop39
140
1.0
102
RTVSPost2010PropOp39
 70
     0
102
RTVSPost2010Prop40
 90
        0
102
RTVSPost2010PropOp40
 70
     0
102
RTVSPost2010Prop41ColorIndex
 90
       18
102
RTVSPost2010Prop41ColorRGB
 90
        0
102
RTVSPost2010PropOp41
 70
     0
102
RTVSPost2010Prop42
 90
       50
102
RTVSPost2010PropOp42
 70
     0
102
RTVSPost2010Prop43
 90
        3
102
RTVSPost2010PropOp43
 70
     0
102
RTVSPost2010Prop44ColorIndex
 90
        5
102
RTVSPost2010Prop44ColorRGB
 90
      255
102
RTVSPost2010PropOp44
 70
     0
102
RTVSPost2010Prop45
280
     0
102
RTVSPost2010PropOp45
 70
     0
102
RTVSPost2010Prop46
 90
       50
102
RTVSPost2010PropOp46
 70
     0
102
RTVSPost2010Prop47
 90
       50
102
RTVSPost2010PropOp47
 70
     0
102
RTVSPost2010Prop48
 90
       50
102
RTVSPost2010PropOp48
 70
     0
102
RTVSPost2010Prop49
280
     0
102
RTVSPost2010PropOp49
 70
     0
102
RTVSPost2010Prop50
 90
       50
102
RTVSPost2010PropOp50
 70
     0
102
RTVSPost2010Prop51ColorIndex
 90
      256
102
RTVSPost2010Prop51ColorRGB
 90
-16777216
102
RTVSPost2010PropOp51
 70
     0
102
RTVSPost2010Prop52
140
1.0
102
RTVSPost2010PropOp52
 70
     0
102
RTVSPost2010Prop53
 90
        2
102
RTVSPost2010PropOp53
 70
     0
102
RTVSPost2010Prop54
  1
strokes_ogs.tif
102
RTVSPost2010PropOp54
 70
     0
102
RTVSPost2010Prop55
280
     0
102
RTVSPost2010PropOp55
 70
     0
102
RTVSPost2010Prop56
140
1.0
102
RTVSPost2010PropOp56
 70
     0
102
RTVSPost2010Prop57
140
1.0
102
RTVSPost2010PropOp57
 70
     0
  0
XRECORD
  5
3E6
102
{ACAD_REACTORS
330
3E5
102
}
330
3E5
100
AcDbXrecord
280
     1
102
RTVSPropertyOp0
 70
     1
102
RTVSPropertyOp1
 70
     1
102
RTVSPropertyOp2
 70
     1
102
RTVSPropertyOp3
 70
     1
102
RTVSPropertyOp4
 70
     1
102
RTVSPropertyOp5
 70
     1
102
RTVSPropertyOp6
 70
     1
102
RTVSPropertyOp7
 70
     1
102
RTVSPropertyOp8
 70
     1
102
RTVSPropertyOp9
 70
     1
102
RTVSPropertyOp10
 70
     1
102
RTVSPropertyOp11
 70
     1
102
RTVSPropertyOp12
 70
     1
102
RTVSPropertyOp13
 70
     1
102
RTVSPropertyOp14
 70
     1
102
RTVSPropertyOp15
 70
     1
102
RTVSPropertyOp16
 70
     1
102
RTVSPropertyOp17
 70
     1
102
RTVSPropertyOp18
 70
     1
102
RTVSPropertyOp19
 70
     1
102
RTVSPropertyOp20
 70
     1
102
RTVSPropertyOp21
 70
     1
102
RTVSPropertyOp22
 70
     1
102
RTVSPropertyOp23
 70
     1
102
RTVSPropertyOp24
 70
     1
102
RTVSPropertyOp25
 70
     1
102
RTVSPropertyOp26
 70
     1
102
RTVSPropertyOp27
 70
     1
102
RTVSPropertyOp28
 70
     1
102
RTVSPropertyOp29
 70
     1
102
RTVSPropertyOp30
 70
     1
102
RTVSPropertyOp31
 70
     1
102
RTVSPropertyOp32
 70
     1
102
RTVSPropertyOp33
 70
     1
102
RTVSPropertyOp34
 70
     1
102
RTVSPropertyOp35
 70
     1
102
RTVSPropertyOp36
 70
     1
102
RTVSPropertyOp37
 70
     1
102
RTVSPropertyOp38
 70
     1
102
RTVSPropertyOp39
 70
     1
102
RTVSPropertyOp40
 70
     1
102
RTVSPropertyOp41
 70
     1
102
RTVSPropertyOp42
 70
     1
102
RTVSPropertyOp43
 70
     1
102
RTVSPropertyOp44
 70
     1
102
RTVSPropertyOp45
 70
     1
102
RTVSPropertyOp46
 70
     1
102
RTVSPropertyOp47
 70
     1
102
RTVSPropertyOp48
 70
     1
102
RTVSPropertyOp49
 70
     1
102
RTVSPropertyOp50
 70
     1
102
RTVSPropertyOp51
 70
     0
102
RTVSPropertyOp52
 70
     0
102
RTVSPropertyOp53
 70
     1
102
RTVSPropertyOp54
 70
     1
102
RTVSPropertyOp55
 70
     1
102
RTVSPropertyOp56
 70
     1
102
RTVSPropertyOp57
 70
     1
102
RTVSPost2010Prop28
280
     0
102
RTVSPost2010PropOp28
 70
     1
102
RTVSPost2010Prop29
280
     1
102
RTVSPost2010PropOp29
 70
     1
102
RTVSPost2010Prop30
280
     1
102
RTVSPost2010PropOp30
 70
     1
102
RTVSPost2010Prop31
280
     0
102
RTVSPost2010PropOp31
 70
     1
102
RTVSPost2010Prop32
280
     0
102
RTVSPost2010PropOp32
 70
     1
102
RTVSPost2010Prop33
280
     0
102
RTVSPost2010PropOp33
 70
     1
102
RTVSPost2010Prop34
280
     0
102
RTVSPost2010PropOp34
 70
     1
102
RTVSPost2010Prop35
280
     0
102
RTVSPost2010PropOp35
 70
     1
102
RTVSPost2010Prop36
280
     0
102
RTVSPost2010PropOp36
 70
     1
102
RTVSPost2010Prop37
 90
       50
102
RTVSPost2010PropOp37
 70
     1
102
RTVSPost2010Prop38
140
0.0
102
RTVSPost2010PropOp38
 70
     1
102
RTVSPost2010Prop39
140
1.0
102
RTVSPost2010PropOp39
 70
     1
102
RTVSPost2010Prop40
 90
        0
102
RTVSPost2010PropOp40
 70
     1
102
RTVSPost2010Prop41ColorIndex
 90
       18
102
RTVSPost2010Prop41ColorRGB
 90
        0
102
RTVSPost2010PropOp41
 70
     1
102
RTVSPost2010Prop42
 90
       50
102
RTVSPost2010PropOp42
 70
     1
102
RTVSPost2010Prop43
 90
        3
102
RTVSPost2010PropOp43
 70
     1
102
RTVSPost2010Prop44ColorIndex
 90
        5
102
RTVSPost2010Prop44ColorRGB
 90
      255
102
RTVSPost2010PropOp44
 70
     1
102
RTVSPost2010Prop45
280
     0
102
RTVSPost2010PropOp45
 70
     1
102
RTVSPost2010Prop46
 90
       50
102
RTVSPost2010PropOp46
 70
     1
102
RTVSPost2010Prop47
 90
       50
102
RTVSPost2010PropOp47
 70
     1
102
RTVSPost2010Prop48
 90
       50
102
RTVSPost2010PropOp48
 70
     1
102
RTVSPost2010Prop49
280
     0
102
RTVSPost2010PropOp49
 70
     1
102
RTVSPost2010Prop50
 90
       50
102
RTVSPost2010PropOp50
 70
     1
102
RTVSPost2010Prop51ColorIndex
 90
      256
102
RTVSPost2010Prop51ColorRGB
 90
-16777216
102
RTVSPost2010PropOp51
 70
     0
102
RTVSPost2010Prop52
140
1.0
102
RTVSPost2010PropOp52
 70
     0
102
RTVSPost2010Prop53
 90
        2
102
RTVSPost2010PropOp53
 70
     1
102
RTVSPost2010Prop54
  1
strokes_ogs.tif
102
RTVSPost2010PropOp54
 70
     1
102
RTVSPost2010Prop55
280
     0
102
RTVSPost2010PropOp55
 70
     1
102
RTVSPost2010Prop56
140
1.0
102
RTVSPost2010PropOp56
 70
     1
102
RTVSPost2010Prop57
140
1.0
102
RTVSPost2010PropOp57
 70
     1
  0
XRECORD
  5
3EE
102
{ACAD_REACTORS
330
3ED
102
}
330
3ED
100
AcDbXrecord
280
     1
102
RTVSPropertyOp0
 70
     0
102
RTVSPropertyOp1
 70
     0
102
RTVSPropertyOp2
 70
     0
102
RTVSPropertyOp3
 70
     0
102
RTVSPropertyOp4
 70
     0
102
RTVSPropertyOp5
 70
     0
102
RTVSPropertyOp6
 70
     0
102
RTVSPropertyOp7
 70
     0
102
RTVSPropertyOp8
 70
     0
102
RTVSPropertyOp9
 70
     0
102
RTVSPropertyOp10
 70
     0
102
RTVSPropertyOp11
 70
     0
102
RTVSPropertyOp12
 70
     0
102
RTVSPropertyOp13
 70
     0
102
RTVSPropertyOp14
 70
     2
102
RTVSPropertyOp15
 70
     0
102
RTVSPropertyOp16
 70
     0
102
RTVSPropertyOp17
 70
     0
102
RTVSPropertyOp18
 70
     0
102
RTVSPropertyOp19
 70
     0
102
RTVSPropertyOp20
 70
     0
102
RTVSPropertyOp21
 70
     0
102
RTVSPropertyOp22
 70
     0
102
RTVSPropertyOp23
 70
     0
102
RTVSPropertyOp24
 70
     0
102
RTVSPropertyOp25
 70
     0
102
RTVSPropertyOp26
 70
     0
102
RTVSPropertyOp27
 70
     0
102
RTVSPropertyOp28
 70
     0
102
RTVSPropertyOp29
 70
     0
102
RTVSPropertyOp30
 70
     0
102
RTVSPropertyOp31
 70
     0
102
RTVSPropertyOp32
 70
     0
102
RTVSPropertyOp33
 70
     0
102
RTVSPropertyOp34
 70
     0
102
RTVSPropertyOp35
 70
     0
102
RTVSPropertyOp36
 70
     0
102
RTVSPropertyOp37
 70
     0
102
RTVSPropertyOp38
 70
     0
102
RTVSPropertyOp39
 70
     0
102
RTVSPropertyOp40
 70
     0
102
RTVSPropertyOp41
 70
     0
102
RTVSPropertyOp42
 70
     0
102
RTVSPropertyOp43
 70
     0
102
RTVSPropertyOp44
 70
     0
102
RTVSPropertyOp45
 70
     0
102
RTVSPropertyOp46
 70
     0
102
RTVSPropertyOp47
 70
     0
102
RTVSPropertyOp48
 70
     0
102
RTVSPropertyOp49
 70
     0
102
RTVSPropertyOp50
 70
     0
102
RTVSPropertyOp51
 70
     0
102
RTVSPropertyOp52
 70
     0
102
RTVSPropertyOp53
 70
     0
102
RTVSPropertyOp54
 70
     0
102
RTVSPropertyOp55
 70
     0
102
RTVSPropertyOp56
 70
     0
102
RTVSPropertyOp57
 70
     0
102
RTVSPost2010Prop28
280
     0
102
RTVSPost2010PropOp28
 70
     0
102
RTVSPost2010Prop29
280
     1
102
RTVSPost2010PropOp29
 70
     0
102
RTVSPost2010Prop30
280
     1
102
RTVSPost2010PropOp30
 70
     0
102
RTVSPost2010Prop31
280
     0
102
RTVSPost2010PropOp31
 70
     0
102
RTVSPost2010Prop32
280
     0
102
RTVSPost2010PropOp32
 70
     0
102
RTVSPost2010Prop33
280
     0
102
RTVSPost2010PropOp33
 70
     0
102
RTVSPost2010Prop34
280
     0
102
RTVSPost2010PropOp34
 70
     0
102
RTVSPost2010Prop35
280
     0
102
RTVSPost2010PropOp35
 70
     0
102
RTVSPost2010Prop36
280
     0
102
RTVSPost2010PropOp36
 70
     0
102
RTVSPost2010Prop37
 90
       50
102
RTVSPost2010PropOp37
 70
     0
102
RTVSPost2010Prop38
140
0.0
102
RTVSPost2010PropOp38
 70
     0
102
RTVSPost2010Prop39
140
1.0
102
RTVSPost2010PropOp39
 70
     0
102
RTVSPost2010Prop40
 90
        0
102
RTVSPost2010PropOp40
 70
     0
102
RTVSPost2010Prop41ColorIndex
 90
       18
102
RTVSPost2010Prop41ColorRGB
 90
        0
102
RTVSPost2010PropOp41
 70
     0
102
RTVSPost2010Prop42
 90
       50
102
RTVSPost2010PropOp42
 70
     0
102
RTVSPost2010Prop43
 90
        3
102
RTVSPost2010PropOp43
 70
     0
102
RTVSPost2010Prop44ColorIndex
 90
        5
102
RTVSPost2010Prop44ColorRGB
 90
      255
102
RTVSPost2010PropOp44
 70
     0
102
RTVSPost2010Prop45
280
     0
102
RTVSPost2010PropOp45
 70
     0
102
RTVSPost2010Prop46
 90
       50
102
RTVSPost2010PropOp46
 70
     0
102
RTVSPost2010Prop47
 90
       50
102
RTVSPost2010PropOp47
 70
     0
102
RTVSPost2010Prop48
 90
       50
102
RTVSPost2010PropOp48
 70
     0
102
RTVSPost2010Prop49
280
     0
102
RTVSPost2010PropOp49
 70
     0
102
RTVSPost2010Prop50
 90
       50
102
RTVSPost2010PropOp50
 70
     0
102
RTVSPost2010Prop51ColorIndex
 90
      256
102
RTVSPost2010Prop51ColorRGB
 90
-16777216
102
RTVSPost2010PropOp51
 70
     0
102
RTVSPost2010Prop52
140
1.0
102
RTVSPost2010PropOp52
 70
     0
102
RTVSPost2010Prop53
 90
        2
102
RTVSPost2010PropOp53
 70
     0
102
RTVSPost2010Prop54
  1
strokes_ogs.tif
102
RTVSPost2010PropOp54
 70
     0
102
RTVSPost2010Prop55
280
     0
102
RTVSPost2010PropOp55
 70
     0
102
RTVSPost2010Prop56
140
1.0
102
RTVSPost2010PropOp56
 70
     0
102
RTVSPost2010Prop57
140
1.0
102
RTVSPost2010PropOp57
 70
     0
  0
XRECORD
  5
3DC
102
{ACAD_REACTORS
330
3DB
102
}
330
3DB
100
AcDbXrecord
280
     1
102
RTVSPropertyOp0
 70
     1
102
RTVSPropertyOp1
 70
     1
102
RTVSPropertyOp2
 70
     1
102
RTVSPropertyOp3
 70
     1
102
RTVSPropertyOp4
 70
     1
102
RTVSPropertyOp5
 70
     1
102
RTVSPropertyOp6
 70
     1
102
RTVSPropertyOp7
 70
     1
102
RTVSPropertyOp8
 70
     1
102
RTVSPropertyOp9
 70
     1
102
RTVSPropertyOp10
 70
     1
102
RTVSPropertyOp11
 70
     1
102
RTVSPropertyOp12
 70
     1
102
RTVSPropertyOp13
 70
     1
102
RTVSPropertyOp14
 70
     1
102
RTVSPropertyOp15
 70
     1
102
RTVSPropertyOp16
 70
     1
102
RTVSPropertyOp17
 70
     1
102
RTVSPropertyOp18
 70
     1
102
RTVSPropertyOp19
 70
     1
102
RTVSPropertyOp20
 70
     1
102
RTVSPropertyOp21
 70
     1
102
RTVSPropertyOp22
 70
     1
102
RTVSPropertyOp23
 70
     1
102
RTVSPropertyOp24
 70
     1
102
RTVSPropertyOp25
 70
     1
102
RTVSPropertyOp26
 70
     1
102
RTVSPropertyOp27
 70
     1
102
RTVSPropertyOp28
 70
     1
102
RTVSPropertyOp29
 70
     1
102
RTVSPropertyOp30
 70
     1
102
RTVSPropertyOp31
 70
     1
102
RTVSPropertyOp32
 70
     1
102
RTVSPropertyOp33
 70
     1
102
RTVSPropertyOp34
 70
     1
102
RTVSPropertyOp35
 70
     1
102
RTVSPropertyOp36
 70
     1
102
RTVSPropertyOp37
 70
     1
102
RTVSPropertyOp38
 70
     1
102
RTVSPropertyOp39
 70
     1
102
RTVSPropertyOp40
 70
     1
102
RTVSPropertyOp41
 70
     1
102
RTVSPropertyOp42
 70
     1
102
RTVSPropertyOp43
 70
     1
102
RTVSPropertyOp44
 70
     1
102
RTVSPropertyOp45
 70
     1
102
RTVSPropertyOp46
 70
     1
102
RTVSPropertyOp47
 70
     1
102
RTVSPropertyOp48
 70
     1
102
RTVSPropertyOp49
 70
     1
102
RTVSPropertyOp50
 70
     1
102
RTVSPropertyOp51
 70
     0
102
RTVSPropertyOp52
 70
     0
102
RTVSPropertyOp53
 70
     1
102
RTVSPropertyOp54
 70
     1
102
RTVSPropertyOp55
 70
     1
102
RTVSPropertyOp56
 70
     1
102
RTVSPropertyOp57
 70
     1
102
RTVSPost2010Prop28
280
     0
102
RTVSPost2010PropOp28
 70
     1
102
RTVSPost2010Prop29
280
     1
102
RTVSPost2010PropOp29
 70
     1
102
RTVSPost2010Prop30
280
     1
102
RTVSPost2010PropOp30
 70
     1
102
RTVSPost2010Prop31
280
     0
102
RTVSPost2010PropOp31
 70
     1
102
RTVSPost2010Prop32
280
     0
102
RTVSPost2010PropOp32
 70
     1
102
RTVSPost2010Prop33
280
     0
102
RTVSPost2010PropOp33
 70
     1
102
RTVSPost2010Prop34
280
     0
102
RTVSPost2010PropOp34
 70
     1
102
RTVSPost2010Prop35
280
     0
102
RTVSPost2010PropOp35
 70
     1
102
RTVSPost2010Prop36
280
     0
102
RTVSPost2010PropOp36
 70
     1
102
RTVSPost2010Prop37
 90
       50
102
RTVSPost2010PropOp37
 70
     1
102
RTVSPost2010Prop38
140
0.0
102
RTVSPost2010PropOp38
 70
     1
102
RTVSPost2010Prop39
140
1.0
102
RTVSPost2010PropOp39
 70
     1
102
RTVSPost2010Prop40
 90
        0
102
RTVSPost2010PropOp40
 70
     1
102
RTVSPost2010Prop41ColorIndex
 90
       18
102
RTVSPost2010Prop41ColorRGB
 90
        0
102
RTVSPost2010PropOp41
 70
     1
102
RTVSPost2010Prop42
 90
       50
102
RTVSPost2010PropOp42
 70
     1
102
RTVSPost2010Prop43
 90
        3
102
RTVSPost2010PropOp43
 70
     1
102
RTVSPost2010Prop44ColorIndex
 90
        5
102
RTVSPost2010Prop44ColorRGB
 90
      255
102
RTVSPost2010PropOp44
 70
     1
102
RTVSPost2010Prop45
280
     0
102
RTVSPost2010PropOp45
 70
     1
102
RTVSPost2010Prop46
 90
       50
102
RTVSPost2010PropOp46
 70
     1
102
RTVSPost2010Prop47
 90
       50
102
RTVSPost2010PropOp47
 70
     1
102
RTVSPost2010Prop48
 90
       50
102
RTVSPost2010PropOp48
 70
     1
102
RTVSPost2010Prop49
280
     0
102
RTVSPost2010PropOp49
 70
     1
102
RTVSPost2010Prop50
 90
       50
102
RTVSPost2010PropOp50
 70
     1
102
RTVSPost2010Prop51ColorIndex
 90
      256
102
RTVSPost2010Prop51ColorRGB
 90
-16777216
102
RTVSPost2010PropOp51
 70
     0
102
RTVSPost2010Prop52
140
1.0
102
RTVSPost2010PropOp52
 70
     0
102
RTVSPost2010Prop53
 90
        2
102
RTVSPost2010PropOp53
 70
     1
102
RTVSPost2010Prop54
  1
strokes_ogs.tif
102
RTVSPost2010PropOp54
 70
     1
102
RTVSPost2010Prop55
280
     0
102
RTVSPost2010PropOp55
 70
     1
102
RTVSPost2010Prop56
140
1.0
102
RTVSPost2010PropOp56
 70
     1
102
RTVSPost2010Prop57
140
1.0
102
RTVSPost2010PropOp57
 70
     1
  0
XRECORD
  5
3FA
102
{ACAD_REACTORS
330
3F9
102
}
330
3F9
100
AcDbXrecord
280
     1
102
RTVSPropertyOp0
 70
     1
102
RTVSPropertyOp1
 70
     1
102
RTVSPropertyOp2
 70
     1
102
RTVSPropertyOp3
 70
     1
102
RTVSPropertyOp4
 70
     1
102
RTVSPropertyOp5
 70
     1
102
RTVSPropertyOp6
 70
     1
102
RTVSPropertyOp7
 70
     1
102
RTVSPropertyOp8
 70
     1
102
RTVSPropertyOp9
 70
     1
102
RTVSPropertyOp10
 70
     1
102
RTVSPropertyOp11
 70
     1
102
RTVSPropertyOp12
 70
     1
102
RTVSPropertyOp13
 70
     1
102
RTVSPropertyOp14
 70
     1
102
RTVSPropertyOp15
 70
     1
102
RTVSPropertyOp16
 70
     1
102
RTVSPropertyOp17
 70
     1
102
RTVSPropertyOp18
 70
     1
102
RTVSPropertyOp19
 70
     1
102
RTVSPropertyOp20
 70
     1
102
RTVSPropertyOp21
 70
     1
102
RTVSPropertyOp22
 70
     1
102
RTVSPropertyOp23
 70
     1
102
RTVSPropertyOp24
 70
     1
102
RTVSPropertyOp25
 70
     1
102
RTVSPropertyOp26
 70
     1
102
RTVSPropertyOp27
 70
     1
102
RTVSPropertyOp28
 70
     1
102
RTVSPropertyOp29
 70
     1
102
RTVSPropertyOp30
 70
     1
102
RTVSPropertyOp31
 70
     1
102
RTVSPropertyOp32
 70
     1
102
RTVSPropertyOp33
 70
     1
102
RTVSPropertyOp34
 70
     1
102
RTVSPropertyOp35
 70
     1
102
RTVSPropertyOp36
 70
     1
102
RTVSPropertyOp37
 70
     1
102
RTVSPropertyOp38
 70
     1
102
RTVSPropertyOp39
 70
     1
102
RTVSPropertyOp40
 70
     1
102
RTVSPropertyOp41
 70
     1
102
RTVSPropertyOp42
 70
     1
102
RTVSPropertyOp43
 70
     1
102
RTVSPropertyOp44
 70
     1
102
RTVSPropertyOp45
 70
     1
102
RTVSPropertyOp46
 70
     1
102
RTVSPropertyOp47
 70
     1
102
RTVSPropertyOp48
 70
     1
102
RTVSPropertyOp49
 70
     1
102
RTVSPropertyOp50
 70
     1
102
RTVSPropertyOp51
 70
     0
102
RTVSPropertyOp52
 70
     0
102
RTVSPropertyOp53
 70
     1
102
RTVSPropertyOp54
 70
     1
102
RTVSPropertyOp55
 70
     1
102
RTVSPropertyOp56
 70
     1
102
RTVSPropertyOp57
 70
     1
102
RTVSPost2010Prop28
280
     0
102
RTVSPost2010PropOp28
 70
     1
102
RTVSPost2010Prop29
280
     1
102
RTVSPost2010PropOp29
 70
     1
102
RTVSPost2010Prop30
280
     1
102
RTVSPost2010PropOp30
 70
     1
102
RTVSPost2010Prop31
280
     0
102
RTVSPost2010PropOp31
 70
     1
102
RTVSPost2010Prop32
280
     0
102
RTVSPost2010PropOp32
 70
     1
102
RTVSPost2010Prop33
280
     0
102
RTVSPost2010PropOp33
 70
     1
102
RTVSPost2010Prop34
280
     0
102
RTVSPost2010PropOp34
 70
     1
102
RTVSPost2010Prop35
280
     0
102
RTVSPost2010PropOp35
 70
     1
102
RTVSPost2010Prop36
280
     0
102
RTVSPost2010PropOp36
 70
     1
102
RTVSPost2010Prop37
 90
       50
102
RTVSPost2010PropOp37
 70
     1
102
RTVSPost2010Prop38
140
0.0
102
RTVSPost2010PropOp38
 70
     1
102
RTVSPost2010Prop39
140
1.0
102
RTVSPost2010PropOp39
 70
     1
102
RTVSPost2010Prop40
 90
        0
102
RTVSPost2010PropOp40
 70
     1
102
RTVSPost2010Prop41ColorIndex
 90
       18
102
RTVSPost2010Prop41ColorRGB
 90
        0
102
RTVSPost2010PropOp41
 70
     1
102
RTVSPost2010Prop42
 90
       50
102
RTVSPost2010PropOp42
 70
     1
102
RTVSPost2010Prop43
 90
        3
102
RTVSPost2010PropOp43
 70
     1
102
RTVSPost2010Prop44ColorIndex
 90
        5
102
RTVSPost2010Prop44ColorRGB
 90
      255
102
RTVSPost2010PropOp44
 70
     1
102
RTVSPost2010Prop45
280
     0
102
RTVSPost2010PropOp45
 70
     1
102
RTVSPost2010Prop46
 90
       50
102
RTVSPost2010PropOp46
 70
     1
102
RTVSPost2010Prop47
 90
       50
102
RTVSPost2010PropOp47
 70
     1
102
RTVSPost2010Prop48
 90
       50
102
RTVSPost2010PropOp48
 70
     1
102
RTVSPost2010Prop49
280
     0
102
RTVSPost2010PropOp49
 70
     1
102
RTVSPost2010Prop50
 90
       50
102
RTVSPost2010PropOp50
 70
     1
102
RTVSPost2010Prop51ColorIndex
 90
      256
102
RTVSPost2010Prop51ColorRGB
 90
-16777216
102
RTVSPost2010PropOp51
 70
     0
102
RTVSPost2010Prop52
140
1.0
102
RTVSPost2010PropOp52
 70
     0
102
RTVSPost2010Prop53
 90
        2
102
RTVSPost2010PropOp53
 70
     1
102
RTVSPost2010Prop54
  1
strokes_ogs.tif
102
RTVSPost2010PropOp54
 70
     1
102
RTVSPost2010Prop55
280
     0
102
RTVSPost2010PropOp55
 70
     1
102
RTVSPost2010Prop56
140
1.0
102
RTVSPost2010PropOp56
 70
     1
102
RTVSPost2010Prop57
140
1.0
102
RTVSPost2010PropOp57
 70
     1
  0
XRECORD
  5
3F8
102
{ACAD_REACTORS
330
3F7
102
}
330
3F7
100
AcDbXrecord
280
     1
102
RTVSPropertyOp0
 70
     1
102
RTVSPropertyOp1
 70
     1
102
RTVSPropertyOp2
 70
     1
102
RTVSPropertyOp3
 70
     1
102
RTVSPropertyOp4
 70
     1
102
RTVSPropertyOp5
 70
     1
102
RTVSPropertyOp6
 70
     1
102
RTVSPropertyOp7
 70
     1
102
RTVSPropertyOp8
 70
     1
102
RTVSPropertyOp9
 70
     1
102
RTVSPropertyOp10
 70
     1
102
RTVSPropertyOp11
 70
     1
102
RTVSPropertyOp12
 70
     1
102
RTVSPropertyOp13
 70
     1
102
RTVSPropertyOp14
 70
     1
102
RTVSPropertyOp15
 70
     1
102
RTVSPropertyOp16
 70
     1
102
RTVSPropertyOp17
 70
     1
102
RTVSPropertyOp18
 70
     1
102
RTVSPropertyOp19
 70
     1
102
RTVSPropertyOp20
 70
     1
102
RTVSPropertyOp21
 70
     1
102
RTVSPropertyOp22
 70
     1
102
RTVSPropertyOp23
 70
     1
102
RTVSPropertyOp24
 70
     1
102
RTVSPropertyOp25
 70
     1
102
RTVSPropertyOp26
 70
     1
102
RTVSPropertyOp27
 70
     1
102
RTVSPropertyOp28
 70
     1
102
RTVSPropertyOp29
 70
     1
102
RTVSPropertyOp30
 70
     1
102
RTVSPropertyOp31
 70
     1
102
RTVSPropertyOp32
 70
     1
102
RTVSPropertyOp33
 70
     1
102
RTVSPropertyOp34
 70
     1
102
RTVSPropertyOp35
 70
     1
102
RTVSPropertyOp36
 70
     1
102
RTVSPropertyOp37
 70
     1
102
RTVSPropertyOp38
 70
     1
102
RTVSPropertyOp39
 70
     1
102
RTVSPropertyOp40
 70
     1
102
RTVSPropertyOp41
 70
     1
102
RTVSPropertyOp42
 70
     1
102
RTVSPropertyOp43
 70
     1
102
RTVSPropertyOp44
 70
     1
102
RTVSPropertyOp45
 70
     1
102
RTVSPropertyOp46
 70
     1
102
RTVSPropertyOp47
 70
     1
102
RTVSPropertyOp48
 70
     1
102
RTVSPropertyOp49
 70
     1
102
RTVSPropertyOp50
 70
     1
102
RTVSPropertyOp51
 70
     0
102
RTVSPropertyOp52
 70
     0
102
RTVSPropertyOp53
 70
     1
102
RTVSPropertyOp54
 70
     1
102
RTVSPropertyOp55
 70
     1
102
RTVSPropertyOp56
 70
     1
102
RTVSPropertyOp57
 70
     1
102
RTVSPost2010Prop28
280
     0
102
RTVSPost2010PropOp28
 70
     1
102
RTVSPost2010Prop29
280
     1
102
RTVSPost2010PropOp29
 70
     1
102
RTVSPost2010Prop30
280
     1
102
RTVSPost2010PropOp30
 70
     1
102
RTVSPost2010Prop31
280
     0
102
RTVSPost2010PropOp31
 70
     1
102
RTVSPost2010Prop32
280
     0
102
RTVSPost2010PropOp32
 70
     1
102
RTVSPost2010Prop33
280
     0
102
RTVSPost2010PropOp33
 70
     1
102
RTVSPost2010Prop34
280
     0
102
RTVSPost2010PropOp34
 70
     1
102
RTVSPost2010Prop35
280
     0
102
RTVSPost2010PropOp35
 70
     1
102
RTVSPost2010Prop36
280
     0
102
RTVSPost2010PropOp36
 70
     1
102
RTVSPost2010Prop37
 90
       50
102
RTVSPost2010PropOp37
 70
     1
102
RTVSPost2010Prop38
140
0.0
102
RTVSPost2010PropOp38
 70
     1
102
RTVSPost2010Prop39
140
1.0
102
RTVSPost2010PropOp39
 70
     1
102
RTVSPost2010Prop40
 90
        0
102
RTVSPost2010PropOp40
 70
     1
102
RTVSPost2010Prop41ColorIndex
 90
       18
102
RTVSPost2010Prop41ColorRGB
 90
        0
102
RTVSPost2010PropOp41
 70
     1
102
RTVSPost2010Prop42
 90
       50
102
RTVSPost2010PropOp42
 70
     1
102
RTVSPost2010Prop43
 90
        3
102
RTVSPost2010PropOp43
 70
     1
102
RTVSPost2010Prop44ColorIndex
 90
        5
102
RTVSPost2010Prop44ColorRGB
 90
      255
102
RTVSPost2010PropOp44
 70
     1
102
RTVSPost2010Prop45
280
     0
102
RTVSPost2010PropOp45
 70
     1
102
RTVSPost2010Prop46
 90
       50
102
RTVSPost2010PropOp46
 70
     1
102
RTVSPost2010Prop47
 90
       50
102
RTVSPost2010PropOp47
 70
     1
102
RTVSPost2010Prop48
 90
       50
102
RTVSPost2010PropOp48
 70
     1
102
RTVSPost2010Prop49
280
     0
102
RTVSPost2010PropOp49
 70
     1
102
RTVSPost2010Prop50
 90
       50
102
RTVSPost2010PropOp50
 70
     1
102
RTVSPost2010Prop51ColorIndex
 90
      256
102
RTVSPost2010Prop51ColorRGB
 90
-16777216
102
RTVSPost2010PropOp51
 70
     0
102
RTVSPost2010Prop52
140
1.0
102
RTVSPost2010PropOp52
 70
     0
102
RTVSPost2010Prop53
 90
        2
102
RTVSPost2010PropOp53
 70
     1
102
RTVSPost2010Prop54
  1
strokes_ogs.tif
102
RTVSPost2010PropOp54
 70
     1
102
RTVSPost2010Prop55
280
     0
102
RTVSPost2010PropOp55
 70
     1
102
RTVSPost2010Prop56
140
1.0
102
RTVSPost2010PropOp56
 70
     1
102
RTVSPost2010Prop57
140
1.0
102
RTVSPost2010PropOp57
 70
     1
  0
XRECORD
  5
3F2
102
{ACAD_REACTORS
330
3F1
102
}
330
3F1
100
AcDbXrecord
280
     1
102
RTVSPropertyOp0
 70
     1
102
RTVSPropertyOp1
 70
     1
102
RTVSPropertyOp2
 70
     1
102
RTVSPropertyOp3
 70
     1
102
RTVSPropertyOp4
 70
     1
102
RTVSPropertyOp5
 70
     1
102
RTVSPropertyOp6
 70
     1
102
RTVSPropertyOp7
 70
     1
102
RTVSPropertyOp8
 70
     1
102
RTVSPropertyOp9
 70
     1
102
RTVSPropertyOp10
 70
     1
102
RTVSPropertyOp11
 70
     1
102
RTVSPropertyOp12
 70
     1
102
RTVSPropertyOp13
 70
     1
102
RTVSPropertyOp14
 70
     1
102
RTVSPropertyOp15
 70
     1
102
RTVSPropertyOp16
 70
     1
102
RTVSPropertyOp17
 70
     1
102
RTVSPropertyOp18
 70
     1
102
RTVSPropertyOp19
 70
     1
102
RTVSPropertyOp20
 70
     1
102
RTVSPropertyOp21
 70
     1
102
RTVSPropertyOp22
 70
     1
102
RTVSPropertyOp23
 70
     1
102
RTVSPropertyOp24
 70
     1
102
RTVSPropertyOp25
 70
     1
102
RTVSPropertyOp26
 70
     1
102
RTVSPropertyOp27
 70
     1
102
RTVSPropertyOp28
 70
     1
102
RTVSPropertyOp29
 70
     1
102
RTVSPropertyOp30
 70
     1
102
RTVSPropertyOp31
 70
     1
102
RTVSPropertyOp32
 70
     1
102
RTVSPropertyOp33
 70
     1
102
RTVSPropertyOp34
 70
     1
102
RTVSPropertyOp35
 70
     1
102
RTVSPropertyOp36
 70
     1
102
RTVSPropertyOp37
 70
     1
102
RTVSPropertyOp38
 70
     1
102
RTVSPropertyOp39
 70
     1
102
RTVSPropertyOp40
 70
     1
102
RTVSPropertyOp41
 70
     1
102
RTVSPropertyOp42
 70
     1
102
RTVSPropertyOp43
 70
     1
102
RTVSPropertyOp44
 70
     1
102
RTVSPropertyOp45
 70
     1
102
RTVSPropertyOp46
 70
     1
102
RTVSPropertyOp47
 70
     1
102
RTVSPropertyOp48
 70
     1
102
RTVSPropertyOp49
 70
     1
102
RTVSPropertyOp50
 70
     1
102
RTVSPropertyOp51
 70
     0
102
RTVSPropertyOp52
 70
     0
102
RTVSPropertyOp53
 70
     1
102
RTVSPropertyOp54
 70
     1
102
RTVSPropertyOp55
 70
     1
102
RTVSPropertyOp56
 70
     1
102
RTVSPropertyOp57
 70
     1
102
RTVSPost2010Prop28
280
     0
102
RTVSPost2010PropOp28
 70
     1
102
RTVSPost2010Prop29
280
     1
102
RTVSPost2010PropOp29
 70
     1
102
RTVSPost2010Prop30
280
     1
102
RTVSPost2010PropOp30
 70
     1
102
RTVSPost2010Prop31
280
     0
102
RTVSPost2010PropOp31
 70
     1
102
RTVSPost2010Prop32
280
     0
102
RTVSPost2010PropOp32
 70
     1
102
RTVSPost2010Prop33
280
     0
102
RTVSPost2010PropOp33
 70
     1
102
RTVSPost2010Prop34
280
     0
102
RTVSPost2010PropOp34
 70
     1
102
RTVSPost2010Prop35
280
     0
102
RTVSPost2010PropOp35
 70
     1
102
RTVSPost2010Prop36
280
     0
102
RTVSPost2010PropOp36
 70
     1
102
RTVSPost2010Prop37
 90
       50
102
RTVSPost2010PropOp37
 70
     1
102
RTVSPost2010Prop38
140
0.0
102
RTVSPost2010PropOp38
 70
     1
102
RTVSPost2010Prop39
140
1.0
102
RTVSPost2010PropOp39
 70
     1
102
RTVSPost2010Prop40
 90
        0
102
RTVSPost2010PropOp40
 70
     1
102
RTVSPost2010Prop41ColorIndex
 90
       18
102
RTVSPost2010Prop41ColorRGB
 90
        0
102
RTVSPost2010PropOp41
 70
     1
102
RTVSPost2010Prop42
 90
       50
102
RTVSPost2010PropOp42
 70
     1
102
RTVSPost2010Prop43
 90
        3
102
RTVSPost2010PropOp43
 70
     1
102
RTVSPost2010Prop44ColorIndex
 90
        5
102
RTVSPost2010Prop44ColorRGB
 90
      255
102
RTVSPost2010PropOp44
 70
     1
102
RTVSPost2010Prop45
280
     0
102
RTVSPost2010PropOp45
 70
     1
102
RTVSPost2010Prop46
 90
       50
102
RTVSPost2010PropOp46
 70
     1
102
RTVSPost2010Prop47
 90
       50
102
RTVSPost2010PropOp47
 70
     1
102
RTVSPost2010Prop48
 90
       50
102
RTVSPost2010PropOp48
 70
     1
102
RTVSPost2010Prop49
280
     0
102
RTVSPost2010PropOp49
 70
     1
102
RTVSPost2010Prop50
 90
       50
102
RTVSPost2010PropOp50
 70
     1
102
RTVSPost2010Prop51ColorIndex
 90
      256
102
RTVSPost2010Prop51ColorRGB
 90
-16777216
102
RTVSPost2010PropOp51
 70
     0
102
RTVSPost2010Prop52
140
1.0
102
RTVSPost2010PropOp52
 70
     0
102
RTVSPost2010Prop53
 90
        2
102
RTVSPost2010PropOp53
 70
     1
102
RTVSPost2010Prop54
  1
strokes_ogs.tif
102
RTVSPost2010PropOp54
 70
     1
102
RTVSPost2010Prop55
280
     0
102
RTVSPost2010PropOp55
 70
     1
102
RTVSPost2010Prop56
140
1.0
102
RTVSPost2010PropOp56
 70
     1
102
RTVSPost2010Prop57
140
1.0
102
RTVSPost2010PropOp57
 70
     1
  0
XRECORD
  5
3F4
102
{ACAD_REACTORS
330
3F3
102
}
330
3F3
100
AcDbXrecord
280
     1
102
RTVSPropertyOp0
 70
     1
102
RTVSPropertyOp1
 70
     1
102
RTVSPropertyOp2
 70
     1
102
RTVSPropertyOp3
 70
     1
102
RTVSPropertyOp4
 70
     1
102
RTVSPropertyOp5
 70
     1
102
RTVSPropertyOp6
 70
     1
102
RTVSPropertyOp7
 70
     1
102
RTVSPropertyOp8
 70
     1
102
RTVSPropertyOp9
 70
     1
102
RTVSPropertyOp10
 70
     1
102
RTVSPropertyOp11
 70
     1
102
RTVSPropertyOp12
 70
     1
102
RTVSPropertyOp13
 70
     1
102
RTVSPropertyOp14
 70
     1
102
RTVSPropertyOp15
 70
     1
102
RTVSPropertyOp16
 70
     1
102
RTVSPropertyOp17
 70
     1
102
RTVSPropertyOp18
 70
     1
102
RTVSPropertyOp19
 70
     1
102
RTVSPropertyOp20
 70
     1
102
RTVSPropertyOp21
 70
     1
102
RTVSPropertyOp22
 70
     1
102
RTVSPropertyOp23
 70
     1
102
RTVSPropertyOp24
 70
     1
102
RTVSPropertyOp25
 70
     1
102
RTVSPropertyOp26
 70
     1
102
RTVSPropertyOp27
 70
     1
102
RTVSPropertyOp28
 70
     1
102
RTVSPropertyOp29
 70
     1
102
RTVSPropertyOp30
 70
     1
102
RTVSPropertyOp31
 70
     1
102
RTVSPropertyOp32
 70
     1
102
RTVSPropertyOp33
 70
     1
102
RTVSPropertyOp34
 70
     1
102
RTVSPropertyOp35
 70
     1
102
RTVSPropertyOp36
 70
     1
102
RTVSPropertyOp37
 70
     1
102
RTVSPropertyOp38
 70
     1
102
RTVSPropertyOp39
 70
     1
102
RTVSPropertyOp40
 70
     1
102
RTVSPropertyOp41
 70
     1
102
RTVSPropertyOp42
 70
     1
102
RTVSPropertyOp43
 70
     1
102
RTVSPropertyOp44
 70
     1
102
RTVSPropertyOp45
 70
     1
102
RTVSPropertyOp46
 70
     1
102
RTVSPropertyOp47
 70
     1
102
RTVSPropertyOp48
 70
     1
102
RTVSPropertyOp49
 70
     1
102
RTVSPropertyOp50
 70
     1
102
RTVSPropertyOp51
 70
     0
102
RTVSPropertyOp52
 70
     0
102
RTVSPropertyOp53
 70
     1
102
RTVSPropertyOp54
 70
     1
102
RTVSPropertyOp55
 70
     1
102
RTVSPropertyOp56
 70
     1
102
RTVSPropertyOp57
 70
     1
102
RTVSPost2010Prop28
280
     0
102
RTVSPost2010PropOp28
 70
     1
102
RTVSPost2010Prop29
280
     1
102
RTVSPost2010PropOp29
 70
     1
102
RTVSPost2010Prop30
280
     1
102
RTVSPost2010PropOp30
 70
     1
102
RTVSPost2010Prop31
280
     0
102
RTVSPost2010PropOp31
 70
     1
102
RTVSPost2010Prop32
280
     0
102
RTVSPost2010PropOp32
 70
     1
102
RTVSPost2010Prop33
280
     0
102
RTVSPost2010PropOp33
 70
     1
102
RTVSPost2010Prop34
280
     0
102
RTVSPost2010PropOp34
 70
     1
102
RTVSPost2010Prop35
280
     0
102
RTVSPost2010PropOp35
 70
     1
102
RTVSPost2010Prop36
280
     0
102
RTVSPost2010PropOp36
 70
     1
102
RTVSPost2010Prop37
 90
       50
102
RTVSPost2010PropOp37
 70
     1
102
RTVSPost2010Prop38
140
0.0
102
RTVSPost2010PropOp38
 70
     1
102
RTVSPost2010Prop39
140
1.0
102
RTVSPost2010PropOp39
 70
     1
102
RTVSPost2010Prop40
 90
        0
102
RTVSPost2010PropOp40
 70
     1
102
RTVSPost2010Prop41ColorIndex
 90
       18
102
RTVSPost2010Prop41ColorRGB
 90
        0
102
RTVSPost2010PropOp41
 70
     1
102
RTVSPost2010Prop42
 90
       50
102
RTVSPost2010PropOp42
 70
     1
102
RTVSPost2010Prop43
 90
        3
102
RTVSPost2010PropOp43
 70
     1
102
RTVSPost2010Prop44ColorIndex
 90
        5
102
RTVSPost2010Prop44ColorRGB
 90
      255
102
RTVSPost2010PropOp44
 70
     1
102
RTVSPost2010Prop45
280
     0
102
RTVSPost2010PropOp45
 70
     1
102
RTVSPost2010Prop46
 90
       50
102
RTVSPost2010PropOp46
 70
     1
102
RTVSPost2010Prop47
 90
       50
102
RTVSPost2010PropOp47
 70
     1
102
RTVSPost2010Prop48
 90
       50
102
RTVSPost2010PropOp48
 70
     1
102
RTVSPost2010Prop49
280
     0
102
RTVSPost2010PropOp49
 70
     1
102
RTVSPost2010Prop50
 90
       50
102
RTVSPost2010PropOp50
 70
     1
102
RTVSPost2010Prop51ColorIndex
 90
      256
102
RTVSPost2010Prop51ColorRGB
 90
-16777216
102
RTVSPost2010PropOp51
 70
     0
102
RTVSPost2010Prop52
140
1.0
102
RTVSPost2010PropOp52
 70
     0
102
RTVSPost2010Prop53
 90
        2
102
RTVSPost2010PropOp53
 70
     1
102
RTVSPost2010Prop54
  1
strokes_ogs.tif
102
RTVSPost2010PropOp54
 70
     1
102
RTVSPost2010Prop55
280
     0
102
RTVSPost2010PropOp55
 70
     1
102
RTVSPost2010Prop56
140
1.0
102
RTVSPost2010PropOp56
 70
     1
102
RTVSPost2010Prop57
140
1.0
102
RTVSPost2010PropOp57
 70
     1
  0
XRECORD
  5
3E4
102
{ACAD_REACTORS
330
3E3
102
}
330
3E3
100
AcDbXrecord
280
     1
102
RTVSPropertyOp0
 70
     1
102
RTVSPropertyOp1
 70
     1
102
RTVSPropertyOp2
 70
     1
102
RTVSPropertyOp3
 70
     1
102
RTVSPropertyOp4
 70
     1
102
RTVSPropertyOp5
 70
     1
102
RTVSPropertyOp6
 70
     1
102
RTVSPropertyOp7
 70
     1
102
RTVSPropertyOp8
 70
     1
102
RTVSPropertyOp9
 70
     1
102
RTVSPropertyOp10
 70
     1
102
RTVSPropertyOp11
 70
     1
102
RTVSPropertyOp12
 70
     1
102
RTVSPropertyOp13
 70
     1
102
RTVSPropertyOp14
 70
     1
102
RTVSPropertyOp15
 70
     1
102
RTVSPropertyOp16
 70
     1
102
RTVSPropertyOp17
 70
     1
102
RTVSPropertyOp18
 70
     1
102
RTVSPropertyOp19
 70
     1
102
RTVSPropertyOp20
 70
     1
102
RTVSPropertyOp21
 70
     1
102
RTVSPropertyOp22
 70
     1
102
RTVSPropertyOp23
 70
     1
102
RTVSPropertyOp24
 70
     1
102
RTVSPropertyOp25
 70
     1
102
RTVSPropertyOp26
 70
     1
102
RTVSPropertyOp27
 70
     1
102
RTVSPropertyOp28
 70
     1
102
RTVSPropertyOp29
 70
     1
102
RTVSPropertyOp30
 70
     1
102
RTVSPropertyOp31
 70
     1
102
RTVSPropertyOp32
 70
     1
102
RTVSPropertyOp33
 70
     1
102
RTVSPropertyOp34
 70
     1
102
RTVSPropertyOp35
 70
     1
102
RTVSPropertyOp36
 70
     1
102
RTVSPropertyOp37
 70
     1
102
RTVSPropertyOp38
 70
     1
102
RTVSPropertyOp39
 70
     1
102
RTVSPropertyOp40
 70
     1
102
RTVSPropertyOp41
 70
     1
102
RTVSPropertyOp42
 70
     1
102
RTVSPropertyOp43
 70
     1
102
RTVSPropertyOp44
 70
     1
102
RTVSPropertyOp45
 70
     1
102
RTVSPropertyOp46
 70
     1
102
RTVSPropertyOp47
 70
     1
102
RTVSPropertyOp48
 70
     1
102
RTVSPropertyOp49
 70
     1
102
RTVSPropertyOp50
 70
     1
102
RTVSPropertyOp51
 70
     0
102
RTVSPropertyOp52
 70
     0
102
RTVSPropertyOp53
 70
     1
102
RTVSPropertyOp54
 70
     1
102
RTVSPropertyOp55
 70
     1
102
RTVSPropertyOp56
 70
     1
102
RTVSPropertyOp57
 70
     1
102
RTVSPost2010Prop28
280
     0
102
RTVSPost2010PropOp28
 70
     1
102
RTVSPost2010Prop29
280
     1
102
RTVSPost2010PropOp29
 70
     1
102
RTVSPost2010Prop30
280
     1
102
RTVSPost2010PropOp30
 70
     1
102
RTVSPost2010Prop31
280
     0
102
RTVSPost2010PropOp31
 70
     1
102
RTVSPost2010Prop32
280
     0
102
RTVSPost2010PropOp32
 70
     1
102
RTVSPost2010Prop33
280
     0
102
RTVSPost2010PropOp33
 70
     1
102
RTVSPost2010Prop34
280
     0
102
RTVSPost2010PropOp34
 70
     1
102
RTVSPost2010Prop35
280
     0
102
RTVSPost2010PropOp35
 70
     1
102
RTVSPost2010Prop36
280
     0
102
RTVSPost2010PropOp36
 70
     1
102
RTVSPost2010Prop37
 90
       50
102
RTVSPost2010PropOp37
 70
     1
102
RTVSPost2010Prop38
140
0.0
102
RTVSPost2010PropOp38
 70
     1
102
RTVSPost2010Prop39
140
1.0
102
RTVSPost2010PropOp39
 70
     1
102
RTVSPost2010Prop40
 90
        0
102
RTVSPost2010PropOp40
 70
     1
102
RTVSPost2010Prop41ColorIndex
 90
       18
102
RTVSPost2010Prop41ColorRGB
 90
        0
102
RTVSPost2010PropOp41
 70
     1
102
RTVSPost2010Prop42
 90
       50
102
RTVSPost2010PropOp42
 70
     1
102
RTVSPost2010Prop43
 90
        3
102
RTVSPost2010PropOp43
 70
     1
102
RTVSPost2010Prop44ColorIndex
 90
        5
102
RTVSPost2010Prop44ColorRGB
 90
      255
102
RTVSPost2010PropOp44
 70
     1
102
RTVSPost2010Prop45
280
     0
102
RTVSPost2010PropOp45
 70
     1
102
RTVSPost2010Prop46
 90
       50
102
RTVSPost2010PropOp46
 70
     1
102
RTVSPost2010Prop47
 90
       50
102
RTVSPost2010PropOp47
 70
     1
102
RTVSPost2010Prop48
 90
       50
102
RTVSPost2010PropOp48
 70
     1
102
RTVSPost2010Prop49
280
     0
102
RTVSPost2010PropOp49
 70
     1
102
RTVSPost2010Prop50
 90
       50
102
RTVSPost2010PropOp50
 70
     1
102
RTVSPost2010Prop51ColorIndex
 90
      256
102
RTVSPost2010Prop51ColorRGB
 90
-16777216
102
RTVSPost2010PropOp51
 70
     0
102
RTVSPost2010Prop52
140
1.0
102
RTVSPost2010PropOp52
 70
     0
102
RTVSPost2010Prop53
 90
        2
102
RTVSPost2010PropOp53
 70
     1
102
RTVSPost2010Prop54
  1
strokes_ogs.tif
102
RTVSPost2010PropOp54
 70
     1
102
RTVSPost2010Prop55
280
     0
102
RTVSPost2010PropOp55
 70
     1
102
RTVSPost2010Prop56
140
1.0
102
RTVSPost2010PropOp56
 70
     1
102
RTVSPost2010Prop57
140
1.0
102
RTVSPost2010PropOp57
 70
     1
  0
XRECORD
  5
3D6
102
{ACAD_REACTORS
330
3D5
102
}
330
3D5
100
AcDbXrecord
280
     1
102
RTVSPropertyOp0
 70
     1
102
RTVSPropertyOp1
 70
     1
102
RTVSPropertyOp2
 70
     1
102
RTVSPropertyOp3
 70
     1
102
RTVSPropertyOp4
 70
     1
102
RTVSPropertyOp5
 70
     1
102
RTVSPropertyOp6
 70
     1
102
RTVSPropertyOp7
 70
     1
102
RTVSPropertyOp8
 70
     1
102
RTVSPropertyOp9
 70
     1
102
RTVSPropertyOp10
 70
     1
102
RTVSPropertyOp11
 70
     1
102
RTVSPropertyOp12
 70
     1
102
RTVSPropertyOp13
 70
     1
102
RTVSPropertyOp14
 70
     1
102
RTVSPropertyOp15
 70
     1
102
RTVSPropertyOp16
 70
     1
102
RTVSPropertyOp17
 70
     1
102
RTVSPropertyOp18
 70
     1
102
RTVSPropertyOp19
 70
     1
102
RTVSPropertyOp20
 70
     1
102
RTVSPropertyOp21
 70
     1
102
RTVSPropertyOp22
 70
     1
102
RTVSPropertyOp23
 70
     1
102
RTVSPropertyOp24
 70
     1
102
RTVSPropertyOp25
 70
     1
102
RTVSPropertyOp26
 70
     1
102
RTVSPropertyOp27
 70
     1
102
RTVSPropertyOp28
 70
     1
102
RTVSPropertyOp29
 70
     1
102
RTVSPropertyOp30
 70
     1
102
RTVSPropertyOp31
 70
     1
102
RTVSPropertyOp32
 70
     1
102
RTVSPropertyOp33
 70
     1
102
RTVSPropertyOp34
 70
     1
102
RTVSPropertyOp35
 70
     1
102
RTVSPropertyOp36
 70
     1
102
RTVSPropertyOp37
 70
     1
102
RTVSPropertyOp38
 70
     1
102
RTVSPropertyOp39
 70
     1
102
RTVSPropertyOp40
 70
     1
102
RTVSPropertyOp41
 70
     1
102
RTVSPropertyOp42
 70
     1
102
RTVSPropertyOp43
 70
     1
102
RTVSPropertyOp44
 70
     1
102
RTVSPropertyOp45
 70
     1
102
RTVSPropertyOp46
 70
     1
102
RTVSPropertyOp47
 70
     1
102
RTVSPropertyOp48
 70
     1
102
RTVSPropertyOp49
 70
     1
102
RTVSPropertyOp50
 70
     1
102
RTVSPropertyOp51
 70
     0
102
RTVSPropertyOp52
 70
     0
102
RTVSPropertyOp53
 70
     1
102
RTVSPropertyOp54
 70
     1
102
RTVSPropertyOp55
 70
     1
102
RTVSPropertyOp56
 70
     1
102
RTVSPropertyOp57
 70
     1
102
RTVSPost2010Prop28
280
     0
102
RTVSPost2010PropOp28
 70
     1
102
RTVSPost2010Prop29
280
     1
102
RTVSPost2010PropOp29
 70
     1
102
RTVSPost2010Prop30
280
     1
102
RTVSPost2010PropOp30
 70
     1
102
RTVSPost2010Prop31
280
     0
102
RTVSPost2010PropOp31
 70
     1
102
RTVSPost2010Prop32
280
     0
102
RTVSPost2010PropOp32
 70
     1
102
RTVSPost2010Prop33
280
     0
102
RTVSPost2010PropOp33
 70
     1
102
RTVSPost2010Prop34
280
     0
102
RTVSPost2010PropOp34
 70
     1
102
RTVSPost2010Prop35
280
     0
102
RTVSPost2010PropOp35
 70
     1
102
RTVSPost2010Prop36
280
     0
102
RTVSPost2010PropOp36
 70
     1
102
RTVSPost2010Prop37
 90
       50
102
RTVSPost2010PropOp37
 70
     1
102
RTVSPost2010Prop38
140
0.0
102
RTVSPost2010PropOp38
 70
     1
102
RTVSPost2010Prop39
140
1.0
102
RTVSPost2010PropOp39
 70
     1
102
RTVSPost2010Prop40
 90
        0
102
RTVSPost2010PropOp40
 70
     1
102
RTVSPost2010Prop41ColorIndex
 90
       18
102
RTVSPost2010Prop41ColorRGB
 90
        0
102
RTVSPost2010PropOp41
 70
     1
102
RTVSPost2010Prop42
 90
       50
102
RTVSPost2010PropOp42
 70
     1
102
RTVSPost2010Prop43
 90
        3
102
RTVSPost2010PropOp43
 70
     1
102
RTVSPost2010Prop44ColorIndex
 90
        5
102
RTVSPost2010Prop44ColorRGB
 90
      255
102
RTVSPost2010PropOp44
 70
     1
102
RTVSPost2010Prop45
280
     0
102
RTVSPost2010PropOp45
 70
     1
102
RTVSPost2010Prop46
 90
       50
102
RTVSPost2010PropOp46
 70
     1
102
RTVSPost2010Prop47
 90
       50
102
RTVSPost2010PropOp47
 70
     1
102
RTVSPost2010Prop48
 90
       50
102
RTVSPost2010PropOp48
 70
     1
102
RTVSPost2010Prop49
280
     0
102
RTVSPost2010PropOp49
 70
     1
102
RTVSPost2010Prop50
 90
       50
102
RTVSPost2010PropOp50
 70
     1
102
RTVSPost2010Prop51ColorIndex
 90
      256
102
RTVSPost2010Prop51ColorRGB
 90
-16777216
102
RTVSPost2010PropOp51
 70
     0
102
RTVSPost2010Prop52
140
1.0
102
RTVSPost2010PropOp52
 70
     0
102
RTVSPost2010Prop53
 90
        2
102
RTVSPost2010PropOp53
 70
     1
102
RTVSPost2010Prop54
  1
strokes_ogs.tif
102
RTVSPost2010PropOp54
 70
     1
102
RTVSPost2010Prop55
280
     0
102
RTVSPost2010PropOp55
 70
     1
102
RTVSPost2010Prop56
140
1.0
102
RTVSPost2010PropOp56
 70
     1
102
RTVSPost2010Prop57
140
1.0
102
RTVSPost2010PropOp57
 70
     1
  0
XRECORD
  5
3F6
102
{ACAD_REACTORS
330
3F5
102
}
330
3F5
100
AcDbXrecord
280
     1
102
RTVSPropertyOp0
 70
     1
102
RTVSPropertyOp1
 70
     1
102
RTVSPropertyOp2
 70
     1
102
RTVSPropertyOp3
 70
     1
102
RTVSPropertyOp4
 70
     1
102
RTVSPropertyOp5
 70
     1
102
RTVSPropertyOp6
 70
     1
102
RTVSPropertyOp7
 70
     1
102
RTVSPropertyOp8
 70
     1
102
RTVSPropertyOp9
 70
     1
102
RTVSPropertyOp10
 70
     1
102
RTVSPropertyOp11
 70
     1
102
RTVSPropertyOp12
 70
     1
102
RTVSPropertyOp13
 70
     1
102
RTVSPropertyOp14
 70
     1
102
RTVSPropertyOp15
 70
     1
102
RTVSPropertyOp16
 70
     1
102
RTVSPropertyOp17
 70
     1
102
RTVSPropertyOp18
 70
     1
102
RTVSPropertyOp19
 70
     1
102
RTVSPropertyOp20
 70
     1
102
RTVSPropertyOp21
 70
     1
102
RTVSPropertyOp22
 70
     1
102
RTVSPropertyOp23
 70
     1
102
RTVSPropertyOp24
 70
     1
102
RTVSPropertyOp25
 70
     1
102
RTVSPropertyOp26
 70
     1
102
RTVSPropertyOp27
 70
     1
102
RTVSPropertyOp28
 70
     1
102
RTVSPropertyOp29
 70
     1
102
RTVSPropertyOp30
 70
     1
102
RTVSPropertyOp31
 70
     1
102
RTVSPropertyOp32
 70
     1
102
RTVSPropertyOp33
 70
     1
102
RTVSPropertyOp34
 70
     1
102
RTVSPropertyOp35
 70
     1
102
RTVSPropertyOp36
 70
     1
102
RTVSPropertyOp37
 70
     1
102
RTVSPropertyOp38
 70
     1
102
RTVSPropertyOp39
 70
     1
102
RTVSPropertyOp40
 70
     1
102
RTVSPropertyOp41
 70
     1
102
RTVSPropertyOp42
 70
     1
102
RTVSPropertyOp43
 70
     1
102
RTVSPropertyOp44
 70
     1
102
RTVSPropertyOp45
 70
     1
102
RTVSPropertyOp46
 70
     1
102
RTVSPropertyOp47
 70
     1
102
RTVSPropertyOp48
 70
     1
102
RTVSPropertyOp49
 70
     1
102
RTVSPropertyOp50
 70
     1
102
RTVSPropertyOp51
 70
     0
102
RTVSPropertyOp52
 70
     0
102
RTVSPropertyOp53
 70
     1
102
RTVSPropertyOp54
 70
     1
102
RTVSPropertyOp55
 70
     1
102
RTVSPropertyOp56
 70
     1
102
RTVSPropertyOp57
 70
     1
102
RTVSPost2010Prop28
280
     0
102
RTVSPost2010PropOp28
 70
     1
102
RTVSPost2010Prop29
280
     1
102
RTVSPost2010PropOp29
 70
     1
102
RTVSPost2010Prop30
280
     1
102
RTVSPost2010PropOp30
 70
     1
102
RTVSPost2010Prop31
280
     0
102
RTVSPost2010PropOp31
 70
     1
102
RTVSPost2010Prop32
280
     0
102
RTVSPost2010PropOp32
 70
     1
102
RTVSPost2010Prop33
280
     0
102
RTVSPost2010PropOp33
 70
     1
102
RTVSPost2010Prop34
280
     0
102
RTVSPost2010PropOp34
 70
     1
102
RTVSPost2010Prop35
280
     0
102
RTVSPost2010PropOp35
 70
     1
102
RTVSPost2010Prop36
280
     0
102
RTVSPost2010PropOp36
 70
     1
102
RTVSPost2010Prop37
 90
       50
102
RTVSPost2010PropOp37
 70
     1
102
RTVSPost2010Prop38
140
0.0
102
RTVSPost2010PropOp38
 70
     1
102
RTVSPost2010Prop39
140
1.0
102
RTVSPost2010PropOp39
 70
     1
102
RTVSPost2010Prop40
 90
        0
102
RTVSPost2010PropOp40
 70
     1
102
RTVSPost2010Prop41ColorIndex
 90
       18
102
RTVSPost2010Prop41ColorRGB
 90
        0
102
RTVSPost2010PropOp41
 70
     1
102
RTVSPost2010Prop42
 90
       50
102
RTVSPost2010PropOp42
 70
     1
102
RTVSPost2010Prop43
 90
        3
102
RTVSPost2010PropOp43
 70
     1
102
RTVSPost2010Prop44ColorIndex
 90
        5
102
RTVSPost2010Prop44ColorRGB
 90
      255
102
RTVSPost2010PropOp44
 70
     1
102
RTVSPost2010Prop45
280
     0
102
RTVSPost2010PropOp45
 70
     1
102
RTVSPost2010Prop46
 90
       50
102
RTVSPost2010PropOp46
 70
     1
102
RTVSPost2010Prop47
 90
       50
102
RTVSPost2010PropOp47
 70
     1
102
RTVSPost2010Prop48
 90
       50
102
RTVSPost2010PropOp48
 70
     1
102
RTVSPost2010Prop49
280
     0
102
RTVSPost2010PropOp49
 70
     1
102
RTVSPost2010Prop50
 90
       50
102
RTVSPost2010PropOp50
 70
     1
102
RTVSPost2010Prop51ColorIndex
 90
      256
102
RTVSPost2010Prop51ColorRGB
 90
-16777216
102
RTVSPost2010PropOp51
 70
     0
102
RTVSPost2010Prop52
140
1.0
102
RTVSPost2010PropOp52
 70
     0
102
RTVSPost2010Prop53
 90
        2
102
RTVSPost2010PropOp53
 70
     1
102
RTVSPost2010Prop54
  1
strokes_ogs.tif
102
RTVSPost2010PropOp54
 70
     1
102
RTVSPost2010Prop55
280
     0
102
RTVSPost2010PropOp55
 70
     1
102
RTVSPost2010Prop56
140
1.0
102
RTVSPost2010PropOp56
 70
     1
102
RTVSPost2010Prop57
140
1.0
102
RTVSPost2010PropOp57
 70
     1
  0
ENDSEC
  0
EOF
