  0
SECTION
  2
HEADER
  9
$ACADVER
  1
AC1015
  9
$ACADMAINTVER
 70
     6
  9
$DWGCODEPAGE
  3
ANSI_932
  9
$INSBASE
 10
0.0
 20
0.0
 30
0.0
  9
$EXTMIN
 10
0.0
 20
0.0
 30
0.0
  9
$EXTMAX
 10
594.0
 20
420.0
 30
0.0
  9
$LIMMIN
 10
0.0
 20
0.0
  9
$LIMMAX
 10
594.0
 20
420.0
  9
$ORTHOMODE
 70
     0
  9
$REGENMODE
 70
     1
  9
$FILLMODE
 70
     1
  9
$QTEXTMODE
 70
     0
  9
$MIRRTEXT
 70
     1
  9
$LTSCALE
 40
1.0
  9
$ATTMODE
 70
     1
  9
$TEXTSIZE
 40
2.5
  9
$TRACEWID
 40
1.0
  9
$TEXTSTYLE
  7
FX_VECTOR
  9
$CLAYER
  8
0
  9
$CELTYPE
  6
ByLayer
  9
$CECOLOR
 62
   256
  9
$CELTSCALE
 40
1.0
  9
$DISPSILH
 70
     0
  9
$DIMSCALE
 40
1.0
  9
$DIMASZ
 40
4.0
  9
$DIMEXO
 40
1.0
  9
$DIMDLI
 40
10.0
  9
$DIMRND
 40
0.0
  9
$DIMDLE
 40
6.0
  9
$DIMEXE
 40
1.0
  9
$DIMTP
 40
0.0
  9
$DIMTM
 40
0.0
  9
$DIMTXT
 40
4.0
  9
$DIMCEN
 40
2.5
  9
$DIMTSZ
 40
0.0
  9
$DIMTOL
 70
     0
  9
$DIMLIM
 70
     0
  9
$DIMTIH
 70
     0
  9
$DIMTOH
 70
     0
  9
$DIMSE1
 70
     0
  9
$DIMSE2
 70
     0
  9
$DIMTAD
 70
     1
  9
$DIMZIN
 70
     8
  9
$DIMBLK
  1

  9
$DIMASO
 70
     1
  9
$DIMSHO
 70
     1
  9
$DIMPOST
  1

  9
$DIMAPOST
  1

  9
$DIMALT
 70
     0
  9
$DIMALTD
 70
     3
  9
$DIMALTF
 40
0.03937
  9
$DIMLFAC
 40
1.0
  9
$DIMTOFL
 70
     1
  9
$DIMTVP
 40
0.0
  9
$DIMTIX
 70
     0
  9
$DIMSOXD
 70
     0
  9
$DIMSAH
 70
     1
  9
$DIMBLK1
  1
FXTIP_ARROW_S
  9
$DIMBLK2
  1
FXTIP_ARROW_E
  9
$DIMSTYLE
  2
FX_DIMINFO
  9
$DIMCLRD
 70
     7
  9
$DIMCLRE
 70
     7
  9
$DIMCLRT
 70
     7
  9
$DIMTFAC
 40
1.0
  9
$DIMGAP
 40
1.0
  9
$DIMJUST
 70
     0
  9
$DIMSD1
 70
     0
  9
$DIMSD2
 70
     0
  9
$DIMTOLJ
 70
     1
  9
$DIMTZIN
 70
     8
  9
$DIMALTZ
 70
     0
  9
$DIMALTTZ
 70
     0
  9
$DIMUPT
 70
     0
  9
$DIMDEC
 70
     2
  9
$DIMTDEC
 70
     2
  9
$DIMALTU
 70
     2
  9
$DIMALTTD
 70
     3
  9
$DIMTXSTY
  7
FX_VECTOR
  9
$DIMAUNIT
 70
     0
  9
$DIMADEC
 70
     2
  9
$DIMALTRND
 40
0.0
  9
$DIMAZIN
 70
     2
  9
$DIMDSEP
 70
    46
  9
$DIMATFIT
 70
     3
  9
$DIMFRAC
 70
     0
  9
$DIMLDRBLK
  1
FXTIP_ARROW_S
  9
$DIMLUNIT
 70
     2
  9
$DIMLWD
 70
    -2
  9
$DIMLWE
 70
    -2
  9
$DIMTMOVE
 70
     0
  9
$LUNITS
 70
     2
  9
$LUPREC
 70
     4
  9
$SKETCHINC
 40
1.0
  9
$FILLETRAD
 40
10.0
  9
$AUNITS
 70
     0
  9
$AUPREC
 70
     0
  9
$MENU
  1
.
  9
$ELEVATION
 40
0.0
  9
$PELEVATION
 40
0.0
  9
$THICKNESS
 40
0.0
  9
$LIMCHECK
 70
     0
  9
$CHAMFERA
 40
0.0
  9
$CHAMFERB
 40
0.0
  9
$CHAMFERC
 40
0.0
  9
$CHAMFERD
 40
0.0
  9
$SKPOLY
 70
     0
  9
$TDCREATE
 40
2457836.688289861
  9
$TDUCREATE
 40
2457836.313289861
  9
$TDUPDATE
 40
2457836.688290405
  9
$TDUUPDATE
 40
2457836.313290405
  9
$TDINDWG
 40
0.0000000116
  9
$TDUSRTIMER
 40
0.0000000116
  9
$USRTIMER
 70
     1
  9
$ANGBASE
 50
0.0
  9
$ANGDIR
 70
     0
  9
$PDMODE
 70
     0
  9
$PDSIZE
 40
0.0
  9
$PLINEWID
 40
0.0
  9
$SPLFRAME
 70
     0
  9
$SPLINETYPE
 70
     6
  9
$SPLINESEGS
 70
     8
  9
$HANDSEED
  5
2BE
  9
$SURFTAB1
 70
     6
  9
$SURFTAB2
 70
     6
  9
$SURFTYPE
 70
     6
  9
$SURFU
 70
     6
  9
$SURFV
 70
     6
  9
$UCSBASE
  2

  9
$UCSNAME
  2

  9
$UCSORG
 10
0.0
 20
0.0
 30
0.0
  9
$UCSXDIR
 10
1.0
 20
0.0
 30
0.0
  9
$UCSYDIR
 10
0.0
 20
1.0
 30
0.0
  9
$UCSORTHOREF
  2

  9
$UCSORTHOVIEW
 70
     0
  9
$UCSORGTOP
 10
0.0
 20
0.0
 30
0.0
  9
$UCSORGBOTTOM
 10
0.0
 20
0.0
 30
0.0
  9
$UCSORGLEFT
 10
0.0
 20
0.0
 30
0.0
  9
$UCSORGRIGHT
 10
0.0
 20
0.0
 30
0.0
  9
$UCSORGFRONT
 10
0.0
 20
0.0
 30
0.0
  9
$UCSORGBACK
 10
0.0
 20
0.0
 30
0.0
  9
$PUCSBASE
  2

  9
$PUCSNAME
  2

  9
$PUCSORG
 10
0.0
 20
0.0
 30
0.0
  9
$PUCSXDIR
 10
1.0
 20
0.0
 30
0.0
  9
$PUCSYDIR
 10
0.0
 20
1.0
 30
0.0
  9
$PUCSORTHOREF
  2

  9
$PUCSORTHOVIEW
 70
     0
  9
$PUCSORGTOP
 10
0.0
 20
0.0
 30
0.0
  9
$PUCSORGBOTTOM
 10
0.0
 20
0.0
 30
0.0
  9
$PUCSORGLEFT
 10
0.0
 20
0.0
 30
0.0
  9
$PUCSORGRIGHT
 10
0.0
 20
0.0
 30
0.0
  9
$PUCSORGFRONT
 10
0.0
 20
0.0
 30
0.0
  9
$PUCSORGBACK
 10
0.0
 20
0.0
 30
0.0
  9
$USERI1
 70
     0
  9
$USERI2
 70
     0
  9
$USERI3
 70
     0
  9
$USERI4
 70
     0
  9
$USERI5
 70
     0
  9
$USERR1
 40
0.0
  9
$USERR2
 40
0.0
  9
$USERR3
 40
0.0
  9
$USERR4
 40
0.0
  9
$USERR5
 40
0.0
  9
$WORLDVIEW
 70
     1
  9
$SHADEDGE
 70
     3
  9
$SHADEDIF
 70
    70
  9
$TILEMODE
 70
     1
  9
$MAXACTVP
 70
    64
  9
$PINSBASE
 10
0.0
 20
0.0
 30
0.0
  9
$PLIMCHECK
 70
     0
  9
$PEXTMIN
 10
1.000000000000000E+20
 20
1.000000000000000E+20
 30
1.000000000000000E+20
  9
$PEXTMAX
 10
-1.000000000000000E+20
 20
-1.000000000000000E+20
 30
-1.000000000000000E+20
  9
$PLIMMIN
 10
0.0
 20
0.0
  9
$PLIMMAX
 10
420.0
 20
297.0
  9
$UNITMODE
 70
     0
  9
$VISRETAIN
 70
     1
  9
$PLINEGEN
 70
     0
  9
$PSLTSCALE
 70
     1
  9
$TREEDEPTH
 70
  3020
  9
$CMLSTYLE
  2
Standard
  9
$CMLJUST
 70
     0
  9
$CMLSCALE
 40
20.0
  9
$PROXYGRAPHICS
 70
     1
  9
$MEASUREMENT
 70
     1
  9
$CELWEIGHT
370
    -1
  9
$ENDCAPS
280
     0
  9
$JOINSTYLE
280
     0
  9
$LWDISPLAY
290
     0
  9
$INSUNITS
 70
     4
  9
$HYPERLINKBASE
  1

  9
$STYLESHEET
  1

  9
$XEDIT
290
     1
  9
$CEPSNTYPE
380
     0
  9
$PSTYLEMODE
290
     1
  9
$FINGERPRINTGUID
  2
{E15A28B5-8759-494E-A366-8952AEC3187E}
  9
$VERSIONGUID
  2
{FAEB1C32-E019-11D5-929B-00C0DF256EC4}
  9
$EXTNAMES
290
     1
  9
$PSVPSCALE
 40
0.0
  9
$OLESTARTUP
290
     0
  0
ENDSEC
  0
SECTION
  2
CLASSES
  0
CLASS
  1
ACDBDICTIONARYWDFLT
  2
AcDbDictionaryWithDefault
  3
ObjectDBX Classes
 90
        0
280
     0
281
     0
  0
CLASS
  1
VISUALSTYLE
  2
AcDbVisualStyle
  3
ObjectDBX Classes
 90
     4095
280
     0
281
     0
  0
CLASS
  1
MATERIAL
  2
AcDbMaterial
  3
ObjectDBX Classes
 90
     1153
280
     0
281
     0
  0
CLASS
  1
SCALE
  2
AcDbScale
  3
ObjectDBX Classes
 90
     1153
280
     0
281
     0
  0
CLASS
  1
TABLESTYLE
  2
AcDbTableStyle
  3
ObjectDBX Classes
 90
     4095
280
     0
281
     0
  0
CLASS
  1
MLEADERSTYLE
  2
AcDbMLeaderStyle
  3
ACDB_MLEADERSTYLE_CLASS
 90
     4095
280
     0
281
     0
  0
CLASS
  1
SUN
  2
AcDbSun
  3
SCENEOE
 90
     1153
280
     0
281
     0
  0
CLASS
  1
DICTIONARYVAR
  2
AcDbDictionaryVar
  3
ObjectDBX Classes
 90
        0
280
     0
281
     0
  0
CLASS
  1
ACDBPLACEHOLDER
  2
AcDbPlaceHolder
  3
ObjectDBX Classes
 90
        0
280
     0
281
     0
  0
CLASS
  1
LAYOUT
  2
AcDbLayout
  3
ObjectDBX Classes
 90
        0
280
     0
281
     0
  0
ENDSEC
  0
SECTION
  2
TABLES
  0
TABLE
  2
VPORT
  5
8
102
{ACAD_XDICTIONARY
360
281
102
}
330
0
100
AcDbSymbolTable
 70
     1
  0
VPORT
  5
29
330
8
100
AcDbSymbolTableRecord
100
AcDbViewportTableRecord
  2
*Active
 70
     0
 10
0.0
 20
0.0
 11
1.0
 21
1.0
 12
297.0
 22
210.0
 13
0.0
 23
0.0
 14
10.0
 24
10.0
 15
10.0
 25
10.0
 16
0.0
 26
0.0
 36
1.0
 17
0.0
 27
0.0
 37
0.0
 40
420.0
 41
1.414285714285714
 42
50.0
 43
0.0
 44
0.0
 50
0.0
 51
0.0
 71
     0
 72
   100
 73
     1
 74
     3
 75
     0
 76
     0
 77
     0
 78
     0
281
     0
 65
     1
110
0.0
120
0.0
130
0.0
111
1.0
121
0.0
131
0.0
112
0.0
122
1.0
132
0.0
 79
     0
146
0.0
  0
ENDTAB
  0
TABLE
  2
LTYPE
  5
5
330
0
100
AcDbSymbolTable
 70
     5
  0
LTYPE
  5
14
330
5
100
AcDbSymbolTableRecord
100
AcDbLinetypeTableRecord
  2
ByBlock
 70
     0
  3

 72
    65
 73
     0
 40
0.0
  0
LTYPE
  5
15
330
5
100
AcDbSymbolTableRecord
100
AcDbLinetypeTableRecord
  2
ByLayer
 70
     0
  3

 72
    65
 73
     0
 40
0.0
  0
LTYPE
  5
16
330
5
100
AcDbSymbolTableRecord
100
AcDbLinetypeTableRecord
  2
Continuous
 70
     0
  3
Continuous
 72
    65
 73
     0
 40
0.0
  0
LTYPE
  5
6E
330
5
100
AcDbSymbolTableRecord
100
AcDbLinetypeTableRecord
  2
DASHDOT
 70
     0
  3
Dash dot __ . __ . __ . __ . __ . __ . __ . __
 72
    65
 73
     4
 40
13.0
 49
10.0
 74
     0
 49
-1.0
 74
     0
 49
1.0
 74
     0
 49
-1.0
 74
     0
  0
LTYPE
  5
71
330
5
100
AcDbSymbolTableRecord
100
AcDbLinetypeTableRecord
  2
DASHED
 70
     0
  3
Dashed __ __ __ __ __ __ __ __ __ __ __ __ __ _
 72
    65
 73
     2
 40
2.0
 49
1.0
 74
     0
 49
-1.0
 74
     0
  0
ENDTAB
  0
TABLE
  2
LAYER
  5
2
330
0
100
AcDbSymbolTable
 70
     7
  0
LAYER
  5
10
330
2
100
AcDbSymbolTableRecord
100
AcDbLayerTableRecord
  2
0
 70
     0
 62
     7
  6
Continuous
370
    -3
390
F
  0
LAYER
  5
DF
330
2
100
AcDbSymbolTableRecord
100
AcDbLayerTableRecord
  2
Defpoints
 70
     0
 62
     7
  6
Continuous
290
     0
370
    -3
390
F
  0
LAYER
  5
E4
330
2
100
AcDbSymbolTableRecord
100
AcDbLayerTableRecord
  2
図面枠ﾚｲﾔ
 70
     0
 62
     7
  6
Continuous
370
    -3
390
F
  0
LAYER
  5
109
330
2
100
AcDbSymbolTableRecord
100
AcDbLayerTableRecord
  2
GR1
 70
     0
 62
     7
  6
Continuous
370
    -3
390
F
  0
LAYER
  5
18D
330
2
100
AcDbSymbolTableRecord
100
AcDbLayerTableRecord
  2
基準ﾚｲﾔｸﾞﾙｰﾌﾟ
 70
     0
 62
     7
  6
Continuous
370
    -3
390
F
  0
ENDTAB
  0
TABLE
  2
STYLE
  5
3
330
0
100
AcDbSymbolTable
 70
     3
  0
STYLE
  5
11
330
3
100
AcDbSymbolTableRecord
100
AcDbTextStyleTableRecord
  2
Standard
 70
     0
 40
0.0
 41
1.0
 50
0.0
 71
     0
 42
2.5
  3
txt
  4

  0
STYLE
  5
74
330
3
100
AcDbSymbolTableRecord
100
AcDbTextStyleTableRecord
  2
FX_VECTOR
 70
     0
 40
0.0
 41
1.0
 50
0.0
 71
     0
 42
2.5
  3
MONOTXT.SHX
  4
BigFont.shx
  0
STYLE
  5
E0
330
3
100
AcDbSymbolTableRecord
100
AcDbTextStyleTableRecord
  2
DEFAULT
 70
     0
 40
0.0
 41
1.0
 50
0.0
 71
     0
 42
2.5
  3

  4

1001
ACAD
1000
ＭＳ ゴシック
1071
    32817
  0
ENDTAB
  0
TABLE
  2
VIEW
  5
6
330
0
100
AcDbSymbolTable
 70
     0
  0
ENDTAB
  0
TABLE
  2
UCS
  5
7
330
0
100
AcDbSymbolTable
 70
     0
  0
ENDTAB
  0
TABLE
  2
APPID
  5
9
330
0
100
AcDbSymbolTable
 70
     2
  0
APPID
  5
12
330
9
100
AcDbSymbolTableRecord
100
AcDbRegAppTableRecord
  2
ACAD
 70
     0
  0
APPID
  5
2BB
330
9
100
AcDbSymbolTableRecord
100
AcDbRegAppTableRecord
  2
ACAD_MLEADERVER
 70
     0
  0
ENDTAB
  0
TABLE
  2
DIMSTYLE
  5
A
330
0
100
AcDbSymbolTable
 70
     2
100
AcDbDimStyleTable
  0
DIMSTYLE
105
27
330
A
100
AcDbSymbolTableRecord
100
AcDbDimStyleTableRecord
  2
ISO-25
 70
     0
 41
2.5
 42
0.625
 43
3.75
 44
1.25
 73
     0
 74
     0
 77
     1
 78
     8
140
2.5
141
2.5
143
0.03937007874016
147
0.625
171
     3
172
     1
178
     0
271
     2
272
     2
274
     3
278
    44
283
     0
284
     8
340
11
  0
DIMSTYLE
105
DE
330
A
100
AcDbSymbolTableRecord
100
AcDbDimStyleTableRecord
  2
FX_DIMINFO
 70
     0
 41
4.0
 42
1.0
 43
10.0
 44
1.0
 46
6.0
 73
     0
 74
     0
 77
     1
 78
     8
 79
     2
140
4.0
141
2.5
143
0.03937
147
1.0
171
     3
172
     1
173
     1
176
     7
177
     7
271
     2
178
     7
179
     2
271
     2
272
     2
274
     3
284
     8
340
74
341
78
343
78
344
7E
  0
ENDTAB
  0
TABLE
  2
BLOCK_RECORD
  5
1
330
0
100
AcDbSymbolTable
 70
    25
  0
BLOCK_RECORD
  5
1F
330
1
100
AcDbSymbolTableRecord
100
AcDbBlockTableRecord
  2
*Model_Space
340
22
  0
BLOCK_RECORD
  5
1B
330
1
100
AcDbSymbolTableRecord
100
AcDbBlockTableRecord
  2
*Paper_Space
340
1E
  0
BLOCK_RECORD
  5
23
330
1
100
AcDbSymbolTableRecord
100
AcDbBlockTableRecord
  2
*Paper_Space0
340
26
  0
BLOCK_RECORD
  5
75
330
1
100
AcDbSymbolTableRecord
100
AcDbBlockTableRecord
  2
FXTIP_NONE
340
0
  0
BLOCK_RECORD
  5
78
330
1
100
AcDbSymbolTableRecord
100
AcDbBlockTableRecord
  2
FXTIP_ARROW_S
340
0
102
{BLKREFS
331
116
331
11C
331
121
331
1A3
331
1A9
331
1AF
331
1B5
331
1BB
331
1C1
331
1C7
331
213
331
219
331
220
102
}
  0
BLOCK_RECORD
  5
7E
330
1
100
AcDbSymbolTableRecord
100
AcDbBlockTableRecord
  2
FXTIP_ARROW_E
340
0
102
{BLKREFS
331
117
331
11D
331
122
331
1A4
331
1AA
331
1B0
331
1B6
331
1BC
331
1C2
331
1C8
331
214
331
21A
331
221
102
}
  0
BLOCK_RECORD
  5
84
330
1
100
AcDbSymbolTableRecord
100
AcDbBlockTableRecord
  2
FXTIP_BLACKDOT_S
340
0
  0
BLOCK_RECORD
  5
8A
330
1
100
AcDbSymbolTableRecord
100
AcDbBlockTableRecord
  2
FXTIP_BLACKDOT_E
340
0
  0
BLOCK_RECORD
  5
90
330
1
100
AcDbSymbolTableRecord
100
AcDbBlockTableRecord
  2
FXTIP_TRIANGLE_S
340
0
  0
BLOCK_RECORD
  5
97
330
1
100
AcDbSymbolTableRecord
100
AcDbBlockTableRecord
  2
FXTIP_TRIANGLE_E
340
0
  0
BLOCK_RECORD
  5
9E
330
1
100
AcDbSymbolTableRecord
100
AcDbBlockTableRecord
  2
FXTIP_ARCHITECT_S
340
0
  0
BLOCK_RECORD
  5
A4
330
1
100
AcDbSymbolTableRecord
100
AcDbBlockTableRecord
  2
FXTIP_ARCHITECT_E
340
0
  0
BLOCK_RECORD
  5
AA
330
1
100
AcDbSymbolTableRecord
100
AcDbBlockTableRecord
  2
FXTIP_CIVIL_S
340
0
  0
BLOCK_RECORD
  5
B0
330
1
100
AcDbSymbolTableRecord
100
AcDbBlockTableRecord
  2
FXTIP_CIVIL_E
340
0
  0
BLOCK_RECORD
  5
B6
330
1
100
AcDbSymbolTableRecord
100
AcDbBlockTableRecord
  2
FXTIP_WHITEDOT_S
340
0
  0
BLOCK_RECORD
  5
BB
330
1
100
AcDbSymbolTableRecord
100
AcDbBlockTableRecord
  2
FXTIP_WHITEDOT_E
340
0
  0
BLOCK_RECORD
  5
C0
330
1
100
AcDbSymbolTableRecord
100
AcDbBlockTableRecord
  2
FXTIP_UPARROW_S
340
0
  0
BLOCK_RECORD
  5
C5
330
1
100
AcDbSymbolTableRecord
100
AcDbBlockTableRecord
  2
FXTIP_UPARROW_E
340
0
  0
BLOCK_RECORD
  5
CA
330
1
100
AcDbSymbolTableRecord
100
AcDbBlockTableRecord
  2
FXTIP_DOWNARROW_S
340
0
  0
BLOCK_RECORD
  5
CF
330
1
100
AcDbSymbolTableRecord
100
AcDbBlockTableRecord
  2
FXTIP_DOWNARROW_E
340
0
  0
BLOCK_RECORD
  5
D4
330
1
100
AcDbSymbolTableRecord
100
AcDbBlockTableRecord
  2
FXTIP_BLACKTRIANGLE_S
340
0
  0
BLOCK_RECORD
  5
D9
330
1
100
AcDbSymbolTableRecord
100
AcDbBlockTableRecord
  2
FXTIP_BLACKTRIANGLE_E
340
0
  0
BLOCK_RECORD
  5
E1
330
1
100
AcDbSymbolTableRecord
100
AcDbBlockTableRecord
  2
BLKF023
340
0
102
{BLKREFS
331
E5
102
}
  0
BLOCK_RECORD
  5
EE
330
1
100
AcDbSymbolTableRecord
100
AcDbBlockTableRecord
  2
BLKF024
340
0
102
{BLKREFS
331
F1
102
}
  0
BLOCK_RECORD
  5
F6
330
1
100
AcDbSymbolTableRecord
100
AcDbBlockTableRecord
  2
BLKF025
340
0
102
{BLKREFS
331
F9
102
}
  0
BLOCK_RECORD
  5
225
330
1
100
AcDbSymbolTableRecord
100
AcDbBlockTableRecord
  2
BLKF026
340
0
102
{BLKREFS
331
228
102
}
  0
BLOCK_RECORD
  5
238
330
1
100
AcDbSymbolTableRecord
100
AcDbBlockTableRecord
  2
BLKF027
340
0
102
{BLKREFS
331
23B
102
}
  0
ENDTAB
  0
ENDSEC
  0
SECTION
  2
BLOCKS
  0
BLOCK
  5
20
330
1F
100
AcDbEntity
  8
0
100
AcDbBlockBegin
  2
*Model_Space
 70
     0
 10
0.0
 20
0.0
 30
0.0
  3
*Model_Space
  1

  0
ENDBLK
  5
21
330
1F
100
AcDbEntity
  8
0
100
AcDbBlockEnd
  0
BLOCK
  5
1C
330
1B
100
AcDbEntity
 67
     1
  8
0
100
AcDbBlockBegin
  2
*Paper_Space
 70
     0
 10
0.0
 20
0.0
 30
0.0
  3
*Paper_Space
  1

  0
ENDBLK
  5
1D
330
1B
100
AcDbEntity
 67
     1
  8
0
100
AcDbBlockEnd
  0
BLOCK
  5
24
330
23
100
AcDbEntity
  8
0
100
AcDbBlockBegin
  2
*Paper_Space0
 70
     0
 10
0.0
 20
0.0
 30
0.0
  3
*Paper_Space0
  1

  0
ENDBLK
  5
25
330
23
100
AcDbEntity
  8
0
100
AcDbBlockEnd
  0
BLOCK
  5
76
330
75
100
AcDbEntity
  8
0
100
AcDbBlockBegin
  2
FXTIP_NONE
 70
     0
 10
0.0
 20
0.0
 30
0.0
  3
FXTIP_NONE
  1

  0
ENDBLK
  5
77
330
75
100
AcDbEntity
  8
0
100
AcDbBlockEnd
  0
BLOCK
  5
79
330
78
100
AcDbEntity
  8
0
100
AcDbBlockBegin
  2
FXTIP_ARROW_S
 70
     0
 10
0.0
 20
0.0
 30
0.0
  3
FXTIP_ARROW_S
  1

  0
LINE
  5
7B
330
78
100
AcDbEntity
  8
0
  6
Continuous
 62
     0
370
    -2
100
AcDbLine
 10
0.0
 20
0.0
 30
0.0
 11
-1.0
 21
0.0000000000000001
 31
0.0
  0
LINE
  5
7C
330
78
100
AcDbEntity
  8
0
  6
Continuous
 62
     0
370
    -2
100
AcDbLine
 10
0.0
 20
0.0
 30
0.0
 11
-0.9659258262890683
 21
-0.2588190451025206
 31
0.0
  0
LINE
  5
7D
330
78
100
AcDbEntity
  8
0
  6
Continuous
 62
     0
370
    -2
100
AcDbLine
 10
0.0
 20
0.0
 30
0.0
 11
-0.9659258262890683
 21
0.2588190451025209
 31
0.0
  0
ENDBLK
  5
7A
330
78
100
AcDbEntity
  8
0
100
AcDbBlockEnd
  0
BLOCK
  5
7F
330
7E
100
AcDbEntity
  8
0
100
AcDbBlockBegin
  2
FXTIP_ARROW_E
 70
     0
 10
0.0
 20
0.0
 30
0.0
  3
FXTIP_ARROW_E
  1

  0
LINE
  5
81
330
7E
100
AcDbEntity
  8
0
  6
Continuous
 62
     0
370
    -2
100
AcDbLine
 10
0.0
 20
0.0
 30
0.0
 11
-1.0
 21
0.0
 31
0.0
  0
LINE
  5
82
330
7E
100
AcDbEntity
  8
0
  6
Continuous
 62
     0
370
    -2
100
AcDbLine
 10
0.0
 20
0.0
 30
0.0
 11
-0.9659258262890683
 21
0.2588190451025207
 31
0.0
  0
LINE
  5
83
330
7E
100
AcDbEntity
  8
0
  6
Continuous
 62
     0
370
    -2
100
AcDbLine
 10
0.0
 20
0.0
 30
0.0
 11
-0.9659258262890683
 21
-0.2588190451025207
 31
0.0
  0
ENDBLK
  5
80
330
7E
100
AcDbEntity
  8
0
100
AcDbBlockEnd
  0
BLOCK
  5
85
330
84
100
AcDbEntity
  8
0
100
AcDbBlockBegin
  2
FXTIP_BLACKDOT_S
 70
     0
 10
0.0
 20
0.0
 30
0.0
  3
FXTIP_BLACKDOT_S
  1

  0
LINE
  5
87
330
84
100
AcDbEntity
  8
0
  6
Continuous
 62
     0
370
    -2
100
AcDbLine
 10
0.0
 20
0.0
 30
0.0
 11
-1.0
 21
0.0000000000000001
 31
0.0
  0
LWPOLYLINE
  5
88
330
84
100
AcDbEntity
  8
0
  6
Continuous
 62
     0
370
    -2
100
AcDbPolyline
 90
        2
 70
     1
 43
0.0625
 10
-0.03125
 20
0.0
 42
1.0
 10
0.03125
 20
0.0
 42
1.0
  0
CIRCLE
  5
89
330
84
100
AcDbEntity
  8
0
  6
Continuous
 62
     0
370
    -2
100
AcDbCircle
 10
0.0
 20
0.0
 30
0.0
 40
0.0625
  0
ENDBLK
  5
86
330
84
100
AcDbEntity
  8
0
100
AcDbBlockEnd
  0
BLOCK
  5
8B
330
8A
100
AcDbEntity
  8
0
100
AcDbBlockBegin
  2
FXTIP_BLACKDOT_E
 70
     0
 10
0.0
 20
0.0
 30
0.0
  3
FXTIP_BLACKDOT_E
  1

  0
LINE
  5
8D
330
8A
100
AcDbEntity
  8
0
  6
Continuous
 62
     0
370
    -2
100
AcDbLine
 10
0.0
 20
0.0
 30
0.0
 11
-1.0
 21
0.0
 31
0.0
  0
LWPOLYLINE
  5
8E
330
8A
100
AcDbEntity
  8
0
  6
Continuous
 62
     0
370
    -2
100
AcDbPolyline
 90
        2
 70
     1
 43
0.0625
 10
-0.03125
 20
0.0
 42
1.0
 10
0.03125
 20
0.0
 42
1.0
  0
CIRCLE
  5
8F
330
8A
100
AcDbEntity
  8
0
  6
Continuous
 62
     0
370
    -2
100
AcDbCircle
 10
0.0
 20
0.0
 30
0.0
 40
0.0625
  0
ENDBLK
  5
8C
330
8A
100
AcDbEntity
  8
0
100
AcDbBlockEnd
  0
BLOCK
  5
91
330
90
100
AcDbEntity
  8
0
100
AcDbBlockBegin
  2
FXTIP_TRIANGLE_S
 70
     0
 10
0.0
 20
0.0
 30
0.0
  3
FXTIP_TRIANGLE_S
  1

  0
LINE
  5
93
330
90
100
AcDbEntity
  8
0
  6
Continuous
 62
     0
370
    -2
100
AcDbLine
 10
0.0
 20
0.0
 30
0.0
 11
-1.0
 21
0.0000000000000001
 31
0.0
  0
LINE
  5
94
330
90
100
AcDbEntity
  8
0
  6
Continuous
 62
     0
370
    -2
100
AcDbLine
 10
0.0
 20
0.0
 30
0.0
 11
-0.9659258262890683
 21
-0.2588190451025206
 31
0.0
  0
LINE
  5
95
330
90
100
AcDbEntity
  8
0
  6
Continuous
 62
     0
370
    -2
100
AcDbLine
 10
0.0
 20
0.0
 30
0.0
 11
-0.9659258262890683
 21
0.2588190451025209
 31
0.0
  0
LINE
  5
96
330
90
100
AcDbEntity
  8
0
  6
Continuous
 62
     0
370
    -2
100
AcDbLine
 10
-0.9659258262890683
 20
-0.2588190451025206
 30
0.0
 11
-0.9659258262890683
 21
0.2588190451025209
 31
0.0
  0
ENDBLK
  5
92
330
90
100
AcDbEntity
  8
0
100
AcDbBlockEnd
  0
BLOCK
  5
98
330
97
100
AcDbEntity
  8
0
100
AcDbBlockBegin
  2
FXTIP_TRIANGLE_E
 70
     0
 10
0.0
 20
0.0
 30
0.0
  3
FXTIP_TRIANGLE_E
  1

  0
LINE
  5
9A
330
97
100
AcDbEntity
  8
0
  6
Continuous
 62
     0
370
    -2
100
AcDbLine
 10
0.0
 20
0.0
 30
0.0
 11
-1.0
 21
0.0
 31
0.0
  0
LINE
  5
9B
330
97
100
AcDbEntity
  8
0
  6
Continuous
 62
     0
370
    -2
100
AcDbLine
 10
0.0
 20
0.0
 30
0.0
 11
-0.9659258262890683
 21
0.2588190451025207
 31
0.0
  0
LINE
  5
9C
330
97
100
AcDbEntity
  8
0
  6
Continuous
 62
     0
370
    -2
100
AcDbLine
 10
0.0
 20
0.0
 30
0.0
 11
-0.9659258262890683
 21
-0.2588190451025207
 31
0.0
  0
LINE
  5
9D
330
97
100
AcDbEntity
  8
0
  6
Continuous
 62
     0
370
    -2
100
AcDbLine
 10
-0.9659258262890683
 20
0.2588190451025207
 30
0.0
 11
-0.9659258262890683
 21
-0.2588190451025207
 31
0.0
  0
ENDBLK
  5
99
330
97
100
AcDbEntity
  8
0
100
AcDbBlockEnd
  0
BLOCK
  5
9F
330
9E
100
AcDbEntity
  8
0
100
AcDbBlockBegin
  2
FXTIP_ARCHITECT_S
 70
     0
 10
0.0
 20
0.0
 30
0.0
  3
FXTIP_ARCHITECT_S
  1

  0
LINE
  5
A1
330
9E
100
AcDbEntity
  8
0
  6
Continuous
 62
     0
370
    -2
100
AcDbLine
 10
0.0
 20
0.0
 30
0.0
 11
-1.0
 21
0.0000000000000001
 31
0.0
  0
LINE
  5
A2
330
9E
100
AcDbEntity
  8
0
  6
Continuous
 62
     0
370
    -2
100
AcDbLine
 10
0.0
 20
0.0
 30
0.0
 11
-0.7071067811865476
 21
-0.7071067811865474
 31
0.0
  0
LINE
  5
A3
330
9E
100
AcDbEntity
  8
0
  6
Continuous
 62
     0
370
    -2
100
AcDbLine
 10
0.0
 20
0.0
 30
0.0
 11
0.7071067811865476
 21
0.7071067811865474
 31
0.0
  0
ENDBLK
  5
A0
330
9E
100
AcDbEntity
  8
0
100
AcDbBlockEnd
  0
BLOCK
  5
A5
330
A4
100
AcDbEntity
  8
0
100
AcDbBlockBegin
  2
FXTIP_ARCHITECT_E
 70
     0
 10
0.0
 20
0.0
 30
0.0
  3
FXTIP_ARCHITECT_E
  1

  0
LINE
  5
A7
330
A4
100
AcDbEntity
  8
0
  6
Continuous
 62
     0
370
    -2
100
AcDbLine
 10
0.0
 20
0.0
 30
0.0
 11
-1.0
 21
0.0
 31
0.0
  0
LINE
  5
A8
330
A4
100
AcDbEntity
  8
0
  6
Continuous
 62
     0
370
    -2
100
AcDbLine
 10
0.0
 20
0.0
 30
0.0
 11
0.7071067811865475
 21
0.7071067811865475
 31
0.0
  0
LINE
  5
A9
330
A4
100
AcDbEntity
  8
0
  6
Continuous
 62
     0
370
    -2
100
AcDbLine
 10
0.0
 20
0.0
 30
0.0
 11
-0.7071067811865475
 21
-0.7071067811865475
 31
0.0
  0
ENDBLK
  5
A6
330
A4
100
AcDbEntity
  8
0
100
AcDbBlockEnd
  0
BLOCK
  5
AB
330
AA
100
AcDbEntity
  8
0
100
AcDbBlockBegin
  2
FXTIP_CIVIL_S
 70
     0
 10
0.0
 20
0.0
 30
0.0
  3
FXTIP_CIVIL_S
  1

  0
LINE
  5
AD
330
AA
100
AcDbEntity
  8
0
  6
Continuous
 62
     0
370
    -2
100
AcDbLine
 10
0.0
 20
0.0
 30
0.0
 11
-1.0
 21
0.0000000000000001
 31
0.0
  0
LINE
  5
AE
330
AA
100
AcDbEntity
  8
0
  6
Continuous
 62
     0
370
    -2
100
AcDbLine
 10
0.0
 20
-0.0625
 30
0.0
 11
-1.0
 21
-0.0624999999999999
 31
0.0
  0
LINE
  5
AF
330
AA
100
AcDbEntity
  8
0
  6
Continuous
 62
     0
370
    -2
100
AcDbLine
 10
0.0
 20
-0.125
 30
0.0
 11
-1.0
 21
-0.1249999999999999
 31
0.0
  0
ENDBLK
  5
AC
330
AA
100
AcDbEntity
  8
0
100
AcDbBlockEnd
  0
BLOCK
  5
B1
330
B0
100
AcDbEntity
  8
0
100
AcDbBlockBegin
  2
FXTIP_CIVIL_E
 70
     0
 10
0.0
 20
0.0
 30
0.0
  3
FXTIP_CIVIL_E
  1

  0
LINE
  5
B3
330
B0
100
AcDbEntity
  8
0
  6
Continuous
 62
     0
370
    -2
100
AcDbLine
 10
0.0
 20
0.0
 30
0.0
 11
-1.0
 21
0.0
 31
0.0
  0
LINE
  5
B4
330
B0
100
AcDbEntity
  8
0
  6
Continuous
 62
     0
370
    -2
100
AcDbLine
 10
0.0
 20
0.0625
 30
0.0
 11
-1.0
 21
0.0625
 31
0.0
  0
LINE
  5
B5
330
B0
100
AcDbEntity
  8
0
  6
Continuous
 62
     0
370
    -2
100
AcDbLine
 10
0.0
 20
0.125
 30
0.0
 11
-1.0
 21
0.125
 31
0.0
  0
ENDBLK
  5
B2
330
B0
100
AcDbEntity
  8
0
100
AcDbBlockEnd
  0
BLOCK
  5
B7
330
B6
100
AcDbEntity
  8
0
100
AcDbBlockBegin
  2
FXTIP_WHITEDOT_S
 70
     0
 10
0.0
 20
0.0
 30
0.0
  3
FXTIP_WHITEDOT_S
  1

  0
LINE
  5
B9
330
B6
100
AcDbEntity
  8
0
  6
Continuous
 62
     0
370
    -2
100
AcDbLine
 10
0.0
 20
0.0
 30
0.0
 11
-1.0
 21
0.0000000000000001
 31
0.0
  0
CIRCLE
  5
BA
330
B6
100
AcDbEntity
  8
0
  6
Continuous
 62
     0
370
    -2
100
AcDbCircle
 10
0.0
 20
0.0
 30
0.0
 40
0.0625
  0
ENDBLK
  5
B8
330
B6
100
AcDbEntity
  8
0
100
AcDbBlockEnd
  0
BLOCK
  5
BC
330
BB
100
AcDbEntity
  8
0
100
AcDbBlockBegin
  2
FXTIP_WHITEDOT_E
 70
     0
 10
0.0
 20
0.0
 30
0.0
  3
FXTIP_WHITEDOT_E
  1

  0
LINE
  5
BE
330
BB
100
AcDbEntity
  8
0
  6
Continuous
 62
     0
370
    -2
100
AcDbLine
 10
0.0
 20
0.0
 30
0.0
 11
-1.0
 21
0.0
 31
0.0
  0
CIRCLE
  5
BF
330
BB
100
AcDbEntity
  8
0
  6
Continuous
 62
     0
370
    -2
100
AcDbCircle
 10
0.0
 20
0.0
 30
0.0
 40
0.0625
  0
ENDBLK
  5
BD
330
BB
100
AcDbEntity
  8
0
100
AcDbBlockEnd
  0
BLOCK
  5
C1
330
C0
100
AcDbEntity
  8
0
100
AcDbBlockBegin
  2
FXTIP_UPARROW_S
 70
     0
 10
0.0
 20
0.0
 30
0.0
  3
FXTIP_UPARROW_S
  1

  0
LINE
  5
C3
330
C0
100
AcDbEntity
  8
0
  6
Continuous
 62
     0
370
    -2
100
AcDbLine
 10
0.0
 20
0.0
 30
0.0
 11
-1.0
 21
0.0000000000000001
 31
0.0
  0
LINE
  5
C4
330
C0
100
AcDbEntity
  8
0
  6
Continuous
 62
     0
370
    -2
100
AcDbLine
 10
0.0
 20
0.0
 30
0.0
 11
-0.9659258262890683
 21
-0.2588190451025206
 31
0.0
  0
ENDBLK
  5
C2
330
C0
100
AcDbEntity
  8
0
100
AcDbBlockEnd
  0
BLOCK
  5
C6
330
C5
100
AcDbEntity
  8
0
100
AcDbBlockBegin
  2
FXTIP_UPARROW_E
 70
     0
 10
0.0
 20
0.0
 30
0.0
  3
FXTIP_UPARROW_E
  1

  0
LINE
  5
C8
330
C5
100
AcDbEntity
  8
0
  6
Continuous
 62
     0
370
    -2
100
AcDbLine
 10
0.0
 20
0.0
 30
0.0
 11
-1.0
 21
0.0
 31
0.0
  0
LINE
  5
C9
330
C5
100
AcDbEntity
  8
0
  6
Continuous
 62
     0
370
    -2
100
AcDbLine
 10
0.0
 20
0.0
 30
0.0
 11
-0.9659258262890683
 21
0.2588190451025207
 31
0.0
  0
ENDBLK
  5
C7
330
C5
100
AcDbEntity
  8
0
100
AcDbBlockEnd
  0
BLOCK
  5
CB
330
CA
100
AcDbEntity
  8
0
100
AcDbBlockBegin
  2
FXTIP_DOWNARROW_S
 70
     0
 10
0.0
 20
0.0
 30
0.0
  3
FXTIP_DOWNARROW_S
  1

  0
LINE
  5
CD
330
CA
100
AcDbEntity
  8
0
  6
Continuous
 62
     0
370
    -2
100
AcDbLine
 10
0.0
 20
0.0
 30
0.0
 11
-1.0
 21
0.0000000000000001
 31
0.0
  0
LINE
  5
CE
330
CA
100
AcDbEntity
  8
0
  6
Continuous
 62
     0
370
    -2
100
AcDbLine
 10
0.0
 20
0.0
 30
0.0
 11
-0.9659258262890683
 21
0.2588190451025209
 31
0.0
  0
ENDBLK
  5
CC
330
CA
100
AcDbEntity
  8
0
100
AcDbBlockEnd
  0
BLOCK
  5
D0
330
CF
100
AcDbEntity
  8
0
100
AcDbBlockBegin
  2
FXTIP_DOWNARROW_E
 70
     0
 10
0.0
 20
0.0
 30
0.0
  3
FXTIP_DOWNARROW_E
  1

  0
LINE
  5
D2
330
CF
100
AcDbEntity
  8
0
  6
Continuous
 62
     0
370
    -2
100
AcDbLine
 10
0.0
 20
0.0
 30
0.0
 11
-1.0
 21
0.0
 31
0.0
  0
LINE
  5
D3
330
CF
100
AcDbEntity
  8
0
  6
Continuous
 62
     0
370
    -2
100
AcDbLine
 10
0.0
 20
0.0
 30
0.0
 11
-0.9659258262890683
 21
-0.2588190451025207
 31
0.0
  0
ENDBLK
  5
D1
330
CF
100
AcDbEntity
  8
0
100
AcDbBlockEnd
  0
BLOCK
  5
D5
330
D4
100
AcDbEntity
  8
0
100
AcDbBlockBegin
  2
FXTIP_BLACKTRIANGLE_S
 70
     0
 10
0.0
 20
0.0
 30
0.0
  3
FXTIP_BLACKTRIANGLE_S
  1

  0
LINE
  5
D7
330
D4
100
AcDbEntity
  8
0
  6
Continuous
 62
     0
370
    -2
100
AcDbLine
 10
0.0
 20
0.0
 30
0.0
 11
-1.0
 21
0.0000000000000001
 31
0.0
  0
SOLID
  5
D8
330
D4
100
AcDbEntity
  8
0
  6
Continuous
 62
     0
370
    -2
100
AcDbTrace
 10
0.0
 20
0.0
 30
0.0
 11
-0.9659258262890683
 21
-0.2588190451025206
 31
0.0
 12
-0.9659258262890683
 22
0.2588190451025209
 32
0.0
 13
-0.9659258262890683
 23
0.2588190451025209
 33
0.0
  0
ENDBLK
  5
D6
330
D4
100
AcDbEntity
  8
0
100
AcDbBlockEnd
  0
BLOCK
  5
DA
330
D9
100
AcDbEntity
  8
0
100
AcDbBlockBegin
  2
FXTIP_BLACKTRIANGLE_E
 70
     0
 10
0.0
 20
0.0
 30
0.0
  3
FXTIP_BLACKTRIANGLE_E
  1

  0
LINE
  5
DC
330
D9
100
AcDbEntity
  8
0
  6
Continuous
 62
     0
370
    -2
100
AcDbLine
 10
0.0
 20
0.0
 30
0.0
 11
-1.0
 21
0.0
 31
0.0
  0
SOLID
  5
DD
330
D9
100
AcDbEntity
  8
0
  6
Continuous
 62
     0
370
    -2
100
AcDbTrace
 10
0.0
 20
0.0
 30
0.0
 11
-0.9659258262890683
 21
0.2588190451025207
 31
0.0
 12
-0.9659258262890683
 22
-0.2588190451025207
 32
0.0
 13
-0.9659258262890683
 23
-0.2588190451025207
 33
0.0
  0
ENDBLK
  5
DB
330
D9
100
AcDbEntity
  8
0
100
AcDbBlockEnd
  0
BLOCK
  5
E2
330
E1
100
AcDbEntity
  8
0
100
AcDbBlockBegin
  2
BLKF023
 70
     0
 10
0.0
 20
0.0
 30
0.0
  3
BLKF023
  1

  0
LINE
  5
E6
330
E1
100
AcDbEntity
  8
図面枠ﾚｲﾔ
  6
Continuous
 62
     7
370
    50
100
AcDbLine
 10
10.0
 20
10.0
 30
0.0
 11
584.0
 21
10.0
 31
0.0
  0
LINE
  5
E7
330
E1
100
AcDbEntity
  8
図面枠ﾚｲﾔ
  6
Continuous
 62
     7
370
    50
100
AcDbLine
 10
10.0
 20
10.0
 30
0.0
 11
10.0
 21
410.0
 31
0.0
  0
LINE
  5
E8
330
E1
100
AcDbEntity
  8
図面枠ﾚｲﾔ
  6
Continuous
 62
     7
370
    50
100
AcDbLine
 10
10.0
 20
410.0
 30
0.0
 11
584.0
 21
410.0
 31
0.0
  0
LINE
  5
E9
330
E1
100
AcDbEntity
  8
図面枠ﾚｲﾔ
  6
Continuous
 62
     7
370
    50
100
AcDbLine
 10
584.0
 20
410.0
 30
0.0
 11
584.0
 21
10.0
 31
0.0
  0
LINE
  5
EA
330
E1
100
AcDbEntity
  8
図面枠ﾚｲﾔ
  6
Continuous
 62
     7
370
    25
100
AcDbLine
 10
327.0
 20
9.999999999999998
 30
0.0
 11
327.0
 21
20.0
 31
0.0
  0
TEXT
  5
EB
330
E1
100
AcDbEntity
  8
図面枠ﾚｲﾔ
  6
Continuous
 62
     7
370
    25
100
AcDbText
 10
311.7388305664062
 20
11.59687900543213
 30
0.0
 40
6.648748874664307
  1
品名
 41
1.083413404130886
  7
FX_VECTOR
 72
     5
 11
323.05837059021
 21
11.59687900543213
 31
0.0
100
AcDbText
  0
LINE
  5
EC
330
E1
100
AcDbEntity
  8
図面枠ﾚｲﾔ
  6
Continuous
 62
     7
370
    50
100
AcDbLine
 10
407.0
 20
20.0
 30
0.0
 11
407.0
 21
10.0
 31
0.0
  0
LINE
  5
ED
330
E1
100
AcDbEntity
  8
図面枠ﾚｲﾔ
  6
Continuous
 62
     7
370
    50
100
AcDbLine
 10
307.0
 20
20.0
 30
0.0
 11
584.0
 21
20.0
 31
0.0
  0
INSERT
  5
F1
330
E1
100
AcDbEntity
  8
0
  6
Continuous
 62
     7
370
    25
100
AcDbBlockReference
  2
BLKF024
 10
0.0
 20
0.0
 30
0.0
  0
INSERT
  5
F9
330
E1
100
AcDbEntity
  8
0
  6
Continuous
 62
     7
370
    25
100
AcDbBlockReference
  2
BLKF025
 10
0.0
 20
0.0
 30
0.0
  0
HATCH
  5
10A
330
E1
100
AcDbEntity
  8
GR1
  6
Continuous
 62
     7
370
    25
100
AcDbHatch
 10
0.0
 20
0.0
 30
0.0
210
0.0
220
0.0
230
1.0
  2
_USER
 70
     0
 71
     0
 91
        2
 92
        0
 93
        4
 72
     1
 10
512.8018997861325
 20
17.91346152
 11
518.8018997861325
 21
17.91346152
 72
     1
 10
518.8018997861325
 20
17.91346152
 11
518.8018997861325
 21
11.91346152
 72
     1
 10
518.8018997861325
 20
11.91346152
 11
512.8018997861325
 21
11.91346152
 72
     1
 10
512.8018997861325
 20
11.91346152
 11
512.8018997861325
 21
17.91346152
 97
        0
 92
        0
 93
       15
 72
     1
 10
515.8018997861325
 20
17.76923076000002
 11
512.9461305461325
 21
14.91346152
 72
     1
 10
512.9461305461325
 20
14.91346152
 11
515.8018997861325
 21
12.05769228000001
 72
     1
 10
515.8018997861325
 20
12.05769228000001
 11
517.3595920661326
 21
13.61538462
 72
     1
 10
517.3595920661326
 20
13.61538462
 11
517.3595920661326
 21
12.98076924
 72
     1
 10
517.3595920661326
 20
12.98076924
 11
518.2249766861325
 21
12.98076924
 72
     1
 10
518.2249766861325
 20
12.98076924
 11
518.2249766861325
 21
15.00000000000001
 72
     1
 10
518.2249766861325
 20
15.00000000000001
 11
515.8018997861325
 21
15.00000000000001
 72
     1
 10
515.8018997861325
 20
15.00000000000001
 11
515.8018997861325
 21
14.13461538000001
 72
     1
 10
515.8018997861325
 20
14.13461538000001
 11
516.2461305461325
 21
14.13461538000001
 72
     1
 10
516.2461305461325
 20
14.13461538000001
 11
515.8018997861325
 21
13.69038462
 72
     1
 10
515.8018997861325
 20
13.69038462
 11
514.5788228861325
 21
14.91346152
 72
     1
 10
514.5788228861325
 20
14.91346152
 11
515.8018997861325
 21
16.13653842000003
 72
     1
 10
515.8018997861325
 20
16.13653842000003
 11
516.5922844061325
 21
15.3461538
 72
     1
 10
516.5922844061325
 20
15.3461538
 11
518.2249766861325
 21
15.3461538
 72
     1
 10
518.2249766861325
 20
15.3461538
 11
515.8018997861325
 21
17.76923076000002
 97
        0
 75
     0
 76
     0
 52
45.0
 41
0.05
 77
     0
 78
     1
 53
45.0
 43
0.0
 44
0.0
 45
-0.0353553390593274
 46
0.0353553390593274
 79
     0
 98
        0
  0
TEXT
  5
10B
330
E1
100
AcDbEntity
  8
図面枠ﾚｲﾔ
  6
Continuous
 62
     7
370
    25
100
AcDbText
 10
523.2257690429688
 20
11.46128463745117
 30
0.0
 40
7.170907974243164
  1
ＧＯＬＤ　ＣＡＳＴＥＲ
 41
0.702117011671778
  7
FX_VECTOR
 72
     5
 11
569.9776363372803
 21
11.46128463745117
 31
0.0
100
AcDbText
  0
LINE
  5
10C
330
E1
100
AcDbEntity
  8
図面枠ﾚｲﾔ
  6
Continuous
 62
     7
370
    25
100
AcDbLine
 10
427.0
 20
9.999999999999998
 30
0.0
 11
427.0
 21
20.0
 31
0.0
  0
TEXT
  5
10D
330
E1
100
AcDbEntity
  8
図面枠ﾚｲﾔ
  6
Continuous
 62
     7
370
    25
100
AcDbText
 10
411.7388305664062
 20
11.59687900543213
 30
0.0
 40
6.648748874664307
  1
図番
 41
1.083413404130886
  7
FX_VECTOR
 72
     5
 11
423.05837059021
 21
11.59687900543213
 31
0.0
100
AcDbText
  0
LINE
  5
10E
330
E1
100
AcDbEntity
  8
図面枠ﾚｲﾔ
  6
Continuous
 62
     7
370
    50
100
AcDbLine
 10
507.0
 20
20.0
 30
0.0
 11
507.0
 21
10.0
 31
0.0
  0
LINE
  5
10F
330
E1
100
AcDbEntity
  8
図面枠ﾚｲﾔ
  6
Continuous
 62
     7
370
    50
100
AcDbLine
 10
307.0
 20
20.0
 30
0.0
 11
307.0
 21
10.0
 31
0.0
  0
ENDBLK
  5
E3
330
E1
100
AcDbEntity
  8
0
100
AcDbBlockEnd
  0
BLOCK
  5
EF
330
EE
100
AcDbEntity
  8
0
100
AcDbBlockBegin
  2
BLKF024
 70
     0
 10
0.0
 20
0.0
 30
0.0
  3
BLKF024
  1

  0
LINE
  5
F2
330
EE
100
AcDbEntity
  8
0
  6
Continuous
 62
     7
370
    25
100
AcDbLine
 10
518.8018997861325
 20
17.91346152
 30
0.0
 11
512.8018997861325
 21
17.91346152
 31
0.0
  0
LINE
  5
F3
330
EE
100
AcDbEntity
  8
0
  6
Continuous
 62
     7
370
    25
100
AcDbLine
 10
512.8018997861325
 20
17.91346152
 30
0.0
 11
512.8018997861325
 21
11.91346152
 31
0.0
  0
LINE
  5
F4
330
EE
100
AcDbEntity
  8
0
  6
Continuous
 62
     7
370
    25
100
AcDbLine
 10
512.8018997861325
 20
11.91346152
 30
0.0
 11
518.8018997861325
 21
11.91346152
 31
0.0
  0
LINE
  5
F5
330
EE
100
AcDbEntity
  8
0
  6
Continuous
 62
     7
370
    25
100
AcDbLine
 10
518.8018997861325
 20
11.91346152
 30
0.0
 11
518.8018997861325
 21
17.91346152
 31
0.0
  0
ENDBLK
  5
F0
330
EE
100
AcDbEntity
  8
0
100
AcDbBlockEnd
  0
BLOCK
  5
F7
330
F6
100
AcDbEntity
  8
0
100
AcDbBlockBegin
  2
BLKF025
 70
     0
 10
0.0
 20
0.0
 30
0.0
  3
BLKF025
  1

  0
LINE
  5
FA
330
F6
100
AcDbEntity
  8
0
  6
Continuous
 62
     7
370
    25
100
AcDbLine
 10
518.2249766861325
 20
15.3461538
 30
0.0
 11
515.8018997861325
 21
17.76923076000002
 31
0.0
  0
LINE
  5
FB
330
F6
100
AcDbEntity
  8
0
  6
Continuous
 62
     7
370
    25
100
AcDbLine
 10
515.8018997861325
 20
17.76923076000002
 30
0.0
 11
512.9461305461325
 21
14.91346152
 31
0.0
  0
LINE
  5
FC
330
F6
100
AcDbEntity
  8
0
  6
Continuous
 62
     7
370
    25
100
AcDbLine
 10
512.9461305461325
 20
14.91346152
 30
0.0
 11
515.8018997861325
 21
12.05769228000001
 31
0.0
  0
LINE
  5
FD
330
F6
100
AcDbEntity
  8
0
  6
Continuous
 62
     7
370
    25
100
AcDbLine
 10
515.8018997861325
 20
12.05769228000001
 30
0.0
 11
517.3595920661326
 21
13.61538462
 31
0.0
  0
LINE
  5
FE
330
F6
100
AcDbEntity
  8
0
  6
Continuous
 62
     7
370
    25
100
AcDbLine
 10
517.3595920661326
 20
13.61538462
 30
0.0
 11
517.3595920661326
 21
12.98076924
 31
0.0
  0
LINE
  5
FF
330
F6
100
AcDbEntity
  8
0
  6
Continuous
 62
     7
370
    25
100
AcDbLine
 10
517.3595920661326
 20
12.98076924
 30
0.0
 11
518.2249766861325
 21
12.98076924
 31
0.0
  0
LINE
  5
100
330
F6
100
AcDbEntity
  8
0
  6
Continuous
 62
     7
370
    25
100
AcDbLine
 10
518.2249766861325
 20
12.98076924
 30
0.0
 11
518.2249766861325
 21
15.00000000000001
 31
0.0
  0
LINE
  5
101
330
F6
100
AcDbEntity
  8
0
  6
Continuous
 62
     7
370
    25
100
AcDbLine
 10
518.2249766861325
 20
15.00000000000001
 30
0.0
 11
515.8018997861325
 21
15.00000000000001
 31
0.0
  0
LINE
  5
102
330
F6
100
AcDbEntity
  8
0
  6
Continuous
 62
     7
370
    25
100
AcDbLine
 10
515.8018997861325
 20
15.00000000000001
 30
0.0
 11
515.8018997861325
 21
14.13461538000001
 31
0.0
  0
LINE
  5
103
330
F6
100
AcDbEntity
  8
0
  6
Continuous
 62
     7
370
    25
100
AcDbLine
 10
515.8018997861325
 20
14.13461538000001
 30
0.0
 11
516.2461305461325
 21
14.13461538000001
 31
0.0
  0
LINE
  5
104
330
F6
100
AcDbEntity
  8
0
  6
Continuous
 62
     7
370
    25
100
AcDbLine
 10
516.2461305461325
 20
14.13461538000001
 30
0.0
 11
515.8018997861325
 21
13.69038462
 31
0.0
  0
LINE
  5
105
330
F6
100
AcDbEntity
  8
0
  6
Continuous
 62
     7
370
    25
100
AcDbLine
 10
515.8018997861325
 20
13.69038462
 30
0.0
 11
514.5788228861325
 21
14.91346152
 31
0.0
  0
LINE
  5
106
330
F6
100
AcDbEntity
  8
0
  6
Continuous
 62
     7
370
    25
100
AcDbLine
 10
514.5788228861325
 20
14.91346152
 30
0.0
 11
515.8018997861325
 21
16.13653842000003
 31
0.0
  0
LINE
  5
107
330
F6
100
AcDbEntity
  8
0
  6
Continuous
 62
     7
370
    25
100
AcDbLine
 10
515.8018997861325
 20
16.13653842000003
 30
0.0
 11
516.5922844061325
 21
15.3461538
 31
0.0
  0
LINE
  5
108
330
F6
100
AcDbEntity
  8
0
  6
Continuous
 62
     7
370
    25
100
AcDbLine
 10
516.5922844061325
 20
15.3461538
 30
0.0
 11
518.2249766861325
 21
15.3461538
 31
0.0
  0
ENDBLK
  5
F8
330
F6
100
AcDbEntity
  8
0
100
AcDbBlockEnd
  0
BLOCK
  5
226
330
225
100
AcDbEntity
  8
0
100
AcDbBlockBegin
  2
BLKF026
 70
     0
 10
0.0
 20
0.0
 30
0.0
  3
BLKF026
  1

  0
TEXT
  5
229
330
225
100
AcDbEntity
  8
基準ﾚｲﾔｸﾞﾙｰﾌﾟ
  6
Continuous
 62
     7
370
    25
100
AcDbText
 10
395.6452026367188
 20
114.2782440185547
 30
0.0
 40
6.0
  1
Ｃ
 50
270.0
 41
0.9333333333333333
  7
FX_VECTOR
 72
     5
 11
395.6452026367188
 21
110.2782440185547
 31
0.0
100
AcDbText
  0
TEXT
  5
22A
330
225
100
AcDbEntity
  8
基準ﾚｲﾔｸﾞﾙｰﾌﾟ
  6
Continuous
 62
     7
370
    25
100
AcDbText
 10
395.407187666181
 20
118.2723815073481
 30
0.0
 40
6.0
  1
　
 50
273.4110107421878
 41
0.9333333333333362
  7
FX_VECTOR
 72
     5
 11
395.6451804978815
 21
114.2794678578862
 31
0.0
100
AcDbText
  0
TEXT
  5
22B
330
225
100
AcDbEntity
  8
基準ﾚｲﾔｸﾞﾙｰﾌﾟ
  6
Continuous
 62
     7
370
    25
100
AcDbText
 10
394.9319539399415
 20
122.2452240082882
 30
0.0
 40
6.0
  1
Ｄ
 50
276.8220214843759
 41
0.9333333333333318
  7
FX_VECTOR
 72
     5
 11
395.4070963530272
 21
118.2735443022587
 31
0.0
100
AcDbText
  0
TEXT
  5
22C
330
225
100
AcDbEntity
  8
基準ﾚｲﾔｸﾞﾙｰﾌﾟ
  6
Continuous
 62
     7
370
    25
100
AcDbText
 10
394.2211728099696
 20
126.1827710532291
 30
0.0
 40
6.0
  1
Ｌ
 50
280.2330322265624
 41
0.9333333333333301
  7
FX_VECTOR
 72
     5
 11
394.9317812915929
 21
122.2463976479428
 31
0.0
100
AcDbText
  0
TEXT
  5
22D
330
225
100
AcDbEntity
  8
基準ﾚｲﾔｸﾞﾙｰﾌﾟ
  6
Continuous
 62
     7
370
    25
100
AcDbText
 10
393.2773681731337
 20
130.0710473557231
 30
0.0
 40
6.0
  1
Ｏ
 50
283.6440124511726
 41
0.9333333333333373
  7
FX_VECTOR
 72
     5
 11
394.2209228424913
 21
126.1839270095113
 31
0.0
100
AcDbText
  0
TEXT
  5
22E
330
225
100
AcDbEntity
  8
基準ﾚｲﾔｸﾞﾙｰﾌﾟ
  6
Continuous
 62
     7
370
    25
100
AcDbText
 10
392.1038803179972
 20
133.8962847508816
 30
0.0
 40
6.0
  1
Ｇ
 50
287.0550231933591
 41
0.9333333333333294
  7
FX_VECTOR
 72
     5
 11
393.277040092159
 21
130.0721905909153
 31
0.0
100
AcDbText
  0
TEXT
  5
22F
330
225
100
AcDbEntity
  8
基準ﾚｲﾔｸﾞﾙｰﾌﾟ
  6
Continuous
 62
     7
370
    25
100
AcDbText
 10
395.6451804978815
 20
110.2770812143794
 30
0.0
 40
6.0
  1
Ａ
 50
266.5889892578122
 41
0.9333333333333362
  7
FX_VECTOR
 72
     5
 11
395.407187666181
 21
106.2841675649175
 31
0.0
100
AcDbText
  0
TEXT
  5
230
330
225
100
AcDbEntity
  8
基準ﾚｲﾔｸﾞﾙｰﾌﾟ
  6
Continuous
 62
     7
370
    25
100
AcDbText
 10
395.4070963530272
 20
106.283004770007
 30
0.0
 40
6.0
  1
Ｓ
 50
263.1779785156258
 41
0.9333333333333287
  7
FX_VECTOR
 72
     5
 11
394.9319539399416
 21
102.3113250639774
 31
0.0
100
AcDbText
  0
TEXT
  5
231
330
225
100
AcDbEntity
  8
基準ﾚｲﾔｸﾞﾙｰﾌﾟ
  6
Continuous
 62
     7
370
    25
100
AcDbText
 10
394.9317802432732
 20
102.310151613569
 30
0.0
 40
6.0
  1
Ｔ
 50
259.7669982910155
 41
0.9333333333333317
  7
FX_VECTOR
 72
     5
 11
394.2211738582893
 21
98.37377782979036
 31
0.0
100
AcDbText
  0
TEXT
  5
232
330
225
100
AcDbEntity
  8
基準ﾚｲﾔｸﾞﾙｰﾌﾟ
  6
Continuous
 62
     7
370
    25
100
AcDbText
 10
394.2209228424913
 20
98.37262206275432
 30
0.0
 40
6.0
  1
Ｅ
 50
256.3559875488274
 41
0.9333333333333373
  7
FX_VECTOR
 72
     5
 11
393.2773681731337
 21
94.48550171654256
 31
0.0
100
AcDbText
  0
TEXT
  5
233
330
225
100
AcDbEntity
  8
基準ﾚｲﾔｸﾞﾙｰﾌﾟ
  6
Continuous
 62
     7
370
    25
100
AcDbText
 10
393.277040092159
 20
94.48435848135034
 30
0.0
 40
6.0
  1
Ｒ
 50
252.9449768066409
 41
0.9333333333333294
  7
FX_VECTOR
 72
     5
 11
392.1038803179972
 21
90.66026432138403
 31
0.0
100
AcDbText
  0
ENDBLK
  5
227
330
225
100
AcDbEntity
  8
0
100
AcDbBlockEnd
  0
BLOCK
  5
239
330
238
100
AcDbEntity
  8
0
100
AcDbBlockBegin
  2
BLKF027
 70
     0
 10
0.0
 20
0.0
 30
0.0
  3
BLKF027
  1

  0
TEXT
  5
23C
330
238
100
AcDbEntity
  8
基準ﾚｲﾔｸﾞﾙｰﾌﾟ
  6
Continuous
 62
     7
370
    25
100
AcDbText
 10
280.4951019695951
 20
108.2794351843978
 30
0.0
 40
6.0
  1
０
 50
91.70550537109408
 41
0.9333333333333333
  7
FX_VECTOR
 72
     5
 11
280.3760528155611
 21
112.2776632042741
 31
0.0
100
AcDbText
  0
TEXT
  5
23D
330
238
100
AcDbEntity
  8
基準ﾚｲﾔｸﾞﾙｰﾌﾟ
  6
Continuous
 62
     7
370
    25
100
AcDbText
 10
280.8518852437506
 20
104.2942087779045
 30
0.0
 40
6.0
  1
３
 50
95.11650085449205
 41
0.9333333333333319
  7
FX_VECTOR
 72
     5
 11
280.4951606546869
 21
108.2782704701424
 31
0.0
100
AcDbText
  0
TEXT
  5
23E
330
238
100
AcDbEntity
  8
基準ﾚｲﾔｸﾞﾙｰﾌﾟ
  6
Continuous
 62
     7
370
    25
100
AcDbText
 10
281.4451891810408
 20
100.3372807360676
 30
0.0
 40
6.0
  1
１
 50
98.52751159667953
 41
0.9333333333333307
  7
FX_VECTOR
 72
     5
 11
280.8520520298967
 21
104.2930598401042
 31
0.0
100
AcDbText
  0
TEXT
  5
23F
330
238
100
AcDbEntity
  8
基準ﾚｲﾔｸﾞﾙｰﾌﾟ
  6
Continuous
 62
     7
370
    25
100
AcDbText
 10
280.3760528155611
 20
112.2788858679915
 30
0.0
 40
6.0
  1
Ｘ
 50
88.29449462890594
 41
0.9333333333333333
  7
FX_VECTOR
 72
     5
 11
280.4951019695951
 21
116.2771138878678
 31
0.0
100
AcDbText
  0
TEXT
  5
240
330
238
100
AcDbEntity
  8
基準ﾚｲﾔｸﾞﾙｰﾌﾟ
  6
Continuous
 62
     7
370
    25
100
AcDbText
 10
280.4951606546869
 20
116.2782786021233
 30
0.0
 40
6.0
  1
３
 50
84.88349914550797
 41
0.9333333333333319
  7
FX_VECTOR
 72
     5
 11
280.8518852437506
 21
120.2623402943611
 31
0.0
100
AcDbText
  0
TEXT
  5
241
330
238
100
AcDbEntity
  8
基準ﾚｲﾔｸﾞﾙｰﾌﾟ
  6
Continuous
 62
     7
370
    25
100
AcDbText
 10
280.8520520298967
 20
120.2634892321614
 30
0.0
 40
6.0
  1
８
 50
81.4724884033205
 41
0.9333333333333307
  7
FX_VECTOR
 72
     5
 11
281.4451891810408
 21
124.219268336198
 31
0.0
100
AcDbText
  0
ENDBLK
  5
23A
330
238
100
AcDbEntity
  8
0
100
AcDbBlockEnd
  0
ENDSEC
  0
SECTION
  2
ENTITIES
  0
INSERT
  5
E5
330
1F
100
AcDbEntity
  8
図面枠ﾚｲﾔ
  6
Continuous
 62
     7
370
    50
100
AcDbBlockReference
  2
BLKF023
 10
0.0
 20
0.0
 30
0.0
  0
TEXT
  5
110
330
1F
100
AcDbEntity
  8
図面枠ﾚｲﾔ
  6
Continuous
 62
     7
370
    25
100
AcDbText
 10
329.0
 20
12.0
 30
0.0
 40
6.0
  1
ＷＪ－１３０　Ｎ
 41
0.7943262411347518
  7
FX_VECTOR
 72
     5
 11
361.0
 21
12.0
 31
0.0
100
AcDbText
  0
TEXT
  5
111
330
1F
100
AcDbEntity
  8
図面枠ﾚｲﾔ
  6
Continuous
 62
     7
370
    25
100
AcDbText
 10
428.9999694824219
 20
12.0
 30
0.0
 40
6.0
  1
Ｗ３６Ａ０ＵＡＡ－Ｃ０１
 41
0.7887323943661974
  7
FX_VECTOR
 72
     5
 11
476.9999694824219
 21
12.0
 31
0.0
100
AcDbText
  0
TEXT
  5
112
330
1F
100
AcDbEntity
  8
GR1
  6
Continuous
 62
     7
370
    25
100
AcDbText
 10
355.0255126953125
 20
38.26760864257812
 30
0.0
 40
4.0
  1
４０
 41
0.9545454545454547
  7
FX_VECTOR
 72
     5
 11
361.0255126953125
 21
38.26760864257812
 31
0.0
100
AcDbText
  0
LINE
  5
113
330
1F
100
AcDbEntity
  8
GR1
  6
Continuous
 62
     7
370
    25
100
AcDbLine
 10
338.025515106224
 20
43.96077957628069
 30
0.0
 11
338.025515106224
 21
36.26761660146065
 31
0.0
  0
LINE
  5
114
330
1F
100
AcDbEntity
  8
GR1
  6
Continuous
 62
     7
370
    25
100
AcDbLine
 10
378.025515106224
 20
137.4622988087089
 30
0.0
 11
378.025515106224
 21
36.26761660146065
 31
0.0
  0
LINE
  5
115
330
1F
100
AcDbEntity
  8
GR1
  6
Continuous
 62
     7
370
    25
100
AcDbLine
 10
338.025515106224
 20
37.26761660146065
 30
0.0
 11
378.025515106224
 21
37.26761660146065
 31
0.0
  0
INSERT
  5
116
330
1F
100
AcDbEntity
  8
GR1
  6
Continuous
 62
     7
370
    25
100
AcDbBlockReference
  2
FXTIP_ARROW_S
 10
338.025515106224
 20
37.26761660146065
 30
0.0
 41
4.0
 42
4.0
 50
180.0
  0
INSERT
  5
117
330
1F
100
AcDbEntity
  8
GR1
  6
Continuous
 62
     7
370
    25
100
AcDbBlockReference
  2
FXTIP_ARROW_E
 10
378.025515106224
 20
37.26761660146065
 30
0.0
 41
4.0
 42
4.0
 50
360.0
  0
TEXT
  5
118
330
1F
100
AcDbEntity
  8
GR1
  6
Continuous
 62
     7
370
    25
100
AcDbText
 10
456.9605102539062
 20
131.2757568359375
 30
0.0
 40
4.0
  1
１７７
 50
90.0
 41
0.9264705882352942
  7
FX_VECTOR
 72
     5
 11
456.9605102539062
 21
140.2757568359375
 31
0.0
100
AcDbText
  0
LINE
  5
119
330
1F
100
AcDbEntity
  8
GR1
  6
Continuous
 62
     7
370
    25
100
AcDbLine
 10
433.9519963450933
 20
224.2732758621094
 30
0.0
 11
458.9605283815358
 21
224.2732758621094
 31
0.0
  0
LINE
  5
11A
330
1F
100
AcDbEntity
  8
GR1
  6
Continuous
 62
     7
370
    25
100
AcDbLine
 10
339.0255150577202
 20
47.27827586609908
 30
0.0
 11
458.9605283815358
 21
47.27827586609908
 31
0.0
  0
LINE
  5
11B
330
1F
100
AcDbEntity
  8
GR1
  6
Continuous
 62
     7
370
    25
100
AcDbLine
 10
457.9605283815358
 20
224.2732758621094
 30
0.0
 11
457.9605283815358
 21
47.27827586609908
 31
0.0
  0
INSERT
  5
11C
330
1F
100
AcDbEntity
  8
GR1
  6
Continuous
 62
     7
370
    25
100
AcDbBlockReference
  2
FXTIP_ARROW_S
 10
457.9605283815358
 20
224.2732758621094
 30
0.0
 41
4.0
 42
4.0
 50
90.0
  0
INSERT
  5
11D
330
1F
100
AcDbEntity
  8
GR1
  6
Continuous
 62
     7
370
    25
100
AcDbBlockReference
  2
FXTIP_ARROW_E
 10
457.9605283815358
 20
47.27827586609908
 30
0.0
 41
4.0
 42
4.0
 50
270.0
  0
TEXT
  5
11E
330
1F
100
AcDbEntity
  8
GR1
  6
Continuous
 62
     7
370
    25
100
AcDbText
 10
446.9605102539062
 20
163.7757568359375
 30
0.0
 40
4.0
  1
１１２
 50
90.0
 41
0.9264705882352942
  7
FX_VECTOR
 72
     5
 11
446.9605102539062
 21
172.7757568359375
 31
0.0
100
AcDbText
  0
LINE
  5
11F
330
1F
100
AcDbEntity
  8
GR1
  6
Continuous
 62
     7
370
    25
100
AcDbLine
 10
408.719368205554
 20
112.2782758620689
 30
0.0
 11
448.9605283815358
 21
112.2782758620689
 31
0.0
  0
LINE
  5
120
330
1F
100
AcDbEntity
  8
GR1
  6
Continuous
 62
     7
370
    25
100
AcDbLine
 10
447.9605283815358
 20
112.2782758620689
 30
0.0
 11
447.9605283815358
 21
224.2732758621094
 31
0.0
  0
INSERT
  5
121
330
1F
100
AcDbEntity
  8
GR1
  6
Continuous
 62
     7
370
    25
100
AcDbBlockReference
  2
FXTIP_ARROW_S
 10
447.9605283815358
 20
112.2782758620689
 30
0.0
 41
4.0
 42
4.0
 50
270.0
  0
INSERT
  5
122
330
1F
100
AcDbEntity
  8
GR1
  6
Continuous
 62
     7
370
    25
100
AcDbBlockReference
  2
FXTIP_ARROW_E
 10
447.9605283815358
 20
224.2732758621094
 30
0.0
 41
4.0
 42
4.0
 50
90.0
  0
LINE
  5
123
330
1F
100
AcDbEntity
  8
GR1
  6
Continuous
 62
     3
370
    50
100
AcDbLine
 10
190.290982125345
 20
92.90608317103903
 30
0.0
 11
190.290982125345
 21
192.0645936138994
 31
0.0
  0
LINE
  5
124
330
1F
100
AcDbEntity
  8
GR1
  6
Continuous
 62
     3
370
    50
100
AcDbLine
 10
193.4909821253449
 20
196.506083171039
 30
0.0
 11
193.4909821253449
 21
92.90608317103903
 31
0.0
  0
LINE
  5
125
330
1F
100
AcDbEntity
  8
GR1
  6
Continuous
 62
     3
370
    50
100
AcDbLine
 10
193.490982125345
 20
92.90608317103903
 30
0.0
 11
190.290982125345
 21
92.90608317103903
 31
0.0
  0
LINE
  5
126
330
1F
100
AcDbEntity
  8
GR1
  6
Continuous
 62
     3
370
    50
100
AcDbLine
 10
193.490982125345
 20
99.93427436275226
 30
0.0
 11
196.490982125345
 21
99.93427436275226
 31
0.0
  0
LINE
  5
127
330
1F
100
AcDbEntity
  8
GR1
  6
Continuous
 62
     3
370
    50
100
AcDbLine
 10
196.490982125345
 20
99.93427436275226
 30
0.0
 11
197.990982125345
 21
102.9342743627523
 31
0.0
  0
LINE
  5
128
330
1F
100
AcDbEntity
  8
GR1
  6
Continuous
 62
     3
370
    50
100
AcDbLine
 10
197.990982125345
 20
102.9342743627523
 30
0.0
 11
197.990982125345
 21
122.9342743627523
 31
0.0
  0
LINE
  5
129
330
1F
100
AcDbEntity
  8
GR1
  6
Continuous
 62
     3
370
    50
100
AcDbLine
 10
197.990982125345
 20
122.9342743627523
 30
0.0
 11
196.490982125345
 21
125.9342743627523
 31
0.0
  0
LINE
  5
12A
330
1F
100
AcDbEntity
  8
GR1
  6
Continuous
 62
     3
370
    50
100
AcDbLine
 10
196.490982125345
 20
125.9342743627523
 30
0.0
 11
193.490982125345
 21
125.9342743627523
 31
0.0
  0
ARC
  5
12B
330
1F
100
AcDbEntity
  8
GR1
  6
Continuous
 62
     3
370
    50
100
AcDbCircle
 10
288.8954793258346
 20
104.2090641209901
 30
0.0
 40
96.11887608963927
100
AcDbArc
 50
164.6714130781337
 51
166.9368767743127
  0
ARC
  5
12C
330
1F
100
AcDbEntity
  8
GR1
  6
Continuous
 62
     3
370
    50
100
AcDbCircle
 10
114.5210318681577
 20
151.5348652435894
 30
0.0
 40
84.56431096900945
100
AcDbArc
 50
344.9792982947163
 51
353.4953983271786
  0
LINE
  5
12D
330
1F
100
AcDbEntity
  8
GR1
  6
Continuous
 62
     3
370
    50
100
AcDbLine
 10
198.540982125345
 20
141.955165433934
 30
0.0
 11
198.5409821253449
 21
198.606083171039
 31
0.0
  0
ARC
  5
12E
330
1F
100
AcDbEntity
  8
GR1
  6
Continuous
 62
     3
370
    50
100
AcDbCircle
 10
192.0409821253449
 20
198.606083171039
 30
0.0
 40
6.5
100
AcDbArc
 50
0.0
 51
90.0
  0
LINE
  5
12F
330
1F
100
AcDbEntity
  8
GR1
  6
Continuous
 62
     3
370
    50
100
AcDbLine
 10
189.4909821253449
 20
200.506083171039
 30
0.0
 11
138.0909821253449
 21
200.506083171039
 31
0.0
  0
ARC
  5
130
330
1F
100
AcDbEntity
  8
GR1
  6
Continuous
 62
     3
370
    50
100
AcDbCircle
 10
138.0909821253449
 20
196.506083171039
 30
0.0
 40
4.0
100
AcDbArc
 50
90.0
 51
180.0
  0
LINE
  5
131
330
1F
100
AcDbEntity
  8
GR1
  6
Continuous
 62
     3
370
    50
100
AcDbLine
 10
134.0909821253449
 20
196.506083171039
 30
0.0
 11
134.0909821253449
 21
92.90608317103903
 31
0.0
  0
LINE
  5
132
330
1F
100
AcDbEntity
  8
GR1
  6
Continuous
 62
     3
370
    50
100
AcDbLine
 10
134.0909821253449
 20
92.90608317103903
 30
0.0
 11
137.290982125345
 21
92.90608317103903
 31
0.0
  0
LINE
  5
133
330
1F
100
AcDbEntity
  8
GR1
  6
Continuous
 62
     3
370
    50
100
AcDbLine
 10
137.290982125345
 20
92.90608317103903
 30
0.0
 11
137.290982125345
 21
192.0645936138994
 31
0.0
  0
ARC
  5
134
330
1F
100
AcDbEntity
  8
GR1
  6
Continuous
 62
     3
370
    50
100
AcDbCircle
 10
151.0583533755031
 20
356.8668879954302
 30
0.0
 40
165.3763488064616
100
AcDbArc
 50
264.6681759113179
 51
269.2144289404906
  0
LINE
  5
135
330
1F
100
AcDbEntity
  8
GR1
  6
Continuous
 62
     3
370
    50
100
AcDbLine
 10
148.790982125345
 20
191.506083171039
 30
0.0
 11
178.7909821253449
 21
191.506083171039
 31
0.0
  0
ARC
  5
136
330
1F
100
AcDbEntity
  8
GR1
  6
Continuous
 62
     3
370
    50
100
AcDbCircle
 10
176.5236108751868
 20
356.8668879954302
 30
0.0
 40
165.3763488064616
100
AcDbArc
 50
270.7855710595095
 51
275.3318240886821
  0
ARC
  5
137
330
1F
100
AcDbEntity
  8
GR1
  6
Continuous
 62
     3
370
    50
100
AcDbCircle
 10
189.490982125345
 20
196.506083171039
 30
0.0
 40
4.0
100
AcDbArc
 50
0.0
 51
90.0
  0
LINE
  5
138
330
1F
100
AcDbEntity
  8
GR1
  6
Continuous
 62
     3
370
    50
100
AcDbLine
 10
199.3473989695524
 20
205.1060831710391
 30
0.0
 11
128.2345652811375
 21
205.1060831710391
 31
0.0
  0
ARC
  5
139
330
1F
100
AcDbEntity
  8
GR1
  6
Continuous
 62
     3
370
    50
100
AcDbCircle
 10
128.2345652811375
 20
209.1060831710391
 30
0.0
 40
4.0
100
AcDbArc
 50
185.2259274089667
 51
270.0
  0
LINE
  5
13A
330
1F
100
AcDbEntity
  8
GR1
  6
Continuous
 62
     3
370
    50
100
AcDbLine
 10
124.2511921462612
 20
208.7417502623614
 30
0.0
 11
123.590982125345
 21
216.106083171039
 31
0.0
  0
LINE
  5
13B
330
1F
100
AcDbEntity
  8
GR1
  6
Continuous
 62
     3
370
    50
100
AcDbLine
 10
123.590982125345
 20
216.106083171039
 30
0.0
 11
203.9909821253449
 21
216.106083171039
 31
0.0
  0
LINE
  5
13C
330
1F
100
AcDbEntity
  8
GR1
  6
Continuous
 62
     3
370
    50
100
AcDbLine
 10
203.9909821253449
 20
216.106083171039
 30
0.0
 11
203.3307721044287
 21
208.7417502623614
 31
0.0
  0
ARC
  5
13D
330
1F
100
AcDbEntity
  8
GR1
  6
Continuous
 62
     3
370
    50
100
AcDbCircle
 10
199.3473989695524
 20
209.1060831710391
 30
0.0
 40
4.0
100
AcDbArc
 50
270.0
 51
354.7740725910332
  0
LINE
  5
13E
330
1F
100
AcDbEntity
  8
GR1
  6
Continuous
 62
     3
370
    50
100
AcDbLine
 10
200.7204450189156
 20
217.4310831710795
 30
0.0
 11
126.8615192317743
 21
217.4310831710795
 31
0.0
  0
ARC
  5
13F
330
1F
100
AcDbEntity
  8
GR1
  6
Continuous
 62
     3
370
    50
100
AcDbCircle
 10
126.8615192317743
 20
229.4310831710795
 30
0.0
 40
12.0
100
AcDbArc
 50
225.0994720393112
 51
270.0
  0
ARC
  5
140
330
1F
100
AcDbEntity
  8
GR1
  6
Continuous
 62
     3
370
    50
100
AcDbCircle
 10
135.540982125345
 20
198.606083171039
 30
0.0
 40
6.5
100
AcDbArc
 50
90.0
 51
180.0
  0
LINE
  5
141
330
1F
100
AcDbEntity
  8
GR1
  6
Continuous
 62
     3
370
    50
100
AcDbLine
 10
129.040982125345
 20
198.606083171039
 30
0.0
 11
129.040982125345
 21
141.955165433934
 31
0.0
  0
ARC
  5
142
330
1F
100
AcDbEntity
  8
GR1
  6
Continuous
 62
     3
370
    50
100
AcDbCircle
 10
213.0609323825322
 20
151.5348652435894
 30
0.0
 40
84.56431096900945
100
AcDbArc
 50
186.5046016728214
 51
195.0207017052837
  0
LINE
  5
143
330
1F
100
AcDbEntity
  8
GR1
  6
Continuous
 62
     3
370
    50
100
AcDbLine
 10
129.6085017530975
 20
125.6377890932105
 30
0.0
 11
123.5734624975921
 21
125.6377890932106
 31
0.0
  0
LINE
  5
144
330
1F
100
AcDbEntity
  8
GR1
  6
Continuous
 62
     3
370
    50
100
AcDbLine
 10
123.5734624975922
 20
125.6377890932106
 30
0.0
 11
122.5909821253447
 21
123.936083171039
 31
0.0
  0
LINE
  5
145
330
1F
100
AcDbEntity
  8
GR1
  6
Continuous
 62
     3
370
    50
100
AcDbLine
 10
122.5909821253448
 20
123.9360831710391
 30
0.0
 11
122.5909821253448
 21
101.9360831710389
 31
0.0
  0
LINE
  5
146
330
1F
100
AcDbEntity
  8
GR1
  6
Continuous
 62
     3
370
    50
100
AcDbLine
 10
122.5909821253447
 20
101.936083171039
 30
0.0
 11
123.5734624975922
 21
100.2343772488675
 31
0.0
  0
LINE
  5
147
330
1F
100
AcDbEntity
  8
GR1
  6
Continuous
 62
     3
370
    50
100
AcDbLine
 10
123.5734624975921
 20
100.2343772488675
 30
0.0
 11
129.6085017530975
 21
100.2343772488674
 31
0.0
  0
LINE
  5
148
330
1F
100
AcDbEntity
  8
GR1
  6
Continuous
 62
     3
370
    50
100
AcDbLine
 10
129.6085017530974
 20
100.2343772488674
 30
0.0
 11
130.5909821253449
 21
101.936083171039
 31
0.0
  0
ARC
  5
149
330
1F
100
AcDbEntity
  8
GR1
  6
Continuous
 62
     3
370
    50
100
AcDbCircle
 10
131.0909821253449
 20
101.436083171039
 30
0.0
 40
0.5
100
AcDbArc
 50
180.0
 51
270.0
  0
LINE
  5
14A
330
1F
100
AcDbEntity
  8
GR1
  6
Continuous
 62
     3
370
    50
100
AcDbLine
 10
131.0909821253449
 20
100.936083171039
 30
0.0
 11
133.5909821253449
 21
100.936083171039
 31
0.0
  0
ARC
  5
14B
330
1F
100
AcDbEntity
  8
GR1
  6
Continuous
 62
     3
370
    50
100
AcDbCircle
 10
133.5909821253449
 20
101.436083171039
 30
0.0
 40
0.5
100
AcDbArc
 50
270.0
 51
0.0
  0
LINE
  5
14C
330
1F
100
AcDbEntity
  8
GR1
  6
Continuous
 62
     3
370
    50
100
AcDbLine
 10
130.5909821253449
 20
101.436083171039
 30
0.0
 11
130.5909821253449
 21
124.436083171039
 31
0.0
  0
LINE
  5
14D
330
1F
100
AcDbEntity
  8
GR1
  6
Continuous
 62
     3
370
    50
100
AcDbLine
 10
130.5909821253449
 20
123.936083171039
 30
0.0
 11
129.6085017530974
 21
125.6377890932105
 31
0.0
  0
LINE
  5
14E
330
1F
100
AcDbEntity
  8
GR1
  6
Continuous
 62
     3
370
    50
100
AcDbLine
 10
131.0909821253449
 20
124.936083171039
 30
0.0
 11
133.5909821253449
 21
124.9360831710389
 31
0.0
  0
ARC
  5
14F
330
1F
100
AcDbEntity
  8
GR1
  6
Continuous
 62
     3
370
    50
100
AcDbCircle
 10
133.5909821253449
 20
124.4360831710389
 30
0.0
 40
0.5
100
AcDbArc
 50
0.0
 51
90.0
  0
ARC
  5
150
330
1F
100
AcDbEntity
  8
GR1
  6
Continuous
 62
     3
370
    50
100
AcDbCircle
 10
38.68648492485539
 20
104.2090641209901
 30
0.0
 40
96.11887608963927
100
AcDbArc
 50
12.45304358348033
 51
15.32858692186627
  0
ARC
  5
151
330
1F
100
AcDbEntity
  8
GR1
  6
Continuous
 62
     3
370
    50
100
AcDbCircle
 10
131.0909821253449
 20
124.436083171039
 30
0.0
 40
0.5
100
AcDbArc
 50
90.0
 51
180.0
  0
ARC
  5
152
330
1F
100
AcDbEntity
  8
GR1
  6
Continuous
 62
     3
370
    50
100
AcDbCircle
 10
124.9681720788156
 20
122.4623626126676
 30
0.0
 40
5.622810046529507
100
AcDbArc
 50
325.6157525319492
 51
34.38424746805187
  0
ARC
  5
153
330
1F
100
AcDbEntity
  8
GR1
  6
Continuous
 62
     3
370
    50
100
AcDbCircle
 10
128.213792171874
 20
122.4623626126676
 30
0.0
 40
5.622810046529507
100
AcDbArc
 50
145.6157525319481
 51
214.3842474680508
  0
ARC
  5
154
330
1F
100
AcDbEntity
  8
GR1
  6
Continuous
 62
     3
370
    50
100
AcDbCircle
 10
143.6085017530995
 20
112.9360831710389
 30
0.0
 40
21.01751962775467
100
AcDbArc
 50
162.4120462260082
 51
197.5879537739922
  0
LINE
  5
155
330
1F
100
AcDbEntity
  8
GR1
  6
Continuous
 62
     3
370
    50
100
AcDbLine
 10
123.5734624975921
 20
106.5852302099531
 30
0.0
 11
129.6085017530975
 21
106.585230209953
 31
0.0
  0
ARC
  5
156
330
1F
100
AcDbEntity
  8
GR1
  6
Continuous
 62
     3
370
    50
100
AcDbCircle
 10
109.5734624975902
 20
112.936083171039
 30
0.0
 40
21.01751962775467
100
AcDbArc
 50
342.4120462260076
 51
17.5879537739918
  0
LINE
  5
157
330
1F
100
AcDbEntity
  8
GR1
  6
Continuous
 62
     3
370
    50
100
AcDbLine
 10
129.6085017530975
 20
119.2869361321247
 30
0.0
 11
123.5734624975921
 21
119.2869361321248
 31
0.0
  0
LINE
  5
158
330
1F
100
AcDbEntity
  8
GR1
  6
Continuous
 62
     3
370
    50
100
AcDbLine
 10
122.5909821253449
 20
119.9324655544656
 30
0.0
 11
121.790982125345
 21
119.9324655544656
 31
0.0
  0
LINE
  5
159
330
1F
100
AcDbEntity
  8
GR1
  6
Continuous
 62
     3
370
    50
100
AcDbLine
 10
121.790982125345
 20
119.9324655544656
 30
0.0
 11
120.790982125345
 21
118.9324655544656
 31
0.0
  0
LINE
  5
15A
330
1F
100
AcDbEntity
  8
GR1
  6
Continuous
 62
     3
370
    50
100
AcDbLine
 10
120.790982125345
 20
118.9324655544656
 30
0.0
 11
120.790982125345
 21
106.9324655544656
 31
0.0
  0
LINE
  5
15B
330
1F
100
AcDbEntity
  8
GR1
  6
Continuous
 62
     3
370
    50
100
AcDbLine
 10
120.790982125345
 20
106.9324655544656
 30
0.0
 11
121.790982125345
 21
105.9324655544656
 31
0.0
  0
LINE
  5
15C
330
1F
100
AcDbEntity
  8
GR1
  6
Continuous
 62
     3
370
    50
100
AcDbLine
 10
121.790982125345
 20
105.9324655544656
 30
0.0
 11
122.5909821253449
 21
105.9324655544656
 31
0.0
  0
ARC
  5
15D
330
1F
100
AcDbEntity
  8
GR1
  6
Continuous
 62
     3
370
    50
100
AcDbCircle
 10
128.213792171874
 20
103.4098037294104
 30
0.0
 40
5.622810046529507
100
AcDbArc
 50
145.6157525319492
 51
214.3842474680519
  0
ARC
  5
15E
330
1F
100
AcDbEntity
  8
GR1
  6
Continuous
 62
     3
370
    50
100
AcDbCircle
 10
124.9681720788156
 20
103.4098037294104
 30
0.0
 40
5.622810046529507
100
AcDbArc
 50
325.6157525319481
 51
34.38424746805076
  0
ARC
  5
15F
330
1F
100
AcDbEntity
  8
GR1
  6
Continuous
 62
     3
370
    50
100
AcDbCircle
 10
200.7204450189156
 20
229.4310831710795
 30
0.0
 40
12.0
100
AcDbArc
 50
270.0
 51
314.9005279606888
  0
LINE
  5
160
330
1F
100
AcDbEntity
  8
GR1
  6
Continuous
 62
     3
370
    50
100
AcDbLine
 10
217.790982125345
 20
220.9310831710795
 30
0.0
 11
109.790982125345
 21
220.9310831710795
 31
0.0
  0
LINE
  5
161
330
1F
100
AcDbEntity
  8
GR1
  6
Continuous
 62
     3
370
    50
100
AcDbLine
 10
109.790982125345
 20
224.9310831710741
 30
0.0
 11
217.790982125345
 21
224.9310831710741
 31
0.0
  0
LINE
  5
162
330
1F
100
AcDbEntity
  8
GR1
  6
Continuous
 62
     3
370
    50
100
AcDbLine
 10
217.790982125345
 20
224.9310831710391
 30
0.0
 11
217.790982125345
 21
220.9310831710796
 31
0.0
  0
LINE
  5
163
330
1F
100
AcDbEntity
  8
GR1
  6
Continuous
 62
     3
370
    50
100
AcDbLine
 10
345.9308694760374
 20
203.5710529168331
 30
0.0
 11
339.825515106224
 21
199.8482758620689
 31
0.0
  0
LINE
  5
164
330
1F
100
AcDbEntity
  8
GR1
  6
Continuous
 62
     3
370
    50
100
AcDbLine
 10
345.0791374977996
 20
199.8482758620689
 30
0.0
 11
329.025515106224
 21
199.8482758620689
 31
0.0
  0
ARC
  5
165
330
1F
100
AcDbEntity
  8
GR1
  6
Continuous
 62
     3
370
    50
100
AcDbCircle
 10
329.025515106224
 20
196.3482758620689
 30
0.0
 40
3.5
100
AcDbArc
 50
90.0
 51
180.0
  0
LINE
  5
166
330
1F
100
AcDbEntity
  8
GR1
  6
Continuous
 62
     3
370
    50
100
AcDbLine
 10
325.525515106224
 20
196.3482758620689
 30
0.0
 11
325.525515106224
 21
190.8482758620689
 31
0.0
  0
ARC
  5
167
330
1F
100
AcDbEntity
  8
GR1
  6
Continuous
 62
     3
370
    50
100
AcDbCircle
 10
349.0545140216253
 20
198.448275862069
 30
0.0
 40
6.0
100
AcDbArc
 50
90.0
 51
121.3730051401083
  0
LINE
  5
168
330
1F
100
AcDbEntity
  8
GR1
  6
Continuous
 62
     3
370
    50
100
AcDbLine
 10
330.8958089165738
 20
184.8700412255348
 30
0.0
 11
315.9521965362796
 21
120.1421447256367
 31
0.0
  0
ARC
  5
169
330
1F
100
AcDbEntity
  8
GR1
  6
Continuous
 62
     3
370
    50
100
AcDbCircle
 10
338.4255151062239
 20
115.2482758620689
 30
0.0
 40
23.0
100
AcDbArc
 50
166.2851359280893
 51
337.8580688848158
  0
LINE
  5
16A
330
1F
100
AcDbEntity
  8
GR1
  6
Continuous
 62
     3
370
    50
100
AcDbLine
 10
359.7293352174115
 20
106.5795245869336
 30
0.0
 11
389.9535146870273
 21
168.5482758620689
 31
0.0
  0
ARC
  5
16B
330
1F
100
AcDbEntity
  8
GR1
  6
Continuous
 62
     3
370
    50
100
AcDbCircle
 10
461.7693201053219
 20
138.9201643048359
 30
0.0
 40
77.68741791516945
100
AcDbArc
 50
140.9640848897662
 51
157.5810627611254
  0
LINE
  5
16C
330
1F
100
AcDbEntity
  8
GR1
  6
Continuous
 62
     3
370
    50
100
AcDbLine
 10
413.925515106224
 20
195.3482758620689
 30
0.0
 11
413.925515106224
 21
197.948275862069
 31
0.0
  0
ARC
  5
16D
330
1F
100
AcDbEntity
  8
GR1
  6
Continuous
 62
     3
370
    50
100
AcDbCircle
 10
407.425515106224
 20
197.948275862069
 30
0.0
 40
6.5
100
AcDbArc
 50
0.0
 51
90.0
  0
ARC
  5
16E
330
1F
100
AcDbEntity
  8
GR1
  6
Continuous
 62
     3
370
    50
100
AcDbCircle
 10
413.5819319504315
 20
208.448275862069
 30
0.0
 40
4.0
100
AcDbArc
 50
270.0
 51
354.7740725910334
  0
LINE
  5
16F
330
1F
100
AcDbEntity
  8
GR1
  6
Continuous
 62
     3
370
    50
100
AcDbLine
 10
417.5653050853078
 20
208.0839429533912
 30
0.0
 11
418.225515106224
 21
215.448275862069
 31
0.0
  0
LINE
  5
170
330
1F
100
AcDbEntity
  8
GR1
  6
Continuous
 62
     3
370
    50
100
AcDbLine
 10
418.225515106224
 20
215.448275862069
 30
0.0
 11
337.825515106224
 21
215.448275862069
 31
0.0
  0
LINE
  5
171
330
1F
100
AcDbEntity
  8
GR1
  6
Continuous
 62
     3
370
    50
100
AcDbLine
 10
341.0960522126533
 20
216.7732758621094
 30
0.0
 11
353.2176402153746
 21
216.7732758621094
 31
0.0
  0
ARC
  5
172
330
1F
100
AcDbEntity
  8
GR1
  6
Continuous
 62
     3
370
    50
100
AcDbCircle
 10
414.9549779997947
 20
228.7732758621095
 30
0.0
 40
12.0
100
AcDbArc
 50
270.0
 51
314.9005279606888
  0
LINE
  5
173
330
1F
100
AcDbEntity
  8
GR1
  6
Continuous
 62
     3
370
    50
100
AcDbLine
 10
432.025515106224
 20
224.2732758621054
 30
0.0
 11
324.025515106224
 21
224.2732758620324
 31
0.0
  0
LINE
  5
174
330
1F
100
AcDbEntity
  8
GR1
  6
Continuous
 62
     3
370
    50
100
AcDbLine
 10
324.025515106224
 20
220.2732758621095
 30
0.0
 11
338.5255151062239
 21
220.2732758621095
 31
0.0
  0
LINE
  5
175
330
1F
100
AcDbEntity
  8
GR1
  6
Continuous
 62
     3
370
    50
100
AcDbLine
 10
413.5819319504315
 20
204.448275862069
 30
0.0
 11
342.4690982620165
 21
204.4482758620687
 31
0.0
  0
ARC
  5
176
330
1F
100
AcDbEntity
  8
GR1
  6
Continuous
 62
     3
370
    50
100
AcDbCircle
 10
431.6524331020223
 20
151.6367458690717
 30
0.0
 40
47.16928530260403
100
AcDbArc
 50
112.0746846444443
 51
129.8528284197026
  0
ARC
  5
177
330
1F
100
AcDbEntity
  8
GR1
  6
Continuous
 62
     3
370
    50
100
AcDbCircle
 10
325.9952367672043
 20
185.8703886032807
 30
0.0
 40
5.0
100
AcDbArc
 50
347.0
 51
95.39056276407595
  0
CIRCLE
  5
178
330
1F
100
AcDbEntity
  8
GR1
  6
Continuous
 62
     3
370
    50
100
AcDbCircle
 10
338.025515106224
 20
112.2782758620689
 30
0.0
 40
13.0
  0
LINE
  5
179
330
1F
100
AcDbEntity
  8
GR1
  6
Continuous
 62
     3
370
    50
100
AcDbLine
 10
324.0255151062241
 20
360.1482758620691
 30
0.0
 11
315.4255151062241
 21
360.1482758620691
 31
0.0
  0
LINE
  5
17A
330
1F
100
AcDbEntity
  8
GR1
  6
Continuous
 62
     3
370
    50
100
AcDbLine
 10
315.4255151062241
 20
360.1482758620691
 30
0.0
 11
315.4255151062241
 21
356.948275862069
 31
0.0
  0
LINE
  5
17B
330
1F
100
AcDbEntity
  8
GR1
  6
Continuous
 62
     3
370
    50
100
AcDbLine
 10
315.4255151062241
 20
356.948275862069
 30
0.0
 11
324.0255151062241
 21
356.948275862069
 31
0.0
  0
LINE
  5
17C
330
1F
100
AcDbEntity
  8
GR1
  6
Continuous
 62
     3
370
    50
100
AcDbLine
 10
324.0255151062241
 20
303.948275862069
 30
0.0
 11
315.4255151062241
 21
303.948275862069
 31
0.0
  0
LINE
  5
17D
330
1F
100
AcDbEntity
  8
GR1
  6
Continuous
 62
     3
370
    50
100
AcDbLine
 10
315.4255151062241
 20
303.948275862069
 30
0.0
 11
315.4255151062241
 21
300.7482758620691
 31
0.0
  0
LINE
  5
17E
330
1F
100
AcDbEntity
  8
GR1
  6
Continuous
 62
     3
370
    50
100
AcDbLine
 10
315.4255151062241
 20
300.7482758620691
 30
0.0
 11
324.0255151062241
 21
300.7482758620691
 31
0.0
  0
TEXT
  5
17F
330
1F
100
AcDbEntity
  8
GR1
  6
Continuous
 62
     7
370
    25
100
AcDbText
 10
331.671142578125
 20
167.5050659179688
 30
0.0
 40
9.37198543548584
  1
Ｊ－１３０
 50
257.0
 41
0.8856276311740995
  7
FX_VECTOR
 72
     5
 11
323.9359567096301
 21
134.0002949454796
 31
0.0
100
AcDbText
  0
LINE
  5
180
330
1F
100
AcDbEntity
  8
GR1
  6
DASHDOT
 62
     6
370
    25
100
AcDbLine
 10
163.790982125345
 20
44.18149844387784
 30
0.0
 11
163.790982125345
 21
230.0070119636087
 31
0.0
  0
LINE
  5
181
330
1F
100
AcDbEntity
  8
GR1
  6
Continuous
 62
     6
370
    25
100
AcDbLine
 10
196.490982125345
 20
125.9342743627523
 30
0.0
 11
196.490982125345
 21
99.93427436275226
 31
0.0
  0
LINE
  5
182
330
1F
100
AcDbEntity
  8
GR1
  6
DASHDOT
 62
     6
370
    25
100
AcDbLine
 10
203.0049641084541
 20
112.936083171039
 30
0.0
 11
118.8307149365853
 21
112.936083171039
 31
0.0
  0
LINE
  5
183
330
1F
100
AcDbEntity
  8
GR1
  6
Continuous
 62
     6
370
    25
100
AcDbLine
 10
120.9825997419183
 20
119.124083171039
 30
0.0
 11
122.5909821253448
 21
119.124083171039
 31
0.0
  0
LINE
  5
184
330
1F
100
AcDbEntity
  8
GR1
  6
Continuous
 62
     6
370
    25
100
AcDbLine
 10
121.790982125345
 20
119.9324655544656
 30
0.0
 11
121.790982125345
 21
105.9324655544656
 31
0.0
  0
LINE
  5
185
330
1F
100
AcDbEntity
  8
GR1
  6
Continuous
 62
     6
370
    25
100
AcDbLine
 10
122.5909821253448
 20
106.748083171039
 30
0.0
 11
120.9825997419183
 21
106.748083171039
 31
0.0
  0
LINE
  5
186
330
1F
100
AcDbEntity
  8
GR1
  6
DASHDOT
 62
     6
370
    25
100
AcDbLine
 10
268.6506528914995
 20
112.2782758620689
 30
0.0
 11
407.719368205554
 21
112.2782758620689
 31
0.0
  0
LINE
  5
187
330
1F
100
AcDbEntity
  8
GR1
  6
DASHDOT
 62
     6
370
    25
100
AcDbLine
 10
378.025515106224
 20
138.4622988087089
 30
0.0
 11
378.025515106224
 21
228.4313390563869
 31
0.0
  0
LINE
  5
188
330
1F
100
AcDbEntity
  8
GR1
  6
Continuous
 62
     6
370
    25
100
AcDbLine
 10
360.9255151062239
 20
199.9710668163461
 30
0.0
 11
360.9255151062239
 21
112.8482758620689
 31
0.0
  0
CIRCLE
  5
189
330
1F
100
AcDbEntity
  8
GR1
  6
Continuous
 62
     6
370
    25
100
AcDbCircle
 10
338.025515106224
 20
112.2782758620689
 30
0.0
 40
10.0
  0
LINE
  5
18A
330
1F
100
AcDbEntity
  8
GR1
  6
DASHDOT
 62
     6
370
    25
100
AcDbLine
 10
338.025515106224
 20
133.1362629030642
 30
0.0
 11
338.025515106224
 21
44.96077957628069
 31
0.0
  0
LINE
  5
18B
330
1F
100
AcDbEntity
  8
GR1
  6
DASHDOT
 62
     6
370
    25
100
AcDbLine
 10
269.697341731611
 20
330.448275862069
 30
0.0
 11
434.6619098450573
 21
330.448275862069
 31
0.0
  0
LINE
  5
18C
330
1F
100
AcDbEntity
  8
GR1
  6
DASHDOT
 62
     6
370
    25
100
AcDbLine
 10
378.0255151062241
 20
272.5194832924096
 30
0.0
 11
378.0255151062241
 21
389.2965730756914
 31
0.0
  0
ARC
  5
18E
330
1F
100
AcDbEntity
  8
基準ﾚｲﾔｸﾞﾙｰﾌﾟ
  6
Continuous
 62
     3
370
    50
100
AcDbCircle
 10
163.790982125345
 20
212.668583171039
 30
0.0
 40
4.762499999999989
100
AcDbArc
 50
46.20203219356488
 51
133.7979678064351
  0
ARC
  5
18F
330
1F
100
AcDbEntity
  8
基準ﾚｲﾔｸﾞﾙｰﾌﾟ
  6
Continuous
 62
     3
370
    50
100
AcDbCircle
 10
173.1793101299314
 20
212.668583171039
 30
0.0
 40
4.762499999999989
100
AcDbArc
 50
46.20203219356488
 51
133.7979678064351
  0
ARC
  5
190
330
1F
100
AcDbEntity
  8
基準ﾚｲﾔｸﾞﾙｰﾌﾟ
  6
Continuous
 62
     3
370
    50
100
AcDbCircle
 10
181.7087155002376
 20
212.668583171039
 30
0.0
 40
4.762499999999989
100
AcDbArc
 50
46.20203219356488
 51
133.7979678064351
  0
ARC
  5
191
330
1F
100
AcDbEntity
  8
基準ﾚｲﾔｸﾞﾙｰﾌﾟ
  6
Continuous
 62
     3
370
    50
100
AcDbCircle
 10
188.5988570161944
 20
212.668583171039
 30
0.0
 40
4.762499999999989
100
AcDbArc
 50
46.20203219356488
 51
133.7979678064351
  0
ARC
  5
192
330
1F
100
AcDbEntity
  8
基準ﾚｲﾔｸﾞﾙｰﾌﾟ
  6
Continuous
 62
     3
370
    50
100
AcDbCircle
 10
193.2193670022626
 20
212.668583171039
 30
0.0
 40
4.762499999999989
100
AcDbArc
 50
46.20203219356488
 51
119.0185599237923
  0
ARC
  5
193
330
1F
100
AcDbEntity
  8
基準ﾚｲﾔｸﾞﾙｰﾌﾟ
  6
Continuous
 62
     3
370
    50
100
AcDbCircle
 10
195.1475226256852
 20
212.668583171039
 30
0.0
 40
4.762499999999989
100
AcDbArc
 50
46.20203219356488
 51
101.6791555551495
  0
ARC
  5
194
330
1F
100
AcDbEntity
  8
基準ﾚｲﾔｸﾞﾙｰﾌﾟ
  6
Continuous
 62
     3
370
    50
100
AcDbCircle
 10
154.4026541207585
 20
212.668583171039
 30
0.0
 40
4.762499999999989
100
AcDbArc
 50
46.20203219356488
 51
133.7979678064351
  0
ARC
  5
195
330
1F
100
AcDbEntity
  8
基準ﾚｲﾔｸﾞﾙｰﾌﾟ
  6
Continuous
 62
     3
370
    50
100
AcDbCircle
 10
145.8732487504523
 20
212.668583171039
 30
0.0
 40
4.762499999999989
100
AcDbArc
 50
46.20203219356488
 51
133.7979678064351
  0
ARC
  5
196
330
1F
100
AcDbEntity
  8
基準ﾚｲﾔｸﾞﾙｰﾌﾟ
  6
Continuous
 62
     3
370
    50
100
AcDbCircle
 10
138.9831072344955
 20
212.668583171039
 30
0.0
 40
4.762499999999989
100
AcDbArc
 50
46.20203219356488
 51
133.7979678064351
  0
ARC
  5
197
330
1F
100
AcDbEntity
  8
基準ﾚｲﾔｸﾞﾙｰﾌﾟ
  6
Continuous
 62
     3
370
    50
100
AcDbCircle
 10
134.3625972484273
 20
212.668583171039
 30
0.0
 40
4.762499999999989
100
AcDbArc
 50
60.98144007620775
 51
133.7979678064351
  0
ARC
  5
198
330
1F
100
AcDbEntity
  8
基準ﾚｲﾔｸﾞﾙｰﾌﾟ
  6
Continuous
 62
     3
370
    50
100
AcDbCircle
 10
132.4344416250048
 20
212.668583171039
 30
0.0
 40
4.762499999999989
100
AcDbArc
 50
78.32084444485048
 51
133.7979678064351
  0
ARC
  5
199
330
1F
100
AcDbEntity
  8
基準ﾚｲﾔｸﾞﾙｰﾌﾟ
  6
Continuous
 62
     3
370
    50
100
AcDbCircle
 10
378.025515106224
 20
212.0107758620689
 30
0.0
 40
4.762499999999989
100
AcDbArc
 50
46.20203219356488
 51
133.7979678064354
  0
ARC
  5
19A
330
1F
100
AcDbEntity
  8
基準ﾚｲﾔｸﾞﾙｰﾌﾟ
  6
Continuous
 62
     3
370
    50
100
AcDbCircle
 10
387.4138431108104
 20
212.0107758620689
 30
0.0
 40
4.762499999999989
100
AcDbArc
 50
46.20203219356488
 51
133.7979678064351
  0
ARC
  5
19B
330
1F
100
AcDbEntity
  8
基準ﾚｲﾔｸﾞﾙｰﾌﾟ
  6
Continuous
 62
     3
370
    50
100
AcDbCircle
 10
395.9432484811166
 20
212.0107758620689
 30
0.0
 40
4.762499999999989
100
AcDbArc
 50
46.20203219356488
 51
133.7979678064351
  0
ARC
  5
19C
330
1F
100
AcDbEntity
  8
基準ﾚｲﾔｸﾞﾙｰﾌﾟ
  6
Continuous
 62
     3
370
    50
100
AcDbCircle
 10
402.8333899970734
 20
212.0107758620689
 30
0.0
 40
4.762499999999989
100
AcDbArc
 50
46.20203219356488
 51
133.7979678064351
  0
ARC
  5
19D
330
1F
100
AcDbEntity
  8
基準ﾚｲﾔｸﾞﾙｰﾌﾟ
  6
Continuous
 62
     3
370
    50
100
AcDbCircle
 10
407.4538999831416
 20
212.0107758620689
 30
0.0
 40
4.762499999999989
100
AcDbArc
 50
46.20203219356488
 51
119.0185599237923
  0
ARC
  5
19E
330
1F
100
AcDbEntity
  8
基準ﾚｲﾔｸﾞﾙｰﾌﾟ
  6
Continuous
 62
     3
370
    50
100
AcDbCircle
 10
409.3820556065642
 20
212.0107758620689
 30
0.0
 40
4.762499999999989
100
AcDbArc
 50
46.20203219356488
 51
101.6791555551495
  0
TEXT
  5
19F
330
1F
100
AcDbEntity
  8
GR1
  6
Continuous
 62
     7
370
    25
100
AcDbText
 10
373.5255126953125
 20
247.4402465820312
 30
0.0
 40
4.0
  1
１０８
 41
0.9264705882352942
  7
FX_VECTOR
 72
     5
 11
382.5255126953125
 21
247.4402465820312
 31
0.0
100
AcDbText
  0
LINE
  5
1A0
330
1F
100
AcDbEntity
  8
GR1
  6
Continuous
 62
     7
370
    25
100
AcDbLine
 10
324.0255151062241
 20
289.448275862069
 30
0.0
 11
324.0255151062241
 21
245.4402709400355
 31
0.0
  0
LINE
  5
1A1
330
1F
100
AcDbEntity
  8
GR1
  6
Continuous
 62
     7
370
    25
100
AcDbLine
 10
432.0255151062241
 20
289.448275862069
 30
0.0
 11
432.0255151062241
 21
245.4402709400355
 31
0.0
  0
LINE
  5
1A2
330
1F
100
AcDbEntity
  8
GR1
  6
Continuous
 62
     7
370
    25
100
AcDbLine
 10
324.0255151062241
 20
246.4402709400355
 30
0.0
 11
432.0255151062241
 21
246.4402709400355
 31
0.0
  0
INSERT
  5
1A3
330
1F
100
AcDbEntity
  8
GR1
  6
Continuous
 62
     7
370
    25
100
AcDbBlockReference
  2
FXTIP_ARROW_S
 10
324.0255151062241
 20
246.4402709400355
 30
0.0
 41
4.0
 42
4.0
 50
180.0
  0
INSERT
  5
1A4
330
1F
100
AcDbEntity
  8
GR1
  6
Continuous
 62
     7
370
    25
100
AcDbBlockReference
  2
FXTIP_ARROW_E
 10
432.0255151062241
 20
246.4402709400355
 30
0.0
 41
4.0
 42
4.0
 50
360.0
  0
TEXT
  5
1A5
330
1F
100
AcDbEntity
  8
GR1
  6
Continuous
 62
     7
370
    25
100
AcDbText
 10
375.0255126953125
 20
257.4402770996094
 30
0.0
 40
4.0
  1
８２
 41
0.9545454545454547
  7
FX_VECTOR
 72
     5
 11
381.0255126953125
 21
257.4402770996094
 31
0.0
100
AcDbText
  0
LINE
  5
1A6
330
1F
100
AcDbEntity
  8
GR1
  6
Continuous
 62
     7
370
    25
100
AcDbLine
 10
337.0255151062241
 20
281.115477694733
 30
0.0
 11
337.0255151062241
 21
255.4402709400355
 31
0.0
  0
LINE
  5
1A7
330
1F
100
AcDbEntity
  8
GR1
  6
Continuous
 62
     7
370
    25
100
AcDbLine
 10
419.0255151062242
 20
281.1840444403167
 30
0.0
 11
419.0255151062242
 21
255.4402709400355
 31
0.0
  0
LINE
  5
1A8
330
1F
100
AcDbEntity
  8
GR1
  6
Continuous
 62
     7
370
    25
100
AcDbLine
 10
337.0255151062241
 20
256.4402709400355
 30
0.0
 11
419.0255151062242
 21
256.4402709400355
 31
0.0
  0
INSERT
  5
1A9
330
1F
100
AcDbEntity
  8
GR1
  6
Continuous
 62
     7
370
    25
100
AcDbBlockReference
  2
FXTIP_ARROW_S
 10
337.0255151062241
 20
256.4402709400355
 30
0.0
 41
4.0
 42
4.0
 50
180.0
  0
INSERT
  5
1AA
330
1F
100
AcDbEntity
  8
GR1
  6
Continuous
 62
     7
370
    25
100
AcDbBlockReference
  2
FXTIP_ARROW_E
 10
419.0255151062242
 20
256.4402709400355
 30
0.0
 41
4.0
 42
4.0
 50
360.0
  0
TEXT
  5
1AB
330
1F
100
AcDbEntity
  8
GR1
  6
Continuous
 62
     7
370
    25
100
AcDbText
 10
375.0255126953125
 20
267.4402770996094
 30
0.0
 40
4.0
  1
７９
 41
0.9545454545454547
  7
FX_VECTOR
 72
     5
 11
381.0255126953125
 21
267.4402770996094
 31
0.0
100
AcDbText
  0
LINE
  5
1AC
330
1F
100
AcDbEntity
  8
GR1
  6
Continuous
 62
     7
370
    25
100
AcDbLine
 10
417.5255151062242
 20
282.6840444403167
 30
0.0
 11
417.5255151062242
 21
265.4402709400355
 31
0.0
  0
LINE
  5
1AD
330
1F
100
AcDbEntity
  8
GR1
  6
Continuous
 62
     7
370
    25
100
AcDbLine
 10
338.5255151062241
 20
282.6840444403167
 30
0.0
 11
338.5255151062241
 21
265.4402709400355
 31
0.0
  0
LINE
  5
1AE
330
1F
100
AcDbEntity
  8
GR1
  6
Continuous
 62
     7
370
    25
100
AcDbLine
 10
417.5255151062242
 20
266.4402709400355
 30
0.0
 11
338.5255151062241
 21
266.4402709400355
 31
0.0
  0
INSERT
  5
1AF
330
1F
100
AcDbEntity
  8
GR1
  6
Continuous
 62
     7
370
    25
100
AcDbBlockReference
  2
FXTIP_ARROW_S
 10
417.5255151062242
 20
266.4402709400355
 30
0.0
 41
4.0
 42
4.0
  0
INSERT
  5
1B0
330
1F
100
AcDbEntity
  8
GR1
  6
Continuous
 62
     7
370
    25
100
AcDbBlockReference
  2
FXTIP_ARROW_E
 10
338.5255151062241
 20
266.4402709400355
 30
0.0
 41
4.0
 42
4.0
 50
180.0
  0
TEXT
  5
1B1
330
1F
100
AcDbEntity
  8
GR1
  6
Continuous
 62
     7
370
    25
100
AcDbText
 10
461.1433410644531
 20
325.9482727050781
 30
0.0
 40
4.0
  1
１０８
 50
90.0
 41
0.9264705882352942
  7
FX_VECTOR
 72
     5
 11
461.1433410644531
 21
334.9482727050781
 31
0.0
100
AcDbText
  0
LINE
  5
1B2
330
1F
100
AcDbEntity
  8
GR1
  6
Continuous
 62
     7
370
    25
100
AcDbLine
 10
419.0255151062241
 20
276.448275862069
 30
0.0
 11
463.1433538663003
 21
276.448275862069
 31
0.0
  0
LINE
  5
1B3
330
1F
100
AcDbEntity
  8
GR1
  6
Continuous
 62
     7
370
    25
100
AcDbLine
 10
419.0255151062241
 20
384.448275862069
 30
0.0
 11
463.1433538663003
 21
384.448275862069
 31
0.0
  0
LINE
  5
1B4
330
1F
100
AcDbEntity
  8
GR1
  6
Continuous
 62
     7
370
    25
100
AcDbLine
 10
462.1433538663003
 20
276.448275862069
 30
0.0
 11
462.1433538663003
 21
384.448275862069
 31
0.0
  0
INSERT
  5
1B5
330
1F
100
AcDbEntity
  8
GR1
  6
Continuous
 62
     7
370
    25
100
AcDbBlockReference
  2
FXTIP_ARROW_S
 10
462.1433538663003
 20
276.448275862069
 30
0.0
 41
4.0
 42
4.0
 50
270.0
  0
INSERT
  5
1B6
330
1F
100
AcDbEntity
  8
GR1
  6
Continuous
 62
     7
370
    25
100
AcDbBlockReference
  2
FXTIP_ARROW_E
 10
462.1433538663003
 20
384.448275862069
 30
0.0
 41
4.0
 42
4.0
 50
90.0
  0
TEXT
  5
1B7
330
1F
100
AcDbEntity
  8
GR1
  6
Continuous
 62
     7
370
    25
100
AcDbText
 10
451.1433410644531
 20
327.4482727050781
 30
0.0
 40
4.0
  1
８２
 50
90.0
 41
0.9545454545454547
  7
FX_VECTOR
 72
     5
 11
451.1433410644531
 21
333.4482727050781
 31
0.0
100
AcDbText
  0
LINE
  5
1B8
330
1F
100
AcDbEntity
  8
GR1
  6
Continuous
 62
     7
370
    25
100
AcDbLine
 10
427.1813873948494
 20
371.448275862069
 30
0.0
 11
453.1433538663003
 21
371.448275862069
 31
0.0
  0
LINE
  5
1B9
330
1F
100
AcDbEntity
  8
GR1
  6
Continuous
 62
     7
370
    25
100
AcDbLine
 10
427.1813873948495
 20
289.448275862069
 30
0.0
 11
453.1433538663003
 21
289.448275862069
 31
0.0
  0
LINE
  5
1BA
330
1F
100
AcDbEntity
  8
GR1
  6
Continuous
 62
     7
370
    25
100
AcDbLine
 10
452.1433538663003
 20
371.448275862069
 30
0.0
 11
452.1433538663003
 21
289.448275862069
 31
0.0
  0
INSERT
  5
1BB
330
1F
100
AcDbEntity
  8
GR1
  6
Continuous
 62
     7
370
    25
100
AcDbBlockReference
  2
FXTIP_ARROW_S
 10
452.1433538663003
 20
371.448275862069
 30
0.0
 41
4.0
 42
4.0
 50
90.0
  0
INSERT
  5
1BC
330
1F
100
AcDbEntity
  8
GR1
  6
Continuous
 62
     7
370
    25
100
AcDbBlockReference
  2
FXTIP_ARROW_E
 10
452.1433538663003
 20
289.448275862069
 30
0.0
 41
4.0
 42
4.0
 50
270.0
  0
TEXT
  5
1BD
330
1F
100
AcDbEntity
  8
GR1
  6
Continuous
 62
     7
370
    25
100
AcDbText
 10
441.1433410644531
 20
327.4482727050781
 30
0.0
 40
4.0
  1
７９
 50
90.0
 41
0.9545454545454547
  7
FX_VECTOR
 72
     5
 11
441.1433410644531
 21
333.4482727050781
 31
0.0
100
AcDbText
  0
LINE
  5
1BE
330
1F
100
AcDbEntity
  8
GR1
  6
Continuous
 62
     7
370
    25
100
AcDbLine
 10
425.6813873948494
 20
290.948275862069
 30
0.0
 11
443.1433538663003
 21
290.948275862069
 31
0.0
  0
LINE
  5
1BF
330
1F
100
AcDbEntity
  8
GR1
  6
Continuous
 62
     7
370
    25
100
AcDbLine
 10
425.6813873948494
 20
369.948275862069
 30
0.0
 11
443.1433538663003
 21
369.948275862069
 31
0.0
  0
LINE
  5
1C0
330
1F
100
AcDbEntity
  8
GR1
  6
Continuous
 62
     7
370
    25
100
AcDbLine
 10
442.1433538663003
 20
290.948275862069
 30
0.0
 11
442.1433538663003
 21
369.948275862069
 31
0.0
  0
INSERT
  5
1C1
330
1F
100
AcDbEntity
  8
GR1
  6
Continuous
 62
     7
370
    25
100
AcDbBlockReference
  2
FXTIP_ARROW_S
 10
442.1433538663003
 20
290.948275862069
 30
0.0
 41
4.0
 42
4.0
 50
270.0
  0
INSERT
  5
1C2
330
1F
100
AcDbEntity
  8
GR1
  6
Continuous
 62
     7
370
    25
100
AcDbBlockReference
  2
FXTIP_ARROW_E
 10
442.1433538663003
 20
369.948275862069
 30
0.0
 41
4.0
 42
4.0
 50
90.0
  0
TEXT
  5
1C3
330
1F
100
AcDbEntity
  8
GR1
  6
Continuous
 62
     7
370
    25
100
AcDbText
 10
313.6143844593651
 20
386.374119566787
 30
0.0
 40
4.0
  1
４－１１
 50
45.0
 41
0.9130434782608648
  7
FX_VECTOR
 72
     5
 11
322.0996658336036
 21
394.8594009410255
 31
0.0
100
AcDbText
  0
LINE
  5
1C4
330
1F
100
AcDbEntity
  8
GR1
  6
Continuous
 62
     7
370
    25
100
AcDbLine
 10
332.4293210285116
 20
368.2662953467296
 30
0.0
 11
313.9679536234756
 21
386.7276627517656
 31
0.0
  0
LINE
  5
1C5
330
1F
100
AcDbEntity
  8
GR1
  6
Continuous
 62
     7
370
    25
100
AcDbLine
 10
340.2074956215636
 20
376.0444699397815
 30
0.0
 11
321.7461282165276
 21
394.5058373448176
 31
0.0
  0
LINE
  5
1C6
330
1F
100
AcDbEntity
  8
GR1
  6
Continuous
 62
     7
370
    25
100
AcDbLine
 10
314.6750604046621
 20
386.020555970579
 30
0.0
 11
322.4532349977141
 21
393.798730563631
 31
0.0
  0
INSERT
  5
1C7
330
1F
100
AcDbEntity
  8
GR1
  6
Continuous
 62
     7
370
    25
100
AcDbBlockReference
  2
FXTIP_ARROW_S
 10
314.6750604046621
 20
386.020555970579
 30
0.0
 41
4.0
 42
4.0
 50
225.0
  0
INSERT
  5
1C8
330
1F
100
AcDbEntity
  8
GR1
  6
Continuous
 62
     7
370
    25
100
AcDbBlockReference
  2
FXTIP_ARROW_E
 10
322.4532349977141
 20
393.798730563631
 30
0.0
 41
4.0
 42
4.0
 50
45.0
  0
LINE
  5
1C9
330
1F
100
AcDbEntity
  8
GR1
  6
Continuous
 62
     3
370
    50
100
AcDbLine
 10
418.0255151062241
 20
384.448275862069
 30
0.0
 11
338.0255151062241
 21
384.448275862069
 31
0.0
  0
ARC
  5
1CA
330
1F
100
AcDbEntity
  8
GR1
  6
Continuous
 62
     3
370
    50
100
AcDbCircle
 10
338.0255151062241
 20
370.448275862069
 30
0.0
 40
14.0
100
AcDbArc
 50
90.0
 51
180.0
  0
LINE
  5
1CB
330
1F
100
AcDbEntity
  8
GR1
  6
Continuous
 62
     3
370
    50
100
AcDbLine
 10
324.0255151062241
 20
370.448275862069
 30
0.0
 11
324.0255151062241
 21
290.448275862069
 31
0.0
  0
ARC
  5
1CC
330
1F
100
AcDbEntity
  8
GR1
  6
Continuous
 62
     3
370
    50
100
AcDbCircle
 10
338.0255151062241
 20
290.448275862069
 30
0.0
 40
14.0
100
AcDbArc
 50
180.0
 51
270.0
  0
LINE
  5
1CD
330
1F
100
AcDbEntity
  8
GR1
  6
Continuous
 62
     3
370
    50
100
AcDbLine
 10
338.0255151062241
 20
276.448275862069
 30
0.0
 11
418.0255151062241
 21
276.448275862069
 31
0.0
  0
ARC
  5
1CE
330
1F
100
AcDbEntity
  8
GR1
  6
Continuous
 62
     3
370
    50
100
AcDbCircle
 10
418.0255151062241
 20
290.448275862069
 30
0.0
 40
14.0
100
AcDbArc
 50
270.0
 51
0.0
  0
LINE
  5
1CF
330
1F
100
AcDbEntity
  8
GR1
  6
Continuous
 62
     3
370
    50
100
AcDbLine
 10
432.0255151062241
 20
290.448275862069
 30
0.0
 11
432.0255151062241
 21
370.448275862069
 31
0.0
  0
ARC
  5
1D0
330
1F
100
AcDbEntity
  8
GR1
  6
Continuous
 62
     3
370
    50
100
AcDbCircle
 10
418.0255151062241
 20
370.448275862069
 30
0.0
 40
14.0
100
AcDbArc
 50
0.0
 51
90.0
  0
LINE
  5
1D1
330
1F
100
AcDbEntity
  8
GR1
  6
Continuous
 62
     3
370
    50
100
AcDbLine
 10
415.1364278096981
 20
375.337363158595
 30
0.0
 11
413.6364278096981
 21
373.837363158595
 31
0.0
  0
ARC
  5
1D2
330
1F
100
AcDbEntity
  8
GR1
  6
Continuous
 62
     3
370
    50
100
AcDbCircle
 10
417.5255151062241
 20
369.948275862069
 30
0.0
 40
5.5
100
AcDbArc
 50
135.0000000000008
 51
314.9999999999989
  0
LINE
  5
1D3
330
1F
100
AcDbEntity
  8
GR1
  6
Continuous
 62
     3
370
    50
100
AcDbLine
 10
421.41460240275
 20
366.059188565543
 30
0.0
 11
422.91460240275
 21
367.559188565543
 31
0.0
  0
ARC
  5
1D4
330
1F
100
AcDbEntity
  8
GR1
  6
Continuous
 62
     3
370
    50
100
AcDbCircle
 10
419.0255151062241
 20
371.448275862069
 30
0.0
 40
5.5
100
AcDbArc
 50
314.9999999999989
 51
135.0000000000008
  0
CIRCLE
  5
1D5
330
1F
100
AcDbEntity
  8
GR1
  6
Continuous
 62
     3
370
    50
100
AcDbCircle
 10
378.0255151062241
 20
330.448275862069
 30
0.0
 40
20.2
  0
CIRCLE
  5
1D6
330
1F
100
AcDbEntity
  8
GR1
  6
Continuous
 62
     3
370
    50
100
AcDbCircle
 10
378.0255151062241
 20
330.448275862069
 30
0.0
 40
12.9
  0
ARC
  5
1D7
330
1F
100
AcDbEntity
  8
GR1
  6
Continuous
 62
     3
370
    50
100
AcDbCircle
 10
417.5255151062241
 20
290.948275862069
 30
0.0
 40
5.5
100
AcDbArc
 50
45.00000000000126
 51
224.9999999999987
  0
LINE
  5
1D8
330
1F
100
AcDbEntity
  8
GR1
  6
Continuous
 62
     3
370
    50
100
AcDbLine
 10
413.6364278096981
 20
287.059188565543
 30
0.0
 11
415.1364278096981
 21
285.559188565543
 31
0.0
  0
ARC
  5
1D9
330
1F
100
AcDbEntity
  8
GR1
  6
Continuous
 62
     3
370
    50
100
AcDbCircle
 10
419.0255151062241
 20
289.448275862069
 30
0.0
 40
5.5
100
AcDbArc
 50
224.999999999999
 51
45.00000000000127
  0
LINE
  5
1DA
330
1F
100
AcDbEntity
  8
GR1
  6
Continuous
 62
     3
370
    50
100
AcDbLine
 10
422.91460240275
 20
293.337363158595
 30
0.0
 11
421.41460240275
 21
294.837363158595
 31
0.0
  0
ARC
  5
1DB
330
1F
100
AcDbEntity
  8
GR1
  6
Continuous
 62
     3
370
    50
100
AcDbCircle
 10
338.5255151062241
 20
290.948275862069
 30
0.0
 40
5.5
100
AcDbArc
 50
315.0
 51
134.9999999999999
  0
LINE
  5
1DC
330
1F
100
AcDbEntity
  8
GR1
  6
Continuous
 62
     3
370
    50
100
AcDbLine
 10
334.6364278096981
 20
294.837363158595
 30
0.0
 11
333.1364278096981
 21
293.337363158595
 31
0.0
  0
ARC
  5
1DD
330
1F
100
AcDbEntity
  8
GR1
  6
Continuous
 62
     3
370
    50
100
AcDbCircle
 10
337.0255151062241
 20
289.448275862069
 30
0.0
 40
5.5
100
AcDbArc
 50
135.0
 51
315.0
  0
LINE
  5
1DE
330
1F
100
AcDbEntity
  8
GR1
  6
Continuous
 62
     3
370
    50
100
AcDbLine
 10
340.9146024027501
 20
285.559188565543
 30
0.0
 11
342.4146024027501
 21
287.059188565543
 31
0.0
  0
LINE
  5
1DF
330
1F
100
AcDbEntity
  8
GR1
  6
Continuous
 62
     3
370
    50
100
AcDbLine
 10
333.1364278096981
 20
367.559188565543
 30
0.0
 11
334.6364278096981
 21
366.059188565543
 31
0.0
  0
ARC
  5
1E0
330
1F
100
AcDbEntity
  8
GR1
  6
Continuous
 62
     3
370
    50
100
AcDbCircle
 10
338.5255151062241
 20
369.948275862069
 30
0.0
 40
5.5
100
AcDbArc
 50
225.0
 51
45.0
  0
LINE
  5
1E1
330
1F
100
AcDbEntity
  8
GR1
  6
Continuous
 62
     3
370
    50
100
AcDbLine
 10
342.4146024027501
 20
373.837363158595
 30
0.0
 11
340.9146024027501
 21
375.337363158595
 31
0.0
  0
ARC
  5
1E2
330
1F
100
AcDbEntity
  8
GR1
  6
Continuous
 62
     3
370
    50
100
AcDbCircle
 10
337.0255151062241
 20
371.448275862069
 30
0.0
 40
5.5
100
AcDbArc
 50
45.0
 51
225.0
  0
LINE
  5
1E3
330
1F
100
AcDbEntity
  8
GR1
  6
DASHDOT
 62
     6
370
    25
100
AcDbLine
 10
410.8393578831971
 20
369.948275862069
 30
0.0
 11
424.9630898521439
 21
369.948275862069
 31
0.0
  0
LINE
  5
1E4
330
1F
100
AcDbEntity
  8
GR1
  6
DASHDOT
 62
     6
370
    25
100
AcDbLine
 10
419.0255151062241
 20
363.9146713104512
 30
0.0
 11
419.0255151062241
 21
378.0822658010406
 31
0.0
  0
LINE
  5
1E5
330
1F
100
AcDbEntity
  8
GR1
  6
DASHDOT
 62
     6
370
    25
100
AcDbLine
 10
411.0586704914106
 20
371.448275862069
 30
0.0
 11
426.0596528932111
 21
371.448275862069
 31
0.0
  0
LINE
  5
1E6
330
1F
100
AcDbEntity
  8
GR1
  6
DASHDOT
 62
     6
370
    25
100
AcDbLine
 10
417.5255151062241
 20
363.5637711373096
 30
0.0
 11
417.5255151062241
 21
377.8629531928271
 31
0.0
  0
CIRCLE
  5
1E7
330
1F
100
AcDbEntity
  8
GR1
  6
Continuous
 62
     6
370
    25
100
AcDbCircle
 10
378.025515106224
 20
330.448275862069
 30
0.0
 40
36.25
  0
CIRCLE
  5
1E8
330
1F
100
AcDbEntity
  8
GR1
  6
Continuous
 62
     6
370
    25
100
AcDbCircle
 10
378.0255151062241
 20
330.448275862069
 30
0.0
 40
26.7
  0
CIRCLE
  5
1E9
330
1F
100
AcDbEntity
  8
GR1
  6
Continuous
 62
     6
370
    25
100
AcDbCircle
 10
378.0255151062241
 20
330.448275862069
 30
0.0
 40
25.0
  0
LINE
  5
1EA
330
1F
100
AcDbEntity
  8
GR1
  6
Continuous
 62
     3
370
    50
100
AcDbLine
 10
432.025515106224
 20
224.2732758620689
 30
0.0
 11
432.025515106224
 21
220.2732758620689
 31
0.0
  0
LINE
  5
1EB
330
1F
100
AcDbEntity
  8
GR1
  6
Continuous
 62
     3
370
    50
100
AcDbLine
 10
109.790982125345
 20
224.9310831710391
 30
0.0
 11
109.790982125345
 21
220.9310831710796
 31
0.0
  0
ARC
  5
1EC
330
1F
100
AcDbEntity
  8
GR1
  6
Continuous
 62
     3
370
    50
100
AcDbCircle
 10
342.4690982620165
 20
208.4482758620339
 30
0.0
 40
4.0
100
AcDbArc
 50
185.2259274089667
 51
270.0
  0
LINE
  5
1ED
330
1F
100
AcDbEntity
  8
GR1
  6
Continuous
 62
     3
370
    50
100
AcDbLine
 10
338.4857251271402
 20
208.0839429533562
 30
0.0
 11
337.825515106224
 21
215.4482758620339
 31
0.0
  0
ARC
  5
1EE
330
1F
100
AcDbEntity
  8
GR1
  6
Continuous
 62
     3
370
    50
100
AcDbCircle
 10
341.0960522126533
 20
228.7732758620744
 30
0.0
 40
12.0
100
AcDbArc
 50
225.0994720393112
 51
257.6307325031801
  0
ARC
  5
1EF
330
1F
100
AcDbEntity
  8
基準ﾚｲﾔｸﾞﾙｰﾌﾟ
  6
Continuous
 62
     3
370
    50
100
AcDbCircle
 10
368.6371871016375
 20
212.0107758620338
 30
0.0
 40
4.762499999999989
100
AcDbArc
 50
46.20203219356488
 51
133.7979678064351
  0
ARC
  5
1F0
330
1F
100
AcDbEntity
  8
基準ﾚｲﾔｸﾞﾙｰﾌﾟ
  6
Continuous
 62
     3
370
    50
100
AcDbCircle
 10
360.1077817313314
 20
212.0107758620338
 30
0.0
 40
4.762499999999989
100
AcDbArc
 50
46.20203219356488
 51
133.7979678064351
  0
ARC
  5
1F1
330
1F
100
AcDbEntity
  8
基準ﾚｲﾔｸﾞﾙｰﾌﾟ
  6
Continuous
 62
     3
370
    50
100
AcDbCircle
 10
353.2176402153746
 20
212.0107758620338
 30
0.0
 40
4.762499999999989
100
AcDbArc
 50
46.20203219356488
 51
133.7979678064351
  0
ARC
  5
1F2
330
1F
100
AcDbEntity
  8
基準ﾚｲﾔｸﾞﾙｰﾌﾟ
  6
Continuous
 62
     3
370
    50
100
AcDbCircle
 10
348.5971302293063
 20
212.0107758620338
 30
0.0
 40
4.762499999999989
100
AcDbArc
 50
60.98144007620775
 51
133.7979678064351
  0
ARC
  5
1F3
330
1F
100
AcDbEntity
  8
基準ﾚｲﾔｸﾞﾙｰﾌﾟ
  6
Continuous
 62
     3
370
    50
100
AcDbCircle
 10
346.6689746058838
 20
212.0107758620338
 30
0.0
 40
4.762499999999989
100
AcDbArc
 50
78.32084444485048
 51
133.7979678064351
  0
LINE
  5
1F4
330
1F
100
AcDbEntity
  8
GR1
  6
Continuous
 62
     3
370
    50
100
AcDbLine
 10
324.025515106224
 20
224.2732758620339
 30
0.0
 11
324.025515106224
 21
220.2732758620745
 31
0.0
  0
LINE
  5
1F5
330
1F
100
AcDbEntity
  8
GR1
  6
DASHDOT
 62
     6
370
    25
100
AcDbLine
 10
345.2116723292511
 20
369.948275862069
 30
0.0
 11
331.0879403603044
 21
369.948275862069
 31
0.0
  0
LINE
  5
1F6
330
1F
100
AcDbEntity
  8
GR1
  6
DASHDOT
 62
     6
370
    25
100
AcDbLine
 10
337.0255151062241
 20
363.9146713104512
 30
0.0
 11
337.0255151062241
 21
378.0822658010406
 31
0.0
  0
LINE
  5
1F7
330
1F
100
AcDbEntity
  8
GR1
  6
DASHDOT
 62
     6
370
    25
100
AcDbLine
 10
344.9923597210376
 20
371.448275862069
 30
0.0
 11
329.9913773192371
 21
371.448275862069
 31
0.0
  0
LINE
  5
1F8
330
1F
100
AcDbEntity
  8
GR1
  6
DASHDOT
 62
     6
370
    25
100
AcDbLine
 10
338.5255151062241
 20
363.5637711373096
 30
0.0
 11
338.5255151062241
 21
377.8629531928271
 31
0.0
  0
LINE
  5
1F9
330
1F
100
AcDbEntity
  8
GR1
  6
DASHDOT
 62
     6
370
    25
100
AcDbLine
 10
410.8393578831971
 20
290.948275862069
 30
0.0
 11
424.9630898521439
 21
290.948275862069
 31
0.0
  0
LINE
  5
1FA
330
1F
100
AcDbEntity
  8
GR1
  6
DASHDOT
 62
     6
370
    25
100
AcDbLine
 10
419.0255151062241
 20
296.9818804136868
 30
0.0
 11
419.0255151062241
 21
282.8142859230974
 31
0.0
  0
LINE
  5
1FB
330
1F
100
AcDbEntity
  8
GR1
  6
DASHDOT
 62
     6
370
    25
100
AcDbLine
 10
411.0586704914106
 20
289.448275862069
 30
0.0
 11
426.0596528932111
 21
289.448275862069
 31
0.0
  0
LINE
  5
1FC
330
1F
100
AcDbEntity
  8
GR1
  6
DASHDOT
 62
     6
370
    25
100
AcDbLine
 10
417.5255151062241
 20
297.3327805868284
 30
0.0
 11
417.5255151062241
 21
283.0335985313109
 31
0.0
  0
LINE
  5
1FD
330
1F
100
AcDbEntity
  8
GR1
  6
DASHDOT
 62
     6
370
    25
100
AcDbLine
 10
345.2116723292511
 20
290.948275862069
 30
0.0
 11
331.0879403603044
 21
290.948275862069
 31
0.0
  0
LINE
  5
1FE
330
1F
100
AcDbEntity
  8
GR1
  6
DASHDOT
 62
     6
370
    25
100
AcDbLine
 10
337.0255151062241
 20
296.9818804136868
 30
0.0
 11
337.0255151062241
 21
282.8142859230974
 31
0.0
  0
LINE
  5
1FF
330
1F
100
AcDbEntity
  8
GR1
  6
DASHDOT
 62
     6
370
    25
100
AcDbLine
 10
344.9923597210376
 20
289.448275862069
 30
0.0
 11
329.9913773192371
 21
289.448275862069
 31
0.0
  0
LINE
  5
200
330
1F
100
AcDbEntity
  8
GR1
  6
DASHDOT
 62
     6
370
    25
100
AcDbLine
 10
338.5255151062241
 20
297.3327805868284
 30
0.0
 11
338.5255151062241
 21
283.0335985313109
 31
0.0
  0
LINE
  5
201
330
1F
100
AcDbEntity
  8
図面枠ﾚｲﾔ
  6
DASHDOT
 62
     6
370
    25
100
AcDbLine
 10
419.0255151062241
 20
226.9580234326086
 30
0.0
 11
419.0255151062241
 21
216.1936800201014
 31
0.0
  0
LINE
  5
202
330
1F
100
AcDbEntity
  8
図面枠ﾚｲﾔ
  6
DASHDOT
 62
     6
370
    25
100
AcDbLine
 10
417.5255151062241
 20
226.9580234326086
 30
0.0
 11
417.5255151062241
 21
216.1936800201014
 31
0.0
  0
LINE
  5
203
330
1F
100
AcDbEntity
  8
図面枠ﾚｲﾔ
  6
DASHDOT
 62
     6
370
    25
100
AcDbLine
 10
337.0255151062239
 20
226.9580234326086
 30
0.0
 11
337.0255151062239
 21
216.1936800201014
 31
0.0
  0
LINE
  5
204
330
1F
100
AcDbEntity
  8
図面枠ﾚｲﾔ
  6
DASHDOT
 62
     6
370
    25
100
AcDbLine
 10
338.5255151062239
 20
226.9580234326086
 30
0.0
 11
338.525515106224
 21
216.1936800201014
 31
0.0
  0
LINE
  5
205
330
1F
100
AcDbEntity
  8
図面枠ﾚｲﾔ
  6
DASHDOT
 62
     6
370
    25
100
AcDbLine
 10
204.7909821253451
 20
227.6158307415787
 30
0.0
 11
204.7909821253451
 21
216.8514873290715
 31
0.0
  0
LINE
  5
206
330
1F
100
AcDbEntity
  8
図面枠ﾚｲﾔ
  6
DASHDOT
 62
     6
370
    25
100
AcDbLine
 10
203.2909821253451
 20
227.6158307415787
 30
0.0
 11
203.2909821253451
 21
216.8514873290715
 31
0.0
  0
LINE
  5
207
330
1F
100
AcDbEntity
  8
図面枠ﾚｲﾔ
  6
DASHDOT
 62
     6
370
    25
100
AcDbLine
 10
122.7909821253449
 20
227.6158307415787
 30
0.0
 11
122.7909821253449
 21
216.8514873290715
 31
0.0
  0
LINE
  5
208
330
1F
100
AcDbEntity
  8
図面枠ﾚｲﾔ
  6
DASHDOT
 62
     6
370
    25
100
AcDbLine
 10
124.2909821253449
 20
227.6158307415787
 30
0.0
 11
124.2909821253449
 21
216.8514873290715
 31
0.0
  0
ARC
  5
209
330
1F
100
AcDbEntity
  8
基準ﾚｲﾔｸﾞﾙｰﾌﾟ
  6
Continuous
 62
     3
370
    50
100
AcDbCircle
 10
338.025515106224
 20
112.2782758620689
 30
0.0
 40
65.0
100
AcDbArc
 50
97.98361900473643
 51
44.21174065810125
  0
LINE
  5
20A
330
1F
100
AcDbEntity
  8
GR1
  6
Continuous
 62
     3
370
    50
100
AcDbLine
 10
338.5255151062239
 20
220.2732758621095
 30
0.0
 11
432.025515106224
 21
220.2732758621095
 31
0.0
  0
LINE
  5
20B
330
1F
100
AcDbEntity
  8
図面枠ﾚｲﾔ
  6
DASHDOT
 62
     6
370
    25
100
AcDbLine
 10
338.5255151062239
 20
217.0518280426082
 30
0.0
 11
338.5255151062239
 21
216.1936800201014
 31
0.0
  0
LINE
  5
20C
330
1F
100
AcDbEntity
  8
GR1
  6
Continuous
 62
     3
370
    50
100
AcDbLine
 10
341.0960522126534
 20
216.7732758621094
 30
0.0
 11
414.9549779997947
 21
216.7732758621094
 31
0.0
  0
LINE
  5
20D
330
1F
100
AcDbEntity
  8
基準ﾚｲﾔｸﾞﾙｰﾌﾟ
  6
Continuous
 62
     3
370
    50
100
AcDbLine
 10
190.290982125345
 20
122.9360831710391
 30
0.0
 11
189.7909821253451
 21
122.9360831710391
 31
0.0
  0
LINE
  5
20E
330
1F
100
AcDbEntity
  8
基準ﾚｲﾔｸﾞﾙｰﾌﾟ
  6
Continuous
 62
     3
370
    50
100
AcDbLine
 10
190.290982125345
 20
102.9360831710389
 30
0.0
 11
189.7909821253453
 21
102.9360831710389
 31
0.0
  0
LINE
  5
20F
330
1F
100
AcDbEntity
  8
基準ﾚｲﾔｸﾞﾙｰﾌﾟ
  6
Continuous
 62
     3
370
    50
100
AcDbLine
 10
137.7909821253449
 20
122.9360831710388
 30
0.0
 11
137.290982125345
 21
122.9360831710388
 31
0.0
  0
LINE
  5
210
330
1F
100
AcDbEntity
  8
基準ﾚｲﾔｸﾞﾙｰﾌﾟ
  6
Continuous
 62
     3
370
    50
100
AcDbLine
 10
137.7909821253447
 20
102.9360831710392
 30
0.0
 11
137.290982125345
 21
102.9360831710392
 31
0.0
  0
TEXT
  5
211
330
1F
100
AcDbEntity
  8
基準ﾚｲﾔｸﾞﾙｰﾌﾟ
  6
Continuous
 62
     7
370
    25
100
AcDbText
 10
160.7909851074219
 20
36.07222366280648
 30
0.0
 40
4.0
  1
３８
 41
0.9545454545454547
  7
FX_VECTOR
 72
     5
 11
166.7909851074219
 21
36.07222366385368
 31
0.0
100
AcDbText
  0
LINE
  5
212
330
1F
100
AcDbEntity
  8
基準ﾚｲﾔｸﾞﾙｰﾌﾟ
  6
Continuous
 62
     7
370
    25
100
AcDbLine
 10
144.7909821253449
 20
35.07222472221498
 30
0.0
 11
182.790982125345
 21
35.07222472221498
 31
0.0
  0
INSERT
  5
213
330
1F
100
AcDbEntity
  8
基準ﾚｲﾔｸﾞﾙｰﾌﾟ
  6
Continuous
 62
     7
370
    25
100
AcDbBlockReference
  2
FXTIP_ARROW_S
 10
144.7909821253449
 20
35.07222472221498
 30
0.0
 41
4.0
 42
4.0
 50
180.0
  0
INSERT
  5
214
330
1F
100
AcDbEntity
  8
基準ﾚｲﾔｸﾞﾙｰﾌﾟ
  6
Continuous
 62
     7
370
    25
100
AcDbBlockReference
  2
FXTIP_ARROW_E
 10
182.790982125345
 20
35.07222472221498
 30
0.0
 41
4.0
 42
4.0
 50
360.0
  0
LINE
  5
215
330
1F
100
AcDbEntity
  8
基準ﾚｲﾔｸﾞﾙｰﾌﾟ
  6
Continuous
 62
     7
370
    25
100
AcDbLine
 10
144.7909821253449
 20
50.12653055735099
 30
0.0
 11
144.7909821253449
 21
34.07222472221498
 31
0.0
  0
LINE
  5
216
330
1F
100
AcDbEntity
  8
基準ﾚｲﾔｸﾞﾙｰﾌﾟ
  6
Continuous
 62
     7
370
    25
100
AcDbLine
 10
182.790982125345
 20
50.12653055735099
 30
0.0
 11
182.790982125345
 21
34.07222472221498
 31
0.0
  0
TEXT
  5
217
330
1F
100
AcDbEntity
  8
基準ﾚｲﾔｸﾞﾙｰﾌﾟ
  6
Continuous
 62
     7
370
    25
100
AcDbText
 10
160.7909851074219
 20
26.93718337960335
 30
0.0
 40
4.0
  1
５３
 41
0.9545454545454547
  7
FX_VECTOR
 72
     5
 11
166.7909851074219
 21
26.93718338065055
 31
0.0
100
AcDbText
  0
LINE
  5
218
330
1F
100
AcDbEntity
  8
基準ﾚｲﾔｸﾞﾙｰﾌﾟ
  6
Continuous
 62
     7
370
    25
100
AcDbLine
 10
137.7909821253446
 20
25.93718331517901
 30
0.0
 11
189.7909821253453
 21
25.937183315179
 31
0.0
  0
INSERT
  5
219
330
1F
100
AcDbEntity
  8
基準ﾚｲﾔｸﾞﾙｰﾌﾟ
  6
Continuous
 62
     7
370
    25
100
AcDbBlockReference
  2
FXTIP_ARROW_S
 10
137.7909821253446
 20
25.93718331517901
 30
0.0
 41
4.0
 42
4.0
 50
180.0
  0
INSERT
  5
21A
330
1F
100
AcDbEntity
  8
基準ﾚｲﾔｸﾞﾙｰﾌﾟ
  6
Continuous
 62
     7
370
    25
100
AcDbBlockReference
  2
FXTIP_ARROW_E
 10
189.7909821253453
 20
25.937183315179
 30
0.0
 41
4.0
 42
4.0
 50
360.0
  0
LINE
  5
21B
330
1F
100
AcDbEntity
  8
基準ﾚｲﾔｸﾞﾙｰﾌﾟ
  6
Continuous
 62
     7
370
    25
100
AcDbLine
 10
137.7909821253446
 20
97.93608317103896
 30
0.0
 11
137.7909821253446
 21
24.93718331517901
 31
0.0
  0
LINE
  5
21C
330
1F
100
AcDbEntity
  8
基準ﾚｲﾔｸﾞﾙｰﾌﾟ
  6
Continuous
 62
     7
370
    25
100
AcDbLine
 10
189.7909821253453
 20
97.93608317103896
 30
0.0
 11
189.7909821253453
 21
24.937183315179
 31
0.0
  0
TEXT
  5
21D
330
1F
100
AcDbEntity
  8
基準ﾚｲﾔｸﾞﾙｰﾌﾟ
  6
Continuous
 62
     7
370
    25
100
AcDbText
 10
219.7872619628906
 20
106.9360809326172
 30
0.0
 40
4.0
  1
%%c
 50
90.0
 41
1.05
  7
FX_VECTOR
 72
     5
 11
219.7872619628906
 21
109.9360809326172
 31
0.0
100
AcDbText
  0
TEXT
  5
21E
330
1F
100
AcDbEntity
  8
基準ﾚｲﾔｸﾞﾙｰﾌﾟ
  6
Continuous
 62
     7
370
    25
100
AcDbText
 10
219.7872619628906
 20
109.9360809326172
 30
0.0
 40
4.0
  1
１３０
 50
90.0
 41
0.9264705882352942
  7
FX_VECTOR
 72
     5
 11
219.7872619628906
 21
118.9360809326172
 31
0.0
100
AcDbText
  0
LINE
  5
21F
330
1F
100
AcDbEntity
  8
基準ﾚｲﾔｸﾞﾙｰﾌﾟ
  6
Continuous
 62
     7
370
    25
100
AcDbLine
 10
220.7872633904064
 20
47.93608317103897
 30
0.0
 11
220.7872633904064
 21
177.936083171039
 31
0.0
  0
INSERT
  5
220
330
1F
100
AcDbEntity
  8
基準ﾚｲﾔｸﾞﾙｰﾌﾟ
  6
Continuous
 62
     7
370
    25
100
AcDbBlockReference
  2
FXTIP_ARROW_S
 10
220.7872633904064
 20
47.93608317103897
 30
0.0
 41
4.0
 42
4.0
 50
270.0
  0
INSERT
  5
221
330
1F
100
AcDbEntity
  8
基準ﾚｲﾔｸﾞﾙｰﾌﾟ
  6
Continuous
 62
     7
370
    25
100
AcDbBlockReference
  2
FXTIP_ARROW_E
 10
220.7872633904064
 20
177.936083171039
 30
0.0
 41
4.0
 42
4.0
 50
90.0
  0
LINE
  5
222
330
1F
100
AcDbEntity
  8
基準ﾚｲﾔｸﾞﾙｰﾌﾟ
  6
Continuous
 62
     7
370
    25
100
AcDbLine
 10
164.790982125345
 20
47.93608317103894
 30
0.0
 11
221.7872633904064
 21
47.93608317103897
 31
0.0
  0
LINE
  5
223
330
1F
100
AcDbEntity
  8
基準ﾚｲﾔｸﾞﾙｰﾌﾟ
  6
Continuous
 62
     7
370
    25
100
AcDbLine
 10
164.790982125345
 20
177.9360831710389
 30
0.0
 11
221.7872633904064
 21
177.936083171039
 31
0.0
  0
ARC
  5
224
330
1F
100
AcDbEntity
  8
GR1
  6
Continuous
 62
     3
370
    50
100
AcDbCircle
 10
341.0960522126534
 20
228.7732758621095
 30
0.0
 40
12.0
100
AcDbArc
 50
225.0994720393112
 51
270.0
  0
INSERT
  5
228
330
1F
100
AcDbEntity
  8
基準ﾚｲﾔｸﾞﾙｰﾌﾟ
  6
Continuous
 62
     7
370
    25
100
AcDbBlockReference
  2
BLKF026
 10
0.0
 20
0.0
 30
0.0
  0
ARC
  5
234
330
1F
100
AcDbEntity
  8
基準ﾚｲﾔｸﾞﾙｰﾌﾟ
  6
DASHED
 62
     6
370
    25
100
AcDbCircle
 10
338.025515106224
 20
112.2782758620689
 30
0.0
 40
24.25547084863027
100
AcDbArc
 50
150.66668059311
 51
358.8738832011138
  0
ARC
  5
235
330
1F
100
AcDbEntity
  8
基準ﾚｲﾔｸﾞﾙｰﾌﾟ
  6
DASHED
 62
     6
370
    25
100
AcDbCircle
 10
338.025515106224
 20
112.2782758620689
 30
0.0
 40
55.23875111416251
100
AcDbArc
 50
101.9218136853791
 51
40.52371384393792
  0
ARC
  5
236
330
1F
100
AcDbEntity
  8
基準ﾚｲﾔｸﾞﾙｰﾌﾟ
  6
Continuous
 62
     6
370
    25
100
AcDbCircle
 10
338.025515106224
 20
112.2782758620689
 30
0.0
 40
58.0730273495009
100
AcDbArc
 50
100.6291659322176
 51
41.73277157840823
  0
ARC
  5
237
330
1F
100
AcDbEntity
  8
基準ﾚｲﾔｸﾞﾙｰﾌﾟ
  6
Continuous
 62
     6
370
    25
100
AcDbCircle
 10
338.025515106224
 20
112.2782758620689
 30
0.0
 40
63.41078758044904
100
AcDbArc
 50
98.53538777307129
 51
43.69424883519807
  0
INSERT
  5
23B
330
1F
100
AcDbEntity
  8
基準ﾚｲﾔｸﾞﾙｰﾌﾟ
  6
Continuous
 62
     7
370
    25
100
AcDbBlockReference
  2
BLKF027
 10
0.0
 20
0.0
 30
0.0
  0
LINE
  5
242
330
1F
100
AcDbEntity
  8
基準ﾚｲﾔｸﾞﾙｰﾌﾟ
  6
Continuous
 62
     3
370
    50
100
AcDbLine
 10
139.7909821253449
 20
95.43608317103896
 30
0.0
 11
139.7909821253449
 21
130.4360831710389
 31
0.0
  0
LINE
  5
243
330
1F
100
AcDbEntity
  8
基準ﾚｲﾔｸﾞﾙｰﾌﾟ
  6
Continuous
 62
     3
370
    50
100
AcDbLine
 10
137.2909821253449
 20
126.936083171039
 30
0.0
 11
137.2909821253449
 21
124.186083171039
 31
0.0
  0
ARC
  5
244
330
1F
100
AcDbEntity
  8
基準ﾚｲﾔｸﾞﾙｰﾌﾟ
  6
Continuous
 62
     3
370
    50
100
AcDbCircle
 10
163.7909821253449
 20
-22.06391682896104
 30
0.0
 40
200.0
100
AcDbArc
 50
85.20767813702541
 51
94.79232186297465
  0
LINE
  5
245
330
1F
100
AcDbEntity
  8
基準ﾚｲﾔｸﾞﾙｰﾌﾟ
  6
Continuous
 62
     3
370
    50
100
AcDbLine
 10
144.7909821253449
 20
51.12653055735099
 30
0.0
 11
144.7909821253449
 21
174.7456357847269
 31
0.0
  0
LINE
  5
246
330
1F
100
AcDbEntity
  8
基準ﾚｲﾔｸﾞﾙｰﾌﾟ
  6
Continuous
 62
     3
370
    50
100
AcDbLine
 10
144.2206700713737
 20
132.9360831710389
 30
0.0
 11
142.2909821253449
 21
132.9360831710389
 31
0.0
  0
LINE
  5
247
330
1F
100
AcDbEntity
  8
基準ﾚｲﾔｸﾞﾙｰﾌﾟ
  6
Continuous
 62
     3
370
    50
100
AcDbLine
 10
138.7909821253449
 20
126.936083171039
 30
0.0
 11
137.7909821253449
 21
126.936083171039
 31
0.0
  0
LINE
  5
248
330
1F
100
AcDbEntity
  8
基準ﾚｲﾔｸﾞﾙｰﾌﾟ
  6
Continuous
 62
     3
370
    50
100
AcDbLine
 10
190.2909821253449
 20
126.936083171039
 30
0.0
 11
190.2909821253449
 21
124.186083171039
 31
0.0
  0
ARC
  5
249
330
1F
100
AcDbEntity
  8
基準ﾚｲﾔｸﾞﾙｰﾌﾟ
  6
Continuous
 62
     3
370
    50
100
AcDbCircle
 10
138.7909821253449
 20
127.936083171039
 30
0.0
 40
1.0
100
AcDbArc
 50
270.0
 51
0.0
  0
LINE
  5
24A
330
1F
100
AcDbEntity
  8
基準ﾚｲﾔｸﾞﾙｰﾌﾟ
  6
Continuous
 62
     3
370
    50
100
AcDbLine
 10
137.2909821253449
 20
98.93608317103896
 30
0.0
 11
137.2909821253449
 21
101.686083171039
 31
0.0
  0
LINE
  5
24B
330
1F
100
AcDbEntity
  8
基準ﾚｲﾔｸﾞﾙｰﾌﾟ
  6
Continuous
 62
     3
370
    50
100
AcDbLine
 10
138.7909821253449
 20
98.93608317103896
 30
0.0
 11
137.7909821253446
 21
98.93608317103896
 31
0.0
  0
LINE
  5
24C
330
1F
100
AcDbEntity
  8
基準ﾚｲﾔｸﾞﾙｰﾌﾟ
  6
Continuous
 62
     3
370
    50
100
AcDbLine
 10
190.2909821253449
 20
98.93608317103896
 30
0.0
 11
190.2909821253449
 21
101.686083171039
 31
0.0
  0
ARC
  5
24D
330
1F
100
AcDbEntity
  8
基準ﾚｲﾔｸﾞﾙｰﾌﾟ
  6
Continuous
 62
     3
370
    50
100
AcDbCircle
 10
138.7909821253449
 20
97.93608317103896
 30
0.0
 40
1.0
100
AcDbArc
 50
0.0
 51
90.0
  0
ARC
  5
24E
330
1F
100
AcDbEntity
  8
基準ﾚｲﾔｸﾞﾙｰﾌﾟ
  6
Continuous
 62
     3
370
    50
100
AcDbCircle
 10
144.2206700713737
 20
147.9360831710389
 30
0.0
 40
15.0
100
AcDbArc
 50
270.0
 51
272.1789567716482
  0
ARC
  5
24F
330
1F
100
AcDbEntity
  8
基準ﾚｲﾔｸﾞﾙｰﾌﾟ
  6
Continuous
 62
     3
370
    50
100
AcDbCircle
 10
163.7909821253449
 20
247.9360831710389
 30
0.0
 40
200.0
100
AcDbArc
 50
265.2076781370254
 51
274.7923218629746
  0
LINE
  5
250
330
1F
100
AcDbEntity
  8
基準ﾚｲﾔｸﾞﾙｰﾌﾟ
  6
Continuous
 62
     3
370
    50
100
AcDbLine
 10
144.2206700713737
 20
92.93608317103896
 30
0.0
 11
142.2909821253449
 21
92.93608317103896
 31
0.0
  0
ARC
  5
251
330
1F
100
AcDbEntity
  8
基準ﾚｲﾔｸﾞﾙｰﾌﾟ
  6
Continuous
 62
     3
370
    50
100
AcDbCircle
 10
144.2206700713737
 20
77.93608317103896
 30
0.0
 40
15.0
100
AcDbArc
 50
87.82104322835171
 51
90.0
  0
ARC
  5
252
330
1F
100
AcDbEntity
  8
基準ﾚｲﾔｸﾞﾙｰﾌﾟ
  6
Continuous
 62
     3
370
    50
100
AcDbCircle
 10
142.2909821253449
 20
130.4360831710389
 30
0.0
 40
2.5
100
AcDbArc
 50
90.0
 51
180.0
  0
ARC
  5
253
330
1F
100
AcDbEntity
  8
基準ﾚｲﾔｸﾞﾙｰﾌﾟ
  6
Continuous
 62
     3
370
    50
100
AcDbCircle
 10
142.2909821253449
 20
95.43608317103896
 30
0.0
 40
2.5
100
AcDbArc
 50
180.0
 51
270.0
  0
ARC
  5
254
330
1F
100
AcDbEntity
  8
基準ﾚｲﾔｸﾞﾙｰﾌﾟ
  6
Continuous
 62
     3
370
    50
100
AcDbCircle
 10
147.2909821253448
 20
174.7456357847269
 30
0.0
 40
2.5
100
AcDbArc
 50
94.79232186297473
 51
180.0
  0
ARC
  5
255
330
1F
100
AcDbEntity
  8
基準ﾚｲﾔｸﾞﾙｰﾌﾟ
  6
Continuous
 62
     3
370
    50
100
AcDbCircle
 10
180.2909821253449
 20
174.7456357847269
 30
0.0
 40
2.5
100
AcDbArc
 50
0.0
 51
85.2076781370256
  0
ARC
  5
256
330
1F
100
AcDbEntity
  8
基準ﾚｲﾔｸﾞﾙｰﾌﾟ
  6
Continuous
 62
     3
370
    50
100
AcDbCircle
 10
180.2909821253448
 20
51.12653055735099
 30
0.0
 40
2.5
100
AcDbArc
 50
274.7923218629747
 51
0.0000000000003562
  0
ARC
  5
257
330
1F
100
AcDbEntity
  8
基準ﾚｲﾔｸﾞﾙｰﾌﾟ
  6
Continuous
 62
     3
370
    50
100
AcDbCircle
 10
147.2909821253449
 20
51.12653055735099
 30
0.0
 40
2.5
100
AcDbArc
 50
179.9999999999997
 51
265.2076781370253
  0
LINE
  5
258
330
1F
100
AcDbEntity
  8
基準ﾚｲﾔｸﾞﾙｰﾌﾟ
  6
Continuous
 62
     3
370
    50
100
AcDbLine
 10
137.7909821253449
 20
126.936083171039
 30
0.0
 11
137.7909821253446
 21
98.93608317103897
 31
0.0
  0
LINE
  5
259
330
1F
100
AcDbEntity
  8
基準ﾚｲﾔｸﾞﾙｰﾌﾟ
  6
Continuous
 62
     3
370
    50
100
AcDbLine
 10
187.790982125345
 20
95.43608317103896
 30
0.0
 11
187.790982125345
 21
130.4360831710389
 31
0.0
  0
LINE
  5
25A
330
1F
100
AcDbEntity
  8
基準ﾚｲﾔｸﾞﾙｰﾌﾟ
  6
Continuous
 62
     3
370
    50
100
AcDbLine
 10
182.790982125345
 20
51.12653055735099
 30
0.0
 11
182.790982125345
 21
174.7456357847269
 31
0.0
  0
LINE
  5
25B
330
1F
100
AcDbEntity
  8
基準ﾚｲﾔｸﾞﾙｰﾌﾟ
  6
Continuous
 62
     3
370
    50
100
AcDbLine
 10
183.3612941793162
 20
132.9360831710389
 30
0.0
 11
185.290982125345
 21
132.9360831710389
 31
0.0
  0
LINE
  5
25C
330
1F
100
AcDbEntity
  8
基準ﾚｲﾔｸﾞﾙｰﾌﾟ
  6
Continuous
 62
     3
370
    50
100
AcDbLine
 10
188.790982125345
 20
126.936083171039
 30
0.0
 11
189.790982125345
 21
126.936083171039
 31
0.0
  0
ARC
  5
25D
330
1F
100
AcDbEntity
  8
基準ﾚｲﾔｸﾞﾙｰﾌﾟ
  6
Continuous
 62
     3
370
    50
100
AcDbCircle
 10
188.790982125345
 20
127.936083171039
 30
0.0
 40
1.0
100
AcDbArc
 50
180.0
 51
270.0
  0
LINE
  5
25E
330
1F
100
AcDbEntity
  8
基準ﾚｲﾔｸﾞﾙｰﾌﾟ
  6
Continuous
 62
     3
370
    50
100
AcDbLine
 10
188.790982125345
 20
98.93608317103896
 30
0.0
 11
189.7909821253453
 21
98.93608317103896
 31
0.0
  0
ARC
  5
25F
330
1F
100
AcDbEntity
  8
基準ﾚｲﾔｸﾞﾙｰﾌﾟ
  6
Continuous
 62
     3
370
    50
100
AcDbCircle
 10
188.790982125345
 20
97.93608317103896
 30
0.0
 40
1.0
100
AcDbArc
 50
90.0
 51
180.0
  0
ARC
  5
260
330
1F
100
AcDbEntity
  8
基準ﾚｲﾔｸﾞﾙｰﾌﾟ
  6
Continuous
 62
     3
370
    50
100
AcDbCircle
 10
183.3612941793162
 20
147.9360831710389
 30
0.0
 40
15.0
100
AcDbArc
 50
267.8210432283517
 51
270.0
  0
LINE
  5
261
330
1F
100
AcDbEntity
  8
基準ﾚｲﾔｸﾞﾙｰﾌﾟ
  6
Continuous
 62
     3
370
    50
100
AcDbLine
 10
183.3612941793162
 20
92.93608317103896
 30
0.0
 11
185.290982125345
 21
92.93608317103896
 31
0.0
  0
ARC
  5
262
330
1F
100
AcDbEntity
  8
基準ﾚｲﾔｸﾞﾙｰﾌﾟ
  6
Continuous
 62
     3
370
    50
100
AcDbCircle
 10
183.3612941793162
 20
77.93608317103896
 30
0.0
 40
15.0
100
AcDbArc
 50
90.0
 51
92.1789567716483
  0
ARC
  5
263
330
1F
100
AcDbEntity
  8
基準ﾚｲﾔｸﾞﾙｰﾌﾟ
  6
Continuous
 62
     3
370
    50
100
AcDbCircle
 10
185.290982125345
 20
130.4360831710389
 30
0.0
 40
2.5
100
AcDbArc
 50
0.0
 51
90.0
  0
ARC
  5
264
330
1F
100
AcDbEntity
  8
基準ﾚｲﾔｸﾞﾙｰﾌﾟ
  6
Continuous
 62
     3
370
    50
100
AcDbCircle
 10
185.290982125345
 20
95.43608317103896
 30
0.0
 40
2.5
100
AcDbArc
 50
270.0
 51
0.0
  0
LINE
  5
265
330
1F
100
AcDbEntity
  8
基準ﾚｲﾔｸﾞﾙｰﾌﾟ
  6
Continuous
 62
     3
370
    50
100
AcDbLine
 10
189.790982125345
 20
126.936083171039
 30
0.0
 11
189.7909821253453
 21
98.93608317103897
 31
0.0
  0
LINE
  5
266
330
1F
100
AcDbEntity
  8
基準ﾚｲﾔｸﾞﾙｰﾌﾟ
  6
Continuous
 62
     3
370
    50
100
AcDbLine
 10
320.525515106224
 20
354.448275862069
 30
0.0
 11
324.0255151062242
 21
354.448275862069
 31
0.0
  0
LINE
  5
267
330
1F
100
AcDbEntity
  8
基準ﾚｲﾔｸﾞﾙｰﾌﾟ
  6
Continuous
 62
     3
370
    50
100
AcDbLine
 10
276.2159624925361
 20
349.448275862069
 30
0.0
 11
324.0255151062242
 21
349.4482758620689
 31
0.0
  0
LINE
  5
268
330
1F
100
AcDbEntity
  8
基準ﾚｲﾔｸﾞﾙｰﾌﾟ
  6
Continuous
 62
     3
370
    50
100
AcDbLine
 10
324.025515106224
 20
355.448275862069
 30
0.0
 11
324.025515106224
 21
356.4482758620692
 31
0.0
  0
ARC
  5
269
330
1F
100
AcDbEntity
  8
基準ﾚｲﾔｸﾞﾙｰﾌﾟ
  6
Continuous
 62
     3
370
    50
100
AcDbCircle
 10
323.025515106224
 20
355.448275862069
 30
0.0
 40
1.0
100
AcDbArc
 50
270.0
 51
0.0
  0
ARC
  5
26A
330
1F
100
AcDbEntity
  8
基準ﾚｲﾔｸﾞﾙｰﾌﾟ
  6
Continuous
 62
     3
370
    50
100
AcDbCircle
 10
473.0255151062239
 20
330.448275862069
 30
0.0
 40
200.0
100
AcDbArc
 50
175.2076781370254
 51
184.7923218629747
  0
LINE
  5
26B
330
1F
100
AcDbEntity
  8
基準ﾚｲﾔｸﾞﾙｰﾌﾟ
  6
Continuous
 62
     3
370
    50
100
AcDbLine
 10
318.025515106224
 20
350.0185879160401
 30
0.0
 11
318.025515106224
 21
351.948275862069
 31
0.0
  0
ARC
  5
26C
330
1F
100
AcDbEntity
  8
基準ﾚｲﾔｸﾞﾙｰﾌﾟ
  6
Continuous
 62
     3
370
    50
100
AcDbCircle
 10
303.025515106224
 20
350.0185879160401
 30
0.0
 40
15.0
100
AcDbArc
 50
357.8210432283518
 51
0.0
  0
ARC
  5
26D
330
1F
100
AcDbEntity
  8
基準ﾚｲﾔｸﾞﾙｰﾌﾟ
  6
Continuous
 62
     3
370
    50
100
AcDbCircle
 10
320.525515106224
 20
351.948275862069
 30
0.0
 40
2.5
100
AcDbArc
 50
90.0
 51
180.0
  0
ARC
  5
26E
330
1F
100
AcDbEntity
  8
基準ﾚｲﾔｸﾞﾙｰﾌﾟ
  6
Continuous
 62
     3
370
    50
100
AcDbCircle
 10
276.2159624925361
 20
313.948275862069
 30
0.0
 40
2.5
100
AcDbArc
 50
184.7923218629747
 51
270.0000000000003
  0
ARC
  5
26F
330
1F
100
AcDbEntity
  8
基準ﾚｲﾔｸﾞﾙｰﾌﾟ
  6
Continuous
 62
     3
370
    50
100
AcDbCircle
 10
276.2159624925361
 20
346.948275862069
 30
0.0
 40
2.5
100
AcDbArc
 50
89.99999999999969
 51
175.2076781370252
  0
LINE
  5
270
330
1F
100
AcDbEntity
  8
基準ﾚｲﾔｸﾞﾙｰﾌﾟ
  6
Continuous
 62
     3
370
    50
100
AcDbLine
 10
320.525515106224
 20
306.4482758620688
 30
0.0
 11
324.0255151062242
 21
306.4482758620688
 31
0.0
  0
LINE
  5
271
330
1F
100
AcDbEntity
  8
基準ﾚｲﾔｸﾞﾙｰﾌﾟ
  6
Continuous
 62
     3
370
    50
100
AcDbLine
 10
276.2159624925361
 20
311.4482758620688
 30
0.0
 11
324.0255151062242
 21
311.4482758620688
 31
0.0
  0
LINE
  5
272
330
1F
100
AcDbEntity
  8
基準ﾚｲﾔｸﾞﾙｰﾌﾟ
  6
Continuous
 62
     3
370
    50
100
AcDbLine
 10
324.025515106224
 20
305.4482758620688
 30
0.0
 11
324.025515106224
 21
304.4482758620686
 31
0.0
  0
ARC
  5
273
330
1F
100
AcDbEntity
  8
基準ﾚｲﾔｸﾞﾙｰﾌﾟ
  6
Continuous
 62
     3
370
    50
100
AcDbCircle
 10
323.025515106224
 20
305.4482758620688
 30
0.0
 40
1.0
100
AcDbArc
 50
0.0
 51
90.0
  0
LINE
  5
274
330
1F
100
AcDbEntity
  8
基準ﾚｲﾔｸﾞﾙｰﾌﾟ
  6
Continuous
 62
     3
370
    50
100
AcDbLine
 10
318.025515106224
 20
310.8779638080977
 30
0.0
 11
318.025515106224
 21
308.9482758620688
 31
0.0
  0
ARC
  5
275
330
1F
100
AcDbEntity
  8
基準ﾚｲﾔｸﾞﾙｰﾌﾟ
  6
Continuous
 62
     3
370
    50
100
AcDbCircle
 10
303.025515106224
 20
310.8779638080977
 30
0.0
 40
15.0
100
AcDbArc
 50
0.0
 51
2.178956771648302
  0
ARC
  5
276
330
1F
100
AcDbEntity
  8
基準ﾚｲﾔｸﾞﾙｰﾌﾟ
  6
Continuous
 62
     3
370
    50
100
AcDbCircle
 10
320.525515106224
 20
308.9482758620688
 30
0.0
 40
2.5
100
AcDbArc
 50
180.0
 51
270.0
  0
ENDSEC
  0
SECTION
  2
OBJECTS
  0
DICTIONARY
  5
C
330
0
100
AcDbDictionary
281
     1
  3
ACAD_GROUP
350
D
  3
ACAD_LAYOUT
350
1A
  3
ACAD_MATERIAL
350
43
  3
ACAD_MLEADERSTYLE
350
6B
  3
ACAD_MLINESTYLE
350
17
  3
ACAD_PLOTSETTINGS
350
19
  3
ACAD_PLOTSTYLENAME
350
E
  3
ACAD_SCALELIST
350
47
  3
ACAD_TABLESTYLE
350
69
  3
ACAD_VISUALSTYLE
350
2A
  3
AcDbVariableDictionary
350
277
  0
DICTIONARY
  5
281
330
8
100
AcDbDictionary
280
     1
281
     1
  3
ACAD_XREC_ROUNDTRIP
360
282
  0
DICTIONARY
  5
D
102
{ACAD_REACTORS
330
C
102
}
330
C
100
AcDbDictionary
281
     1
  0
DICTIONARY
  5
1A
102
{ACAD_REACTORS
330
C
102
}
330
C
100
AcDbDictionary
281
     1
  3
Layout1
350
1E
  3
Layout2
350
26
  3
Model
350
22
  0
DICTIONARY
  5
43
102
{ACAD_REACTORS
330
C
102
}
330
C
100
AcDbDictionary
281
     1
  3
ByBlock
350
45
  3
ByLayer
350
44
  3
Global
350
46
  0
DICTIONARY
  5
6B
102
{ACAD_REACTORS
330
C
102
}
330
C
100
AcDbDictionary
281
     1
  3
Standard
350
6C
  0
DICTIONARY
  5
17
102
{ACAD_REACTORS
330
C
102
}
330
C
100
AcDbDictionary
281
     1
  3
Standard
350
18
  0
DICTIONARY
  5
19
102
{ACAD_REACTORS
330
C
102
}
330
C
100
AcDbDictionary
281
     1
  0
ACDBDICTIONARYWDFLT
  5
E
102
{ACAD_REACTORS
330
C
102
}
330
C
100
AcDbDictionary
281
     1
  3
Normal
350
F
100
AcDbDictionaryWithDefault
340
F
  0
DICTIONARY
  5
47
102
{ACAD_REACTORS
330
C
102
}
330
C
100
AcDbDictionary
281
     1
  3
A0
350
48
  3
A1
350
49
  3
A2
350
4A
  3
A3
350
4B
  3
A4
350
4C
  3
A5
350
4D
  3
A6
350
4E
  3
A7
350
4F
  3
A8
350
50
  3
A9
350
51
  3
B0
350
52
  3
B1
350
53
  3
B2
350
54
  3
B3
350
55
  3
B4
350
56
  3
B5
350
57
  3
B6
350
58
  3
B7
350
59
  3
B8
350
5A
  3
B9
350
5B
  3
C0
350
5C
  3
C1
350
5D
  3
C2
350
5E
  3
C3
350
5F
  3
C4
350
60
  3
C5
350
61
  3
C6
350
62
  3
C7
350
63
  3
C8
350
64
  3
C9
350
65
  3
D0
350
66
  3
D1
350
67
  3
D2
350
68
  0
DICTIONARY
  5
69
102
{ACAD_REACTORS
330
C
102
}
330
C
100
AcDbDictionary
281
     1
  3
Standard
350
6A
  0
DICTIONARY
  5
2A
102
{ACAD_REACTORS
330
C
102
}
330
C
100
AcDbDictionary
281
     1
  3
2dWireframe
350
2F
  3
Basic
350
32
  3
Brighten
350
36
  3
ColorChange
350
3A
  3
Conceptual
350
34
  3
Dim
350
35
  3
EdgeColorOff
350
3D
  3
Facepattern
350
39
  3
Flat
350
2B
  3
FlatWithEdges
350
2C
  3
Gouraud
350
2D
  3
GouraudWithEdges
350
2E
  3
Hidden
350
31
  3
JitterOff
350
3B
  3
Linepattern
350
38
  3
OverhangOff
350
3C
  3
Realistic
350
33
  3
Shaded
350
42
  3
Shaded with edges
350
41
  3
Shades of Gray
350
3E
  3
Sketchy
350
3F
  3
Thicken
350
37
  3
Wireframe
350
30
  3
X-Ray
350
40
  0
DICTIONARY
  5
277
102
{ACAD_REACTORS
330
C
102
}
330
C
100
AcDbDictionary
281
     1
  3
CANNOSCALE
350
283
  3
CMLEADERSTYLE
350
279
  3
CTABLESTYLE
350
278
  3
DIMASSOC
350
27F
  3
HIDETEXT
350
280
  3
MSLTSCALE
350
284
  3
PSOLHEIGHT
350
27B
  3
PSOLWIDTH
350
27A
  3
SECTIONTHICKNESSINC
350
27E
  0
XRECORD
  5
282
102
{ACAD_REACTORS
330
281
102
}
330
281
100
AcDbXrecord
280
     1
102
VTR_0.000_0.000_1.000_1.000_VISUALSTYLE
340
2F
102
VTR_0.000_0.000_1.000_1.000_GRIDDISPLAY
 70
     3
102
VTR_0.000_0.000_1.000_1.000_GRIDMAJOR
 70
     5
102
VTR_0.000_0.000_1.000_1.000_DEFAULTLIGHTING
280
     1
102
VTR_0.000_0.000_1.000_1.000_DEFAULTLIGHTINGTYPE
 70
     1
102
VTR_0.000_0.000_1.000_1.000_BRIGHTNESS
141
0.0
102
VTR_0.000_0.000_1.000_1.000_CONTRAST
142
0.0
  0
LAYOUT
  5
1E
102
{ACAD_REACTORS
330
1A
102
}
330
1A
100
AcDbPlotSettings
  1

  2
none_device
  4

  6

 40
0.0
 41
0.0
 42
0.0
 43
0.0
 44
0.0
 45
0.0
 46
0.0
 47
0.0
 48
0.0
 49
0.0
140
0.0
141
0.0
142
1.0
143
1.0
 70
   688
 72
     1
 73
     0
 74
     5
  7

 75
    16
147
1.0
148
0.0
149
0.0
100
AcDbLayout
  1
Layout1
 70
     1
 71
     1
 10
0.0
 20
0.0
 11
420.0
 21
297.0
 12
0.0
 22
0.0
 32
0.0
 14
1.000000000000000E+20
 24
1.000000000000000E+20
 34
1.000000000000000E+20
 15
-1.000000000000000E+20
 25
-1.000000000000000E+20
 35
-1.000000000000000E+20
146
0.0
 13
0.0
 23
0.0
 33
0.0
 16
1.0
 26
0.0
 36
0.0
 17
0.0
 27
1.0
 37
0.0
 76
     0
330
1B
  0
LAYOUT
  5
26
102
{ACAD_REACTORS
330
1A
102
}
330
1A
100
AcDbPlotSettings
  1

  2
none_device
  4

  6

 40
0.0
 41
0.0
 42
0.0
 43
0.0
 44
0.0
 45
0.0
 46
0.0
 47
0.0
 48
0.0
 49
0.0
140
0.0
141
0.0
142
1.0
143
1.0
 70
   688
 72
     1
 73
     0
 74
     5
  7

 75
    16
147
1.0
148
0.0
149
0.0
100
AcDbLayout
  1
Layout2
 70
     1
 71
     2
 10
0.0
 20
0.0
 11
0.0
 21
0.0
 12
0.0
 22
0.0
 32
0.0
 14
0.0
 24
0.0
 34
0.0
 15
0.0
 25
0.0
 35
0.0
146
0.0
 13
0.0
 23
0.0
 33
0.0
 16
1.0
 26
0.0
 36
0.0
 17
0.0
 27
1.0
 37
0.0
 76
     0
330
23
  0
LAYOUT
  5
22
102
{ACAD_REACTORS
330
1A
102
}
330
1A
100
AcDbPlotSettings
  1

  2
none_device
  4
Letter_(8.50_x_11.00_Inches)
  6

 40
6.35
 41
6.35
 42
6.35000508
 43
6.35000508
 44
215.9
 45
279.4
 46
0.0
 47
0.0
 48
0.0
 49
0.0
140
0.0
141
0.0
142
1.0
143
1.0
 70
  1712
 72
     1
 73
     0
 74
     0
  7

 75
     0
147
1.0
148
0.0
149
0.0
100
AcDbLayout
  1
Model
 70
     1
 71
     0
 10
0.0
 20
0.0
 11
594.0
 21
420.0
 12
0.0
 22
0.0
 32
0.0
 14
0.0
 24
0.0
 34
0.0
 15
594.0
 25
420.0
 35
0.0
146
0.0
 13
0.0
 23
0.0
 33
0.0
 16
1.0
 26
0.0
 36
0.0
 17
0.0
 27
1.0
 37
0.0
 76
     0
330
1F
331
29
  0
MATERIAL
  5
45
102
{ACAD_REACTORS
330
43
102
}
102
{ACAD_XDICTIONARY
360
2B7
102
}
330
43
100
AcDbMaterial
  1
ByBlock
  0
MATERIAL
  5
44
102
{ACAD_REACTORS
330
43
102
}
102
{ACAD_XDICTIONARY
360
2B5
102
}
330
43
100
AcDbMaterial
  1
ByLayer
  0
MATERIAL
  5
46
102
{ACAD_REACTORS
330
43
102
}
102
{ACAD_XDICTIONARY
360
2B9
102
}
330
43
100
AcDbMaterial
  1
Global
  0
MLEADERSTYLE
  5
6C
102
{ACAD_REACTORS
330
6B
102
}
102
{ACAD_XDICTIONARY
360
2BC
102
}
330
6B
100
AcDbMLeaderStyle
170
     2
171
     1
172
     0
 90
        2
 40
0.0
 41
0.0
173
     1
 91
-1056964608
340
14
 92
       -2
290
     1
 42
2.0
291
     1
 43
8.0
  3
Standard
341
0
 44
4.0
300

342
11
174
     1
178
     6
175
     1
176
     0
 93
-1056964608
 45
4.0
292
     0
297
     0
 46
4.0
343
0
 94
-1056964608
 47
1.0
 49
1.0
140
1.0
293
     1
141
0.0
294
     1
177
     0
142
1.0
295
     0
296
     0
143
3.75
1001
ACAD_MLEADERVER
1070
     2
  0
MLINESTYLE
  5
18
102
{ACAD_REACTORS
330
17
102
}
330
17
100
AcDbMlineStyle
  2
Standard
 70
     0
  3

 62
   256
 51
90.0
 52
90.0
 71
     2
 49
0.5
 62
   256
  6
BYLAYER
 49
-0.5
 62
   256
  6
BYLAYER
  0
ACDBPLACEHOLDER
  5
F
102
{ACAD_REACTORS
330
E
102
}
330
E
  0
SCALE
  5
48
102
{ACAD_REACTORS
330
47
102
}
330
47
100
AcDbScale
 70
     0
300
1:1
140
1.0
141
1.0
290
     1
  0
SCALE
  5
49
102
{ACAD_REACTORS
330
47
102
}
330
47
100
AcDbScale
 70
     0
300
1:2
140
1.0
141
2.0
290
     0
  0
SCALE
  5
4A
102
{ACAD_REACTORS
330
47
102
}
330
47
100
AcDbScale
 70
     0
300
1:4
140
1.0
141
4.0
290
     0
  0
SCALE
  5
4B
102
{ACAD_REACTORS
330
47
102
}
330
47
100
AcDbScale
 70
     0
300
1:5
140
1.0
141
5.0
290
     0
  0
SCALE
  5
4C
102
{ACAD_REACTORS
330
47
102
}
330
47
100
AcDbScale
 70
     0
300
1:8
140
1.0
141
8.0
290
     0
  0
SCALE
  5
4D
102
{ACAD_REACTORS
330
47
102
}
330
47
100
AcDbScale
 70
     0
300
1:10
140
1.0
141
10.0
290
     0
  0
SCALE
  5
4E
102
{ACAD_REACTORS
330
47
102
}
330
47
100
AcDbScale
 70
     0
300
1:16
140
1.0
141
16.0
290
     0
  0
SCALE
  5
4F
102
{ACAD_REACTORS
330
47
102
}
330
47
100
AcDbScale
 70
     0
300
1:20
140
1.0
141
20.0
290
     0
  0
SCALE
  5
50
102
{ACAD_REACTORS
330
47
102
}
330
47
100
AcDbScale
 70
     0
300
1:30
140
1.0
141
30.0
290
     0
  0
SCALE
  5
51
102
{ACAD_REACTORS
330
47
102
}
330
47
100
AcDbScale
 70
     0
300
1:40
140
1.0
141
40.0
290
     0
  0
SCALE
  5
52
102
{ACAD_REACTORS
330
47
102
}
330
47
100
AcDbScale
 70
     0
300
1:50
140
1.0
141
50.0
290
     0
  0
SCALE
  5
53
102
{ACAD_REACTORS
330
47
102
}
330
47
100
AcDbScale
 70
     0
300
1:100
140
1.0
141
100.0
290
     0
  0
SCALE
  5
54
102
{ACAD_REACTORS
330
47
102
}
330
47
100
AcDbScale
 70
     0
300
2:1
140
2.0
141
1.0
290
     0
  0
SCALE
  5
55
102
{ACAD_REACTORS
330
47
102
}
330
47
100
AcDbScale
 70
     0
300
4:1
140
4.0
141
1.0
290
     0
  0
SCALE
  5
56
102
{ACAD_REACTORS
330
47
102
}
330
47
100
AcDbScale
 70
     0
300
8:1
140
8.0
141
1.0
290
     0
  0
SCALE
  5
57
102
{ACAD_REACTORS
330
47
102
}
330
47
100
AcDbScale
 70
     0
300
10:1
140
10.0
141
1.0
290
     0
  0
SCALE
  5
58
102
{ACAD_REACTORS
330
47
102
}
330
47
100
AcDbScale
 70
     0
300
100:1
140
100.0
141
1.0
290
     0
  0
SCALE
  5
59
102
{ACAD_REACTORS
330
47
102
}
330
47
100
AcDbScale
 70
     0
300
1/128" = 1'-0"
140
0.0078125
141
12.0
290
     0
  0
SCALE
  5
5A
102
{ACAD_REACTORS
330
47
102
}
330
47
100
AcDbScale
 70
     0
300
1/64" = 1'-0"
140
0.015625
141
12.0
290
     0
  0
SCALE
  5
5B
102
{ACAD_REACTORS
330
47
102
}
330
47
100
AcDbScale
 70
     0
300
1/32" = 1'-0"
140
0.03125
141
12.0
290
     0
  0
SCALE
  5
5C
102
{ACAD_REACTORS
330
47
102
}
330
47
100
AcDbScale
 70
     0
300
1/16" = 1'-0"
140
0.0625
141
12.0
290
     0
  0
SCALE
  5
5D
102
{ACAD_REACTORS
330
47
102
}
330
47
100
AcDbScale
 70
     0
300
3/32" = 1'-0"
140
0.09375
141
12.0
290
     0
  0
SCALE
  5
5E
102
{ACAD_REACTORS
330
47
102
}
330
47
100
AcDbScale
 70
     0
300
1/8" = 1'-0"
140
0.125
141
12.0
290
     0
  0
SCALE
  5
5F
102
{ACAD_REACTORS
330
47
102
}
330
47
100
AcDbScale
 70
     0
300
3/16" = 1'-0"
140
0.1875
141
12.0
290
     0
  0
SCALE
  5
60
102
{ACAD_REACTORS
330
47
102
}
330
47
100
AcDbScale
 70
     0
300
1/4" = 1'-0"
140
0.25
141
12.0
290
     0
  0
SCALE
  5
61
102
{ACAD_REACTORS
330
47
102
}
330
47
100
AcDbScale
 70
     0
300
3/8" = 1'-0"
140
0.375
141
12.0
290
     0
  0
SCALE
  5
62
102
{ACAD_REACTORS
330
47
102
}
330
47
100
AcDbScale
 70
     0
300
1/2" = 1'-0"
140
0.5
141
12.0
290
     0
  0
SCALE
  5
63
102
{ACAD_REACTORS
330
47
102
}
330
47
100
AcDbScale
 70
     0
300
3/4" = 1'-0"
140
0.75
141
12.0
290
     0
  0
SCALE
  5
64
102
{ACAD_REACTORS
330
47
102
}
330
47
100
AcDbScale
 70
     0
300
1" = 1'-0"
140
1.0
141
12.0
290
     0
  0
SCALE
  5
65
102
{ACAD_REACTORS
330
47
102
}
330
47
100
AcDbScale
 70
     0
300
1-1/2" = 1'-0"
140
1.5
141
12.0
290
     0
  0
SCALE
  5
66
102
{ACAD_REACTORS
330
47
102
}
330
47
100
AcDbScale
 70
     0
300
3" = 1'-0"
140
3.0
141
12.0
290
     0
  0
SCALE
  5
67
102
{ACAD_REACTORS
330
47
102
}
330
47
100
AcDbScale
 70
     0
300
6" = 1'-0"
140
6.0
141
12.0
290
     0
  0
SCALE
  5
68
102
{ACAD_REACTORS
330
47
102
}
330
47
100
AcDbScale
 70
     0
300
1'-0" = 1'-0"
140
12.0
141
12.0
290
     0
  0
TABLESTYLE
  5
6A
102
{ACAD_REACTORS
330
69
102
}
330
69
100
AcDbTableStyle
  3
Standard
 70
     0
 71
     0
 40
1.5
 41
1.5
280
     0
281
     0
  7
Standard
140
4.5
170
     2
 62
     0
 63
   257
283
     0
274
    -2
284
     1
 64
     0
275
    -2
285
     1
 65
     0
276
    -2
286
     1
 66
     0
277
    -2
287
     1
 67
     0
278
    -2
288
     1
 68
     0
279
    -2
289
     1
 69
     0
  7
Standard
140
6.0
170
     5
 62
     0
 63
   257
283
     0
274
    -2
284
     1
 64
     0
275
    -2
285
     1
 65
     0
276
    -2
286
     1
 66
     0
277
    -2
287
     1
 67
     0
278
    -2
288
     1
 68
     0
279
    -2
289
     1
 69
     0
  7
Standard
140
4.5
170
     5
 62
     0
 63
   257
283
     0
274
    -2
284
     1
 64
     0
275
    -2
285
     1
 65
     0
276
    -2
286
     1
 66
     0
277
    -2
287
     1
 67
     0
278
    -2
288
     1
 68
     0
279
    -2
289
     1
 69
     0
  0
VISUALSTYLE
  5
2F
102
{ACAD_REACTORS
330
2A
102
}
102
{ACAD_XDICTIONARY
360
28D
102
}
330
2A
100
AcDbVisualStyle
  2
2dWireframe
 70
     4
 71
     0
 72
     2
 73
     0
 90
        0
 40
0.6
 41
30.0
 62
     5
 63
     7
 74
     1
 91
        4
 64
     7
 65
   257
 75
     1
175
     1
 42
1.0
 92
        0
 66
   257
 43
1.0
 76
     1
 77
     6
 78
     2
 67
     7
 79
     5
170
     0
171
     0
290
     0
174
     0
 93
        1
 44
0.0
173
     0
291
     0
 45
0.0
1001
ACAD
1000
AcDbSavedByObjectVersion
1070
     0
  0
VISUALSTYLE
  5
32
102
{ACAD_REACTORS
330
2A
102
}
102
{ACAD_XDICTIONARY
360
293
102
}
330
2A
100
AcDbVisualStyle
  2
Basic
 70
     7
 71
     1
 72
     0
 73
     1
 90
        0
 40
0.6
 41
30.0
 62
     5
 63
     7
 74
     0
 91
        4
 64
     7
 65
   257
 75
     1
175
     1
 42
1.0
 92
        8
 66
     7
 43
1.0
 76
     1
 77
     6
 78
     2
 67
     7
 79
     5
170
     0
171
     0
290
     0
174
     0
 93
        1
 44
0.0
173
     0
291
     1
 45
0.0
1001
ACAD
1000
AcDbSavedByObjectVersion
1070
     0
  0
VISUALSTYLE
  5
36
102
{ACAD_REACTORS
330
2A
102
}
102
{ACAD_XDICTIONARY
360
29B
102
}
330
2A
100
AcDbVisualStyle
  2
Brighten
 70
    12
 71
     2
 72
     2
 73
     0
 90
        0
 40
0.6
 41
30.0
 62
     5
 63
     7
 74
     1
 91
        4
 64
     7
 65
   257
 75
     1
175
     1
 42
1.0
 92
        8
 66
     7
 43
1.0
 76
     1
 77
     6
 78
     2
 67
     7
 79
     5
170
     0
171
     0
290
     0
174
     0
 93
        1
 44
50.0
173
     0
291
     1
 45
0.0
1001
ACAD
1000
AcDbSavedByObjectVersion
1070
     0
  0
VISUALSTYLE
  5
3A
102
{ACAD_REACTORS
330
2A
102
}
102
{ACAD_XDICTIONARY
360
2A3
102
}
330
2A
100
AcDbVisualStyle
  2
ColorChange
 70
    16
 71
     2
 72
     2
 73
     3
 90
        0
 40
0.6
 41
30.0
 62
     5
 63
     8
 74
     1
 91
        4
 64
     7
 65
   257
 75
     1
175
     1
 42
1.0
 92
        8
 66
     8
 43
1.0
 76
     1
 77
     6
 78
     2
 67
     7
 79
     5
170
     0
171
     0
290
     0
174
     0
 93
        1
 44
0.0
173
     0
291
     1
 45
0.0
1001
ACAD
1000
AcDbSavedByObjectVersion
1070
     0
  0
VISUALSTYLE
  5
34
102
{ACAD_REACTORS
330
2A
102
}
102
{ACAD_XDICTIONARY
360
297
102
}
330
2A
100
AcDbVisualStyle
  2
Conceptual
 70
     9
 71
     3
 72
     2
 73
     0
 90
        0
 40
0.6
 41
30.0
 62
     5
 63
     7
 74
     2
 91
        2
 64
     7
 65
   257
 75
     1
175
     1
 42
179.0
 92
        8
 66
     7
 43
1.0
 76
     1
 77
     6
 78
     2
 67
     7
 79
     3
170
     0
171
     0
290
     0
174
     0
 93
        1
 44
0.0
173
     0
291
     0
 45
0.0
1001
ACAD
1000
AcDbSavedByObjectVersion
1070
     0
  0
VISUALSTYLE
  5
35
102
{ACAD_REACTORS
330
2A
102
}
102
{ACAD_XDICTIONARY
360
299
102
}
330
2A
100
AcDbVisualStyle
  2
Dim
 70
    11
 71
     2
 72
     2
 73
     0
 90
        0
 40
0.6
 41
30.0
 62
     5
 63
     7
 74
     1
 91
        4
 64
     7
 65
   257
 75
     1
175
     1
 42
1.0
 92
        8
 66
     7
 43
1.0
 76
     1
 77
     6
 78
     2
 67
     7
 79
     5
170
     0
171
     0
290
     0
174
     0
 93
        1
 44
-50.0
173
     0
291
     1
 45
0.0
1001
ACAD
1000
AcDbSavedByObjectVersion
1070
     0
  0
VISUALSTYLE
  5
3D
102
{ACAD_REACTORS
330
2A
102
}
102
{ACAD_XDICTIONARY
360
2A9
102
}
330
2A
100
AcDbVisualStyle
  2
EdgeColorOff
 70
    22
 71
     2
 72
     2
 73
     0
 90
        0
 40
0.6
 41
30.0
 62
     5
 63
     7
 74
     1
 91
        4
 64
     7
 65
   257
 75
     1
175
     1
 42
1.0
 92
        8
 66
     7
 43
1.0
 76
     1
 77
     6
 78
     2
 67
     7
 79
     5
170
     0
171
     0
290
     0
174
     0
 93
        1
 44
0.0
173
     0
291
     1
 45
0.0
1001
ACAD
1000
AcDbSavedByObjectVersion
1070
     0
  0
VISUALSTYLE
  5
39
102
{ACAD_REACTORS
330
2A
102
}
102
{ACAD_XDICTIONARY
360
2A1
102
}
330
2A
100
AcDbVisualStyle
  2
Facepattern
 70
    15
 71
     2
 72
     2
 73
     0
 90
        0
 40
0.6
 41
30.0
 62
     5
 63
     7
 74
     1
 91
        4
 64
     7
 65
   257
 75
     1
175
     1
 42
1.0
 92
        8
 66
     7
 43
1.0
 76
     1
 77
     6
 78
     2
 67
     7
 79
     5
170
     0
171
     0
290
     0
174
     0
 93
        1
 44
0.0
173
     0
291
     1
 45
0.0
1001
ACAD
1000
AcDbSavedByObjectVersion
1070
     0
  0
VISUALSTYLE
  5
2B
102
{ACAD_REACTORS
330
2A
102
}
102
{ACAD_XDICTIONARY
360
285
102
}
330
2A
100
AcDbVisualStyle
  2
Flat
 70
     0
 71
     2
 72
     1
 73
     1
 90
        2
 40
0.6
 41
30.0
 62
     5
 63
     7
 74
     0
 91
        0
 64
     7
 65
   257
 75
     1
175
     1
 42
1.0
 92
        8
 66
     7
 43
1.0
 76
     1
 77
     6
 78
     2
 67
     7
 79
     5
170
     0
171
     0
290
     0
174
     0
 93
       13
 44
0.0
173
     0
291
     1
 45
0.0
1001
ACAD
1000
AcDbSavedByObjectVersion
1070
     0
  0
VISUALSTYLE
  5
2C
102
{ACAD_REACTORS
330
2A
102
}
102
{ACAD_XDICTIONARY
360
287
102
}
330
2A
100
AcDbVisualStyle
  2
FlatWithEdges
 70
     1
 71
     2
 72
     1
 73
     1
 90
        2
 40
0.6
 41
30.0
 62
     5
 63
     7
 74
     1
 91
        0
 64
     7
 65
   257
 75
     1
175
     1
 42
1.0
 92
        0
 66
   257
 43
1.0
 76
     1
 77
     6
 78
     2
 67
     7
 79
     5
170
     0
171
     0
290
     0
174
     0
 93
       13
 44
0.0
173
     0
291
     1
 45
0.0
1001
ACAD
1000
AcDbSavedByObjectVersion
1070
     0
  0
VISUALSTYLE
  5
2D
102
{ACAD_REACTORS
330
2A
102
}
102
{ACAD_XDICTIONARY
360
289
102
}
330
2A
100
AcDbVisualStyle
  2
Gouraud
 70
     2
 71
     2
 72
     2
 73
     1
 90
        2
 40
0.6
 41
30.0
 62
     5
 63
     7
 74
     0
 91
        0
 64
     7
 65
   257
 75
     1
175
     1
 42
1.0
 92
        0
 66
     7
 43
1.0
 76
     1
 77
     6
 78
     2
 67
     7
 79
     5
170
     0
171
     0
290
     0
174
     0
 93
       13
 44
0.0
173
     0
291
     1
 45
0.0
1001
ACAD
1000
AcDbSavedByObjectVersion
1070
     0
  0
VISUALSTYLE
  5
2E
102
{ACAD_REACTORS
330
2A
102
}
102
{ACAD_XDICTIONARY
360
28B
102
}
330
2A
100
AcDbVisualStyle
  2
GouraudWithEdges
 70
     3
 71
     2
 72
     2
 73
     1
 90
        2
 40
0.6
 41
30.0
 62
     5
 63
     7
 74
     1
 91
        0
 64
     7
 65
   257
 75
     1
175
     1
 42
1.0
 92
        0
 66
   257
 43
1.0
 76
     1
 77
     6
 78
     2
 67
     7
 79
     5
170
     0
171
     0
290
     0
174
     0
 93
       13
 44
0.0
173
     0
291
     1
 45
0.0
1001
ACAD
1000
AcDbSavedByObjectVersion
1070
     0
  0
VISUALSTYLE
  5
31
102
{ACAD_REACTORS
330
2A
102
}
102
{ACAD_XDICTIONARY
360
291
102
}
330
2A
100
AcDbVisualStyle
  2
Hidden
 70
     6
 71
     1
 72
     2
 73
     2
 90
        0
 40
0.6
 41
30.0
 62
     5
 63
     7
 74
     2
 91
        2
 64
     7
 65
   257
 75
     2
175
     1
 42
40.0
 92
        0
 66
   257
 43
1.0
 76
     1
 77
     6
 78
     2
 67
     7
 79
     3
170
     0
171
     0
290
     0
174
     0
 93
        1
 44
0.0
173
     0
291
     0
 45
0.0
1001
ACAD
1000
AcDbSavedByObjectVersion
1070
     0
  0
VISUALSTYLE
  5
3B
102
{ACAD_REACTORS
330
2A
102
}
102
{ACAD_XDICTIONARY
360
2A5
102
}
330
2A
100
AcDbVisualStyle
  2
JitterOff
 70
    20
 71
     2
 72
     2
 73
     0
 90
        0
 40
0.6
 41
30.0
 62
     5
 63
     7
 74
     1
 91
        4
 64
     7
 65
   257
 75
     1
175
     1
 42
1.0
 92
       10
 66
     7
 43
1.0
 76
     1
 77
     6
 78
     2
 67
     7
 79
     5
170
     0
171
     0
290
     0
174
     0
 93
        1
 44
0.0
173
     0
291
     1
 45
0.0
1001
ACAD
1000
AcDbSavedByObjectVersion
1070
     0
  0
VISUALSTYLE
  5
38
102
{ACAD_REACTORS
330
2A
102
}
102
{ACAD_XDICTIONARY
360
29F
102
}
330
2A
100
AcDbVisualStyle
  2
Linepattern
 70
    14
 71
     2
 72
     2
 73
     0
 90
        0
 40
0.6
 41
30.0
 62
     5
 63
     7
 74
     1
 91
        4
 64
     7
 65
   257
 75
     7
175
     7
 42
1.0
 92
        8
 66
     7
 43
1.0
 76
     1
 77
     6
 78
     2
 67
     7
 79
     5
170
     0
171
     0
290
     0
174
     0
 93
        1
 44
0.0
173
     0
291
     1
 45
0.0
1001
ACAD
1000
AcDbSavedByObjectVersion
1070
     0
  0
VISUALSTYLE
  5
3C
102
{ACAD_REACTORS
330
2A
102
}
102
{ACAD_XDICTIONARY
360
2A7
102
}
330
2A
100
AcDbVisualStyle
  2
OverhangOff
 70
    21
 71
     2
 72
     2
 73
     0
 90
        0
 40
0.6
 41
30.0
 62
     5
 63
     7
 74
     1
 91
        4
 64
     7
 65
   257
 75
     1
175
     1
 42
1.0
 92
        9
 66
     7
 43
1.0
 76
     1
 77
     6
 78
     2
 67
     7
 79
     5
170
     0
171
     0
290
     0
174
     0
 93
        1
 44
0.0
173
     0
291
     1
 45
0.0
1001
ACAD
1000
AcDbSavedByObjectVersion
1070
     0
  0
VISUALSTYLE
  5
33
102
{ACAD_REACTORS
330
2A
102
}
102
{ACAD_XDICTIONARY
360
295
102
}
330
2A
100
AcDbVisualStyle
  2
Realistic
 70
     8
 71
     2
 72
     3
 73
     0
 90
        2
 40
0.6
 41
30.0
 62
     5
 63
     7
 74
     0
 91
        0
 64
     7
 65
   257
 75
     1
175
     1
 42
1.0
 92
        8
 66
   257
 43
1.0
 76
     1
 77
     6
 78
     2
 67
     7
 79
     3
170
     0
171
     0
290
     0
174
     0
 93
       13
 44
0.0
173
     0
291
     0
 45
0.0
1001
ACAD
1000
AcDbSavedByObjectVersion
1070
     0
  0
VISUALSTYLE
  5
42
102
{ACAD_REACTORS
330
2A
102
}
102
{ACAD_XDICTIONARY
360
2B3
102
}
330
2A
100
AcDbVisualStyle
  2
Shaded
 70
    27
 71
     2
 72
     2
 73
     1
 90
        2
 40
0.6
 41
30.0
 62
     5
 63
     7
 74
     0
 91
        4
 64
     7
 65
   257
 75
     1
175
     1
 42
1.0
 92
        8
 66
   257
 43
1.0
 76
     1
 77
     6
 78
     2
 67
     8
 79
     3
170
     0
171
     0
290
     0
174
     0
 93
        5
 44
0.0
173
     0
291
     0
 45
0.0
1001
ACAD
1000
AcDbSavedByObjectVersion
1070
     0
  0
VISUALSTYLE
  5
41
102
{ACAD_REACTORS
330
2A
102
}
102
{ACAD_XDICTIONARY
360
2B1
102
}
330
2A
100
AcDbVisualStyle
  2
Shaded with edges
 70
    26
 71
     2
 72
     2
 73
     1
 90
        2
 40
0.6
 41
30.0
 62
     5
 63
     7
 74
     1
 91
       10
 64
     7
 65
   257
 75
     2
175
     1
 42
1.0
 92
        8
 66
   257
 43
1.0
 76
     1
 77
     6
 78
     2
 67
     7
 79
     3
170
     0
171
     0
290
     0
174
     0
 93
        5
 44
0.0
173
     0
291
     0
 45
0.0
1001
ACAD
1000
AcDbSavedByObjectVersion
1070
     0
  0
VISUALSTYLE
  5
3E
102
{ACAD_REACTORS
330
2A
102
}
102
{ACAD_XDICTIONARY
360
2AB
102
}
330
2A
100
AcDbVisualStyle
  2
Shades of Gray
 70
    23
 71
     2
 72
     2
 73
     3
 90
        0
 40
0.6
 41
30.0
 62
     5
 63
     7
 74
     2
 91
        2
 64
     7
 65
     7
 75
     1
175
     1
 42
40.0
 92
        8
 66
     7
 43
1.0
 76
     1
 77
     6
 78
     2
 67
     7
 79
     3
170
     0
171
     0
290
     0
174
     0
 93
        1
 44
0.0
173
     0
291
     0
 45
0.0
1001
ACAD
1000
AcDbSavedByObjectVersion
1070
     0
  0
VISUALSTYLE
  5
3F
102
{ACAD_REACTORS
330
2A
102
}
102
{ACAD_XDICTIONARY
360
2AD
102
}
330
2A
100
AcDbVisualStyle
  2
Sketchy
 70
    24
 71
     1
 72
     2
 73
     2
 90
        0
 40
0.6
 41
30.0
 62
     5
 63
     7
 74
     2
 91
        2
 64
     7
 65
     7
 75
     1
175
     1
 42
40.0
 92
       11
 66
     7
 43
1.0
 76
     1
 77
     6
 78
     2
 67
     7
 79
     6
170
     0
171
     0
290
     0
174
     0
 93
        1
 44
0.0
173
     0
291
     0
 45
0.0
1001
ACAD
1000
AcDbSavedByObjectVersion
1070
     0
  0
VISUALSTYLE
  5
37
102
{ACAD_REACTORS
330
2A
102
}
102
{ACAD_XDICTIONARY
360
29D
102
}
330
2A
100
AcDbVisualStyle
  2
Thicken
 70
    13
 71
     2
 72
     2
 73
     0
 90
        0
 40
0.6
 41
30.0
 62
     5
 63
     7
 74
     1
 91
        4
 64
     7
 65
   257
 75
     1
175
     1
 42
1.0
 92
       12
 66
     7
 43
1.0
 76
     1
 77
     6
 78
     2
 67
     7
 79
     5
170
     0
171
     0
290
     0
174
     0
 93
        1
 44
0.0
173
     0
291
     1
 45
0.0
1001
ACAD
1000
AcDbSavedByObjectVersion
1070
     0
  0
VISUALSTYLE
  5
30
102
{ACAD_REACTORS
330
2A
102
}
102
{ACAD_XDICTIONARY
360
28F
102
}
330
2A
100
AcDbVisualStyle
  2
Wireframe
 70
     5
 71
     0
 72
     2
 73
     0
 90
        0
 40
0.6
 41
30.0
 62
     5
 63
     7
 74
     1
 91
        4
 64
     7
 65
   257
 75
     1
175
     1
 42
1.0
 92
        0
 66
   257
 43
1.0
 76
     1
 77
     6
 78
     2
 67
     7
 79
     3
170
     0
171
     0
290
     0
174
     0
 93
        1
 44
0.0
173
     0
291
     0
 45
0.0
1001
ACAD
1000
AcDbSavedByObjectVersion
1070
     0
  0
VISUALSTYLE
  5
40
102
{ACAD_REACTORS
330
2A
102
}
102
{ACAD_XDICTIONARY
360
2AF
102
}
330
2A
100
AcDbVisualStyle
  2
X-Ray
 70
    25
 71
     2
 72
     2
 73
     1
 90
        1
 40
0.5
 41
30.0
 62
     5
 63
     7
 74
     1
 91
        0
 64
     7
 65
   257
 75
     1
175
     1
 42
1.0
 92
        8
 66
     7
 43
1.0
 76
     1
 77
     6
 78
     2
 67
     7
 79
     3
170
     0
171
     0
290
     0
174
     0
 93
       13
 44
0.0
173
     0
291
     0
 45
0.0
1001
ACAD
1000
AcDbSavedByObjectVersion
1070
     0
  0
DICTIONARYVAR
  5
283
102
{ACAD_REACTORS
330
277
102
}
330
277
100
DictionaryVariables
280
     0
  1
1:1
  0
DICTIONARYVAR
  5
279
102
{ACAD_REACTORS
330
277
102
}
330
277
100
DictionaryVariables
280
     0
  1
Standard
  0
DICTIONARYVAR
  5
278
102
{ACAD_REACTORS
330
277
102
}
330
277
100
DictionaryVariables
280
     0
  1
Standard
  0
DICTIONARYVAR
  5
27F
102
{ACAD_REACTORS
330
277
102
}
330
277
100
DictionaryVariables
280
     0
  1
2
  0
DICTIONARYVAR
  5
280
102
{ACAD_REACTORS
330
277
102
}
330
277
100
DictionaryVariables
280
     0
  1
1
  0
DICTIONARYVAR
  5
284
102
{ACAD_REACTORS
330
277
102
}
330
277
100
DictionaryVariables
280
     0
  1
1
  0
DICTIONARYVAR
  5
27B
102
{ACAD_REACTORS
330
277
102
}
330
277
100
DictionaryVariables
280
     0
  1
80.000000
  0
DICTIONARYVAR
  5
27A
102
{ACAD_REACTORS
330
277
102
}
330
277
100
DictionaryVariables
280
     0
  1
5.000000
  0
DICTIONARYVAR
  5
27E
102
{ACAD_REACTORS
330
277
102
}
330
277
100
DictionaryVariables
280
     0
  1
6.000000
  0
DICTIONARY
  5
2B7
330
45
100
AcDbDictionary
280
     1
281
     1
  3
ACAD_XREC_ROUNDTRIP
360
2B8
  0
DICTIONARY
  5
2B5
330
44
100
AcDbDictionary
280
     1
281
     1
  3
ACAD_XREC_ROUNDTRIP
360
2B6
  0
DICTIONARY
  5
2B9
330
46
100
AcDbDictionary
280
     1
281
     1
  3
ACAD_XREC_ROUNDTRIP
360
2BA
  0
DICTIONARY
  5
2BC
330
6C
100
AcDbDictionary
280
     1
281
     1
  3
ACAD_XREC_ROUNDTRIP
360
2BD
  0
DICTIONARY
  5
28D
330
2F
100
AcDbDictionary
280
     1
281
     1
  3
ACAD_XREC_ROUNDTRIP
360
28E
  0
DICTIONARY
  5
293
330
32
100
AcDbDictionary
280
     1
281
     1
  3
ACAD_XREC_ROUNDTRIP
360
294
  0
DICTIONARY
  5
29B
330
36
100
AcDbDictionary
280
     1
281
     1
  3
ACAD_XREC_ROUNDTRIP
360
29C
  0
DICTIONARY
  5
2A3
330
3A
100
AcDbDictionary
280
     1
281
     1
  3
ACAD_XREC_ROUNDTRIP
360
2A4
  0
DICTIONARY
  5
297
330
34
100
AcDbDictionary
280
     1
281
     1
  3
ACAD_XREC_ROUNDTRIP
360
298
  0
DICTIONARY
  5
299
330
35
100
AcDbDictionary
280
     1
281
     1
  3
ACAD_XREC_ROUNDTRIP
360
29A
  0
DICTIONARY
  5
2A9
330
3D
100
AcDbDictionary
280
     1
281
     1
  3
ACAD_XREC_ROUNDTRIP
360
2AA
  0
DICTIONARY
  5
2A1
330
39
100
AcDbDictionary
280
     1
281
     1
  3
ACAD_XREC_ROUNDTRIP
360
2A2
  0
DICTIONARY
  5
285
330
2B
100
AcDbDictionary
280
     1
281
     1
  3
ACAD_XREC_ROUNDTRIP
360
286
  0
DICTIONARY
  5
287
330
2C
100
AcDbDictionary
280
     1
281
     1
  3
ACAD_XREC_ROUNDTRIP
360
288
  0
DICTIONARY
  5
289
330
2D
100
AcDbDictionary
280
     1
281
     1
  3
ACAD_XREC_ROUNDTRIP
360
28A
  0
DICTIONARY
  5
28B
330
2E
100
AcDbDictionary
280
     1
281
     1
  3
ACAD_XREC_ROUNDTRIP
360
28C
  0
DICTIONARY
  5
291
330
31
100
AcDbDictionary
280
     1
281
     1
  3
ACAD_XREC_ROUNDTRIP
360
292
  0
DICTIONARY
  5
2A5
330
3B
100
AcDbDictionary
280
     1
281
     1
  3
ACAD_XREC_ROUNDTRIP
360
2A6
  0
DICTIONARY
  5
29F
330
38
100
AcDbDictionary
280
     1
281
     1
  3
ACAD_XREC_ROUNDTRIP
360
2A0
  0
DICTIONARY
  5
2A7
330
3C
100
AcDbDictionary
280
     1
281
     1
  3
ACAD_XREC_ROUNDTRIP
360
2A8
  0
DICTIONARY
  5
295
330
33
100
AcDbDictionary
280
     1
281
     1
  3
ACAD_XREC_ROUNDTRIP
360
296
  0
DICTIONARY
  5
2B3
330
42
100
AcDbDictionary
280
     1
281
     1
  3
ACAD_XREC_ROUNDTRIP
360
2B4
  0
DICTIONARY
  5
2B1
330
41
100
AcDbDictionary
280
     1
281
     1
  3
ACAD_XREC_ROUNDTRIP
360
2B2
  0
DICTIONARY
  5
2AB
330
3E
100
AcDbDictionary
280
     1
281
     1
  3
ACAD_XREC_ROUNDTRIP
360
2AC
  0
DICTIONARY
  5
2AD
330
3F
100
AcDbDictionary
280
     1
281
     1
  3
ACAD_XREC_ROUNDTRIP
360
2AE
  0
DICTIONARY
  5
29D
330
37
100
AcDbDictionary
280
     1
281
     1
  3
ACAD_XREC_ROUNDTRIP
360
29E
  0
DICTIONARY
  5
28F
330
30
100
AcDbDictionary
280
     1
281
     1
  3
ACAD_XREC_ROUNDTRIP
360
290
  0
DICTIONARY
  5
2AF
330
40
100
AcDbDictionary
280
     1
281
     1
  3
ACAD_XREC_ROUNDTRIP
360
2B0
  0
XRECORD
  5
2B8
102
{ACAD_REACTORS
330
2B7
102
}
330
2B7
100
AcDbXrecord
280
     1
102
MATERIAL
148
0.0
149
0.0
149
0.0
 93
        0
 94
      127
282
     0
 72
     1
 77
     1
171
     1
175
     1
179
     1
273
     0
  0
XRECORD
  5
2B6
102
{ACAD_REACTORS
330
2B5
102
}
330
2B5
100
AcDbXrecord
280
     1
102
MATERIAL
148
0.0
149
0.0
149
0.0
 93
        0
 94
      127
282
     0
 72
     1
 77
     1
171
     1
175
     1
179
     1
273
     0
  0
XRECORD
  5
2BA
102
{ACAD_REACTORS
330
2B9
102
}
330
2B9
100
AcDbXrecord
280
     1
102
MATERIAL
148
0.0
149
0.0
149
0.0
 93
        0
 94
      127
282
     0
 72
     1
 77
     1
171
     1
175
     1
179
     1
273
     0
  0
XRECORD
  5
2BD
102
{ACAD_REACTORS
330
2BC
102
}
330
2BC
100
AcDbXrecord
280
     1
102
ACAD_ROUNDTRIP_2010_MLEADER_STYLE
  0
XRECORD
  5
28E
102
{ACAD_REACTORS
330
28D
102
}
330
28D
100
AcDbXrecord
280
     1
102
RTVSPropertyOp0
 70
     1
102
RTVSPropertyOp1
 70
     1
102
RTVSPropertyOp2
 70
     1
102
RTVSPropertyOp3
 70
     1
102
RTVSPropertyOp4
 70
     1
102
RTVSPropertyOp5
 70
     1
102
RTVSPropertyOp6
 70
     1
102
RTVSPropertyOp7
 70
     1
102
RTVSPropertyOp8
 70
     1
102
RTVSPropertyOp9
 70
     1
102
RTVSPropertyOp10
 70
     1
102
RTVSPropertyOp11
 70
     1
102
RTVSPropertyOp12
 70
     1
102
RTVSPropertyOp13
 70
     1
102
RTVSPropertyOp14
 70
     1
102
RTVSPropertyOp15
 70
     1
102
RTVSPropertyOp16
 70
     1
102
RTVSPropertyOp17
 70
     1
102
RTVSPropertyOp18
 70
     1
102
RTVSPropertyOp19
 70
     1
102
RTVSPropertyOp20
 70
     1
102
RTVSPropertyOp21
 70
     1
102
RTVSPropertyOp22
 70
     1
102
RTVSPropertyOp23
 70
     1
102
RTVSPropertyOp24
 70
     1
102
RTVSPropertyOp25
 70
     1
102
RTVSPropertyOp26
 70
     1
102
RTVSPropertyOp27
 70
     1
102
RTVSPropertyOp28
 70
     1
102
RTVSPropertyOp29
 70
     1
102
RTVSPropertyOp30
 70
     1
102
RTVSPropertyOp31
 70
     1
102
RTVSPropertyOp32
 70
     1
102
RTVSPropertyOp33
 70
     1
102
RTVSPropertyOp34
 70
     1
102
RTVSPropertyOp35
 70
     1
102
RTVSPropertyOp36
 70
     1
102
RTVSPropertyOp37
 70
     1
102
RTVSPropertyOp38
 70
     1
102
RTVSPropertyOp39
 70
     1
102
RTVSPropertyOp40
 70
     1
102
RTVSPropertyOp41
 70
     1
102
RTVSPropertyOp42
 70
     1
102
RTVSPropertyOp43
 70
     1
102
RTVSPropertyOp44
 70
     1
102
RTVSPropertyOp45
 70
     1
102
RTVSPropertyOp46
 70
     1
102
RTVSPropertyOp47
 70
     1
102
RTVSPropertyOp48
 70
     1
102
RTVSPropertyOp49
 70
     1
102
RTVSPropertyOp50
 70
     1
102
RTVSPropertyOp51
 70
     0
102
RTVSPropertyOp52
 70
     0
102
RTVSPropertyOp53
 70
     1
102
RTVSPropertyOp54
 70
     1
102
RTVSPropertyOp55
 70
     1
102
RTVSPropertyOp56
 70
     1
102
RTVSPropertyOp57
 70
     1
102
RTVSPost2010Prop28
280
     1
102
RTVSPost2010PropOp28
 70
     1
102
RTVSPost2010Prop29
280
     1
102
RTVSPost2010PropOp29
 70
     1
102
RTVSPost2010Prop30
280
     0
102
RTVSPost2010PropOp30
 70
     1
102
RTVSPost2010Prop31
280
     0
102
RTVSPost2010PropOp31
 70
     1
102
RTVSPost2010Prop32
280
     0
102
RTVSPost2010PropOp32
 70
     1
102
RTVSPost2010Prop33
280
     0
102
RTVSPost2010PropOp33
 70
     1
102
RTVSPost2010Prop34
280
     0
102
RTVSPost2010PropOp34
 70
     1
102
RTVSPost2010Prop35
280
     0
102
RTVSPost2010PropOp35
 70
     1
102
RTVSPost2010Prop36
280
     0
102
RTVSPost2010PropOp36
 70
     1
102
RTVSPost2010Prop37
 90
       50
102
RTVSPost2010PropOp37
 70
     1
102
RTVSPost2010Prop38
140
0.0
102
RTVSPost2010PropOp38
 70
     1
102
RTVSPost2010Prop39
140
1.0
102
RTVSPost2010PropOp39
 70
     1
102
RTVSPost2010Prop40
 90
        0
102
RTVSPost2010PropOp40
 70
     1
102
RTVSPost2010Prop41ColorIndex
 90
       18
102
RTVSPost2010Prop41ColorRGB
 90
        0
102
RTVSPost2010PropOp41
 70
     1
102
RTVSPost2010Prop42
 90
       50
102
RTVSPost2010PropOp42
 70
     1
102
RTVSPost2010Prop43
 90
        3
102
RTVSPost2010PropOp43
 70
     1
102
RTVSPost2010Prop44ColorIndex
 90
        5
102
RTVSPost2010Prop44ColorRGB
 90
      255
102
RTVSPost2010PropOp44
 70
     1
102
RTVSPost2010Prop45
280
     0
102
RTVSPost2010PropOp45
 70
     1
102
RTVSPost2010Prop46
 90
       50
102
RTVSPost2010PropOp46
 70
     1
102
RTVSPost2010Prop47
 90
       50
102
RTVSPost2010PropOp47
 70
     1
102
RTVSPost2010Prop48
 90
       50
102
RTVSPost2010PropOp48
 70
     1
102
RTVSPost2010Prop49
280
     0
102
RTVSPost2010PropOp49
 70
     1
102
RTVSPost2010Prop50
 90
       50
102
RTVSPost2010PropOp50
 70
     1
102
RTVSPost2010Prop51ColorIndex
 90
      256
102
RTVSPost2010Prop51ColorRGB
 90
-16777216
102
RTVSPost2010PropOp51
 70
     0
102
RTVSPost2010Prop52
140
1.0
102
RTVSPost2010PropOp52
 70
     0
102
RTVSPost2010Prop53
 90
        2
102
RTVSPost2010PropOp53
 70
     1
102
RTVSPost2010Prop54
  1
strokes_ogs.tif
102
RTVSPost2010PropOp54
 70
     1
102
RTVSPost2010Prop55
280
     0
102
RTVSPost2010PropOp55
 70
     1
102
RTVSPost2010Prop56
140
1.0
102
RTVSPost2010PropOp56
 70
     1
102
RTVSPost2010Prop57
140
1.0
102
RTVSPost2010PropOp57
 70
     1
  0
XRECORD
  5
294
102
{ACAD_REACTORS
330
293
102
}
330
293
100
AcDbXrecord
280
     1
102
RTVSPropertyOp0
 70
     1
102
RTVSPropertyOp1
 70
     1
102
RTVSPropertyOp2
 70
     1
102
RTVSPropertyOp3
 70
     1
102
RTVSPropertyOp4
 70
     1
102
RTVSPropertyOp5
 70
     1
102
RTVSPropertyOp6
 70
     1
102
RTVSPropertyOp7
 70
     1
102
RTVSPropertyOp8
 70
     1
102
RTVSPropertyOp9
 70
     1
102
RTVSPropertyOp10
 70
     1
102
RTVSPropertyOp11
 70
     1
102
RTVSPropertyOp12
 70
     1
102
RTVSPropertyOp13
 70
     1
102
RTVSPropertyOp14
 70
     1
102
RTVSPropertyOp15
 70
     1
102
RTVSPropertyOp16
 70
     1
102
RTVSPropertyOp17
 70
     1
102
RTVSPropertyOp18
 70
     1
102
RTVSPropertyOp19
 70
     1
102
RTVSPropertyOp20
 70
     1
102
RTVSPropertyOp21
 70
     1
102
RTVSPropertyOp22
 70
     1
102
RTVSPropertyOp23
 70
     1
102
RTVSPropertyOp24
 70
     1
102
RTVSPropertyOp25
 70
     1
102
RTVSPropertyOp26
 70
     1
102
RTVSPropertyOp27
 70
     1
102
RTVSPropertyOp28
 70
     1
102
RTVSPropertyOp29
 70
     1
102
RTVSPropertyOp30
 70
     1
102
RTVSPropertyOp31
 70
     1
102
RTVSPropertyOp32
 70
     1
102
RTVSPropertyOp33
 70
     1
102
RTVSPropertyOp34
 70
     1
102
RTVSPropertyOp35
 70
     1
102
RTVSPropertyOp36
 70
     1
102
RTVSPropertyOp37
 70
     1
102
RTVSPropertyOp38
 70
     1
102
RTVSPropertyOp39
 70
     1
102
RTVSPropertyOp40
 70
     1
102
RTVSPropertyOp41
 70
     1
102
RTVSPropertyOp42
 70
     1
102
RTVSPropertyOp43
 70
     1
102
RTVSPropertyOp44
 70
     1
102
RTVSPropertyOp45
 70
     1
102
RTVSPropertyOp46
 70
     1
102
RTVSPropertyOp47
 70
     1
102
RTVSPropertyOp48
 70
     1
102
RTVSPropertyOp49
 70
     1
102
RTVSPropertyOp50
 70
     1
102
RTVSPropertyOp51
 70
     0
102
RTVSPropertyOp52
 70
     0
102
RTVSPropertyOp53
 70
     1
102
RTVSPropertyOp54
 70
     1
102
RTVSPropertyOp55
 70
     1
102
RTVSPropertyOp56
 70
     1
102
RTVSPropertyOp57
 70
     1
102
RTVSPost2010Prop28
280
     0
102
RTVSPost2010PropOp28
 70
     1
102
RTVSPost2010Prop29
280
     1
102
RTVSPost2010PropOp29
 70
     1
102
RTVSPost2010Prop30
280
     1
102
RTVSPost2010PropOp30
 70
     1
102
RTVSPost2010Prop31
280
     0
102
RTVSPost2010PropOp31
 70
     1
102
RTVSPost2010Prop32
280
     0
102
RTVSPost2010PropOp32
 70
     1
102
RTVSPost2010Prop33
280
     0
102
RTVSPost2010PropOp33
 70
     1
102
RTVSPost2010Prop34
280
     0
102
RTVSPost2010PropOp34
 70
     1
102
RTVSPost2010Prop35
280
     0
102
RTVSPost2010PropOp35
 70
     1
102
RTVSPost2010Prop36
280
     0
102
RTVSPost2010PropOp36
 70
     1
102
RTVSPost2010Prop37
 90
       50
102
RTVSPost2010PropOp37
 70
     1
102
RTVSPost2010Prop38
140
0.0
102
RTVSPost2010PropOp38
 70
     1
102
RTVSPost2010Prop39
140
1.0
102
RTVSPost2010PropOp39
 70
     1
102
RTVSPost2010Prop40
 90
        0
102
RTVSPost2010PropOp40
 70
     1
102
RTVSPost2010Prop41ColorIndex
 90
       18
102
RTVSPost2010Prop41ColorRGB
 90
        0
102
RTVSPost2010PropOp41
 70
     1
102
RTVSPost2010Prop42
 90
       50
102
RTVSPost2010PropOp42
 70
     1
102
RTVSPost2010Prop43
 90
        3
102
RTVSPost2010PropOp43
 70
     1
102
RTVSPost2010Prop44ColorIndex
 90
        5
102
RTVSPost2010Prop44ColorRGB
 90
      255
102
RTVSPost2010PropOp44
 70
     1
102
RTVSPost2010Prop45
280
     0
102
RTVSPost2010PropOp45
 70
     1
102
RTVSPost2010Prop46
 90
       50
102
RTVSPost2010PropOp46
 70
     1
102
RTVSPost2010Prop47
 90
       50
102
RTVSPost2010PropOp47
 70
     1
102
RTVSPost2010Prop48
 90
       50
102
RTVSPost2010PropOp48
 70
     1
102
RTVSPost2010Prop49
280
     0
102
RTVSPost2010PropOp49
 70
     1
102
RTVSPost2010Prop50
 90
       50
102
RTVSPost2010PropOp50
 70
     1
102
RTVSPost2010Prop51ColorIndex
 90
      256
102
RTVSPost2010Prop51ColorRGB
 90
-16777216
102
RTVSPost2010PropOp51
 70
     0
102
RTVSPost2010Prop52
140
1.0
102
RTVSPost2010PropOp52
 70
     0
102
RTVSPost2010Prop53
 90
        2
102
RTVSPost2010PropOp53
 70
     1
102
RTVSPost2010Prop54
  1
strokes_ogs.tif
102
RTVSPost2010PropOp54
 70
     1
102
RTVSPost2010Prop55
280
     0
102
RTVSPost2010PropOp55
 70
     1
102
RTVSPost2010Prop56
140
1.0
102
RTVSPost2010PropOp56
 70
     1
102
RTVSPost2010Prop57
140
1.0
102
RTVSPost2010PropOp57
 70
     1
  0
XRECORD
  5
29C
102
{ACAD_REACTORS
330
29B
102
}
330
29B
100
AcDbXrecord
280
     1
102
RTVSPropertyOp0
 70
     1
102
RTVSPropertyOp1
 70
     1
102
RTVSPropertyOp2
 70
     1
102
RTVSPropertyOp3
 70
     1
102
RTVSPropertyOp4
 70
     1
102
RTVSPropertyOp5
 70
     1
102
RTVSPropertyOp6
 70
     1
102
RTVSPropertyOp7
 70
     1
102
RTVSPropertyOp8
 70
     1
102
RTVSPropertyOp9
 70
     1
102
RTVSPropertyOp10
 70
     1
102
RTVSPropertyOp11
 70
     1
102
RTVSPropertyOp12
 70
     1
102
RTVSPropertyOp13
 70
     1
102
RTVSPropertyOp14
 70
     1
102
RTVSPropertyOp15
 70
     1
102
RTVSPropertyOp16
 70
     1
102
RTVSPropertyOp17
 70
     1
102
RTVSPropertyOp18
 70
     1
102
RTVSPropertyOp19
 70
     1
102
RTVSPropertyOp20
 70
     1
102
RTVSPropertyOp21
 70
     1
102
RTVSPropertyOp22
 70
     1
102
RTVSPropertyOp23
 70
     1
102
RTVSPropertyOp24
 70
     1
102
RTVSPropertyOp25
 70
     1
102
RTVSPropertyOp26
 70
     1
102
RTVSPropertyOp27
 70
     1
102
RTVSPropertyOp28
 70
     1
102
RTVSPropertyOp29
 70
     1
102
RTVSPropertyOp30
 70
     1
102
RTVSPropertyOp31
 70
     1
102
RTVSPropertyOp32
 70
     1
102
RTVSPropertyOp33
 70
     1
102
RTVSPropertyOp34
 70
     1
102
RTVSPropertyOp35
 70
     1
102
RTVSPropertyOp36
 70
     1
102
RTVSPropertyOp37
 70
     1
102
RTVSPropertyOp38
 70
     1
102
RTVSPropertyOp39
 70
     1
102
RTVSPropertyOp40
 70
     1
102
RTVSPropertyOp41
 70
     1
102
RTVSPropertyOp42
 70
     1
102
RTVSPropertyOp43
 70
     1
102
RTVSPropertyOp44
 70
     1
102
RTVSPropertyOp45
 70
     1
102
RTVSPropertyOp46
 70
     1
102
RTVSPropertyOp47
 70
     1
102
RTVSPropertyOp48
 70
     1
102
RTVSPropertyOp49
 70
     1
102
RTVSPropertyOp50
 70
     1
102
RTVSPropertyOp51
 70
     0
102
RTVSPropertyOp52
 70
     0
102
RTVSPropertyOp53
 70
     1
102
RTVSPropertyOp54
 70
     1
102
RTVSPropertyOp55
 70
     1
102
RTVSPropertyOp56
 70
     1
102
RTVSPropertyOp57
 70
     1
102
RTVSPost2010Prop28
280
     0
102
RTVSPost2010PropOp28
 70
     1
102
RTVSPost2010Prop29
280
     1
102
RTVSPost2010PropOp29
 70
     1
102
RTVSPost2010Prop30
280
     1
102
RTVSPost2010PropOp30
 70
     1
102
RTVSPost2010Prop31
280
     0
102
RTVSPost2010PropOp31
 70
     1
102
RTVSPost2010Prop32
280
     0
102
RTVSPost2010PropOp32
 70
     1
102
RTVSPost2010Prop33
280
     0
102
RTVSPost2010PropOp33
 70
     1
102
RTVSPost2010Prop34
280
     0
102
RTVSPost2010PropOp34
 70
     1
102
RTVSPost2010Prop35
280
     0
102
RTVSPost2010PropOp35
 70
     1
102
RTVSPost2010Prop36
280
     0
102
RTVSPost2010PropOp36
 70
     1
102
RTVSPost2010Prop37
 90
       50
102
RTVSPost2010PropOp37
 70
     1
102
RTVSPost2010Prop38
140
0.0
102
RTVSPost2010PropOp38
 70
     1
102
RTVSPost2010Prop39
140
1.0
102
RTVSPost2010PropOp39
 70
     1
102
RTVSPost2010Prop40
 90
        0
102
RTVSPost2010PropOp40
 70
     1
102
RTVSPost2010Prop41ColorIndex
 90
       18
102
RTVSPost2010Prop41ColorRGB
 90
        0
102
RTVSPost2010PropOp41
 70
     1
102
RTVSPost2010Prop42
 90
       50
102
RTVSPost2010PropOp42
 70
     1
102
RTVSPost2010Prop43
 90
        3
102
RTVSPost2010PropOp43
 70
     1
102
RTVSPost2010Prop44ColorIndex
 90
        5
102
RTVSPost2010Prop44ColorRGB
 90
      255
102
RTVSPost2010PropOp44
 70
     1
102
RTVSPost2010Prop45
280
     0
102
RTVSPost2010PropOp45
 70
     1
102
RTVSPost2010Prop46
 90
       50
102
RTVSPost2010PropOp46
 70
     1
102
RTVSPost2010Prop47
 90
       50
102
RTVSPost2010PropOp47
 70
     1
102
RTVSPost2010Prop48
 90
       50
102
RTVSPost2010PropOp48
 70
     1
102
RTVSPost2010Prop49
280
     0
102
RTVSPost2010PropOp49
 70
     1
102
RTVSPost2010Prop50
 90
       50
102
RTVSPost2010PropOp50
 70
     1
102
RTVSPost2010Prop51ColorIndex
 90
      256
102
RTVSPost2010Prop51ColorRGB
 90
-16777216
102
RTVSPost2010PropOp51
 70
     0
102
RTVSPost2010Prop52
140
1.0
102
RTVSPost2010PropOp52
 70
     0
102
RTVSPost2010Prop53
 90
        2
102
RTVSPost2010PropOp53
 70
     1
102
RTVSPost2010Prop54
  1
strokes_ogs.tif
102
RTVSPost2010PropOp54
 70
     1
102
RTVSPost2010Prop55
280
     0
102
RTVSPost2010PropOp55
 70
     1
102
RTVSPost2010Prop56
140
1.0
102
RTVSPost2010PropOp56
 70
     1
102
RTVSPost2010Prop57
140
1.0
102
RTVSPost2010PropOp57
 70
     1
  0
XRECORD
  5
2A4
102
{ACAD_REACTORS
330
2A3
102
}
330
2A3
100
AcDbXrecord
280
     1
102
RTVSPropertyOp0
 70
     1
102
RTVSPropertyOp1
 70
     1
102
RTVSPropertyOp2
 70
     1
102
RTVSPropertyOp3
 70
     1
102
RTVSPropertyOp4
 70
     1
102
RTVSPropertyOp5
 70
     1
102
RTVSPropertyOp6
 70
     1
102
RTVSPropertyOp7
 70
     1
102
RTVSPropertyOp8
 70
     1
102
RTVSPropertyOp9
 70
     1
102
RTVSPropertyOp10
 70
     1
102
RTVSPropertyOp11
 70
     1
102
RTVSPropertyOp12
 70
     1
102
RTVSPropertyOp13
 70
     1
102
RTVSPropertyOp14
 70
     1
102
RTVSPropertyOp15
 70
     1
102
RTVSPropertyOp16
 70
     1
102
RTVSPropertyOp17
 70
     1
102
RTVSPropertyOp18
 70
     1
102
RTVSPropertyOp19
 70
     1
102
RTVSPropertyOp20
 70
     1
102
RTVSPropertyOp21
 70
     1
102
RTVSPropertyOp22
 70
     1
102
RTVSPropertyOp23
 70
     1
102
RTVSPropertyOp24
 70
     1
102
RTVSPropertyOp25
 70
     1
102
RTVSPropertyOp26
 70
     1
102
RTVSPropertyOp27
 70
     1
102
RTVSPropertyOp28
 70
     1
102
RTVSPropertyOp29
 70
     1
102
RTVSPropertyOp30
 70
     1
102
RTVSPropertyOp31
 70
     1
102
RTVSPropertyOp32
 70
     1
102
RTVSPropertyOp33
 70
     1
102
RTVSPropertyOp34
 70
     1
102
RTVSPropertyOp35
 70
     1
102
RTVSPropertyOp36
 70
     1
102
RTVSPropertyOp37
 70
     1
102
RTVSPropertyOp38
 70
     1
102
RTVSPropertyOp39
 70
     1
102
RTVSPropertyOp40
 70
     1
102
RTVSPropertyOp41
 70
     1
102
RTVSPropertyOp42
 70
     1
102
RTVSPropertyOp43
 70
     1
102
RTVSPropertyOp44
 70
     1
102
RTVSPropertyOp45
 70
     1
102
RTVSPropertyOp46
 70
     1
102
RTVSPropertyOp47
 70
     1
102
RTVSPropertyOp48
 70
     1
102
RTVSPropertyOp49
 70
     1
102
RTVSPropertyOp50
 70
     1
102
RTVSPropertyOp51
 70
     0
102
RTVSPropertyOp52
 70
     0
102
RTVSPropertyOp53
 70
     1
102
RTVSPropertyOp54
 70
     1
102
RTVSPropertyOp55
 70
     1
102
RTVSPropertyOp56
 70
     1
102
RTVSPropertyOp57
 70
     1
102
RTVSPost2010Prop28
280
     0
102
RTVSPost2010PropOp28
 70
     1
102
RTVSPost2010Prop29
280
     1
102
RTVSPost2010PropOp29
 70
     1
102
RTVSPost2010Prop30
280
     1
102
RTVSPost2010PropOp30
 70
     1
102
RTVSPost2010Prop31
280
     0
102
RTVSPost2010PropOp31
 70
     1
102
RTVSPost2010Prop32
280
     0
102
RTVSPost2010PropOp32
 70
     1
102
RTVSPost2010Prop33
280
     0
102
RTVSPost2010PropOp33
 70
     1
102
RTVSPost2010Prop34
280
     0
102
RTVSPost2010PropOp34
 70
     1
102
RTVSPost2010Prop35
280
     0
102
RTVSPost2010PropOp35
 70
     1
102
RTVSPost2010Prop36
280
     0
102
RTVSPost2010PropOp36
 70
     1
102
RTVSPost2010Prop37
 90
       50
102
RTVSPost2010PropOp37
 70
     1
102
RTVSPost2010Prop38
140
0.0
102
RTVSPost2010PropOp38
 70
     1
102
RTVSPost2010Prop39
140
1.0
102
RTVSPost2010PropOp39
 70
     1
102
RTVSPost2010Prop40
 90
        0
102
RTVSPost2010PropOp40
 70
     1
102
RTVSPost2010Prop41ColorIndex
 90
       18
102
RTVSPost2010Prop41ColorRGB
 90
        0
102
RTVSPost2010PropOp41
 70
     1
102
RTVSPost2010Prop42
 90
       50
102
RTVSPost2010PropOp42
 70
     1
102
RTVSPost2010Prop43
 90
        3
102
RTVSPost2010PropOp43
 70
     1
102
RTVSPost2010Prop44ColorIndex
 90
        5
102
RTVSPost2010Prop44ColorRGB
 90
      255
102
RTVSPost2010PropOp44
 70
     1
102
RTVSPost2010Prop45
280
     0
102
RTVSPost2010PropOp45
 70
     1
102
RTVSPost2010Prop46
 90
       50
102
RTVSPost2010PropOp46
 70
     1
102
RTVSPost2010Prop47
 90
       50
102
RTVSPost2010PropOp47
 70
     1
102
RTVSPost2010Prop48
 90
       50
102
RTVSPost2010PropOp48
 70
     1
102
RTVSPost2010Prop49
280
     0
102
RTVSPost2010PropOp49
 70
     1
102
RTVSPost2010Prop50
 90
       50
102
RTVSPost2010PropOp50
 70
     1
102
RTVSPost2010Prop51ColorIndex
 90
      256
102
RTVSPost2010Prop51ColorRGB
 90
-16777216
102
RTVSPost2010PropOp51
 70
     0
102
RTVSPost2010Prop52
140
1.0
102
RTVSPost2010PropOp52
 70
     0
102
RTVSPost2010Prop53
 90
        2
102
RTVSPost2010PropOp53
 70
     1
102
RTVSPost2010Prop54
  1
strokes_ogs.tif
102
RTVSPost2010PropOp54
 70
     1
102
RTVSPost2010Prop55
280
     0
102
RTVSPost2010PropOp55
 70
     1
102
RTVSPost2010Prop56
140
1.0
102
RTVSPost2010PropOp56
 70
     1
102
RTVSPost2010Prop57
140
1.0
102
RTVSPost2010PropOp57
 70
     1
  0
XRECORD
  5
298
102
{ACAD_REACTORS
330
297
102
}
330
297
100
AcDbXrecord
280
     1
102
RTVSPropertyOp0
 70
     1
102
RTVSPropertyOp1
 70
     1
102
RTVSPropertyOp2
 70
     1
102
RTVSPropertyOp3
 70
     1
102
RTVSPropertyOp4
 70
     1
102
RTVSPropertyOp5
 70
     1
102
RTVSPropertyOp6
 70
     1
102
RTVSPropertyOp7
 70
     1
102
RTVSPropertyOp8
 70
     1
102
RTVSPropertyOp9
 70
     1
102
RTVSPropertyOp10
 70
     1
102
RTVSPropertyOp11
 70
     1
102
RTVSPropertyOp12
 70
     1
102
RTVSPropertyOp13
 70
     1
102
RTVSPropertyOp14
 70
     1
102
RTVSPropertyOp15
 70
     1
102
RTVSPropertyOp16
 70
     1
102
RTVSPropertyOp17
 70
     1
102
RTVSPropertyOp18
 70
     1
102
RTVSPropertyOp19
 70
     1
102
RTVSPropertyOp20
 70
     1
102
RTVSPropertyOp21
 70
     1
102
RTVSPropertyOp22
 70
     1
102
RTVSPropertyOp23
 70
     1
102
RTVSPropertyOp24
 70
     1
102
RTVSPropertyOp25
 70
     1
102
RTVSPropertyOp26
 70
     1
102
RTVSPropertyOp27
 70
     1
102
RTVSPropertyOp28
 70
     1
102
RTVSPropertyOp29
 70
     1
102
RTVSPropertyOp30
 70
     1
102
RTVSPropertyOp31
 70
     1
102
RTVSPropertyOp32
 70
     1
102
RTVSPropertyOp33
 70
     1
102
RTVSPropertyOp34
 70
     1
102
RTVSPropertyOp35
 70
     1
102
RTVSPropertyOp36
 70
     1
102
RTVSPropertyOp37
 70
     1
102
RTVSPropertyOp38
 70
     1
102
RTVSPropertyOp39
 70
     1
102
RTVSPropertyOp40
 70
     1
102
RTVSPropertyOp41
 70
     1
102
RTVSPropertyOp42
 70
     1
102
RTVSPropertyOp43
 70
     1
102
RTVSPropertyOp44
 70
     1
102
RTVSPropertyOp45
 70
     1
102
RTVSPropertyOp46
 70
     1
102
RTVSPropertyOp47
 70
     1
102
RTVSPropertyOp48
 70
     1
102
RTVSPropertyOp49
 70
     1
102
RTVSPropertyOp50
 70
     1
102
RTVSPropertyOp51
 70
     0
102
RTVSPropertyOp52
 70
     0
102
RTVSPropertyOp53
 70
     1
102
RTVSPropertyOp54
 70
     1
102
RTVSPropertyOp55
 70
     1
102
RTVSPropertyOp56
 70
     1
102
RTVSPropertyOp57
 70
     1
102
RTVSPost2010Prop28
280
     0
102
RTVSPost2010PropOp28
 70
     1
102
RTVSPost2010Prop29
280
     1
102
RTVSPost2010PropOp29
 70
     1
102
RTVSPost2010Prop30
280
     1
102
RTVSPost2010PropOp30
 70
     1
102
RTVSPost2010Prop31
280
     0
102
RTVSPost2010PropOp31
 70
     1
102
RTVSPost2010Prop32
280
     0
102
RTVSPost2010PropOp32
 70
     1
102
RTVSPost2010Prop33
280
     0
102
RTVSPost2010PropOp33
 70
     1
102
RTVSPost2010Prop34
280
     0
102
RTVSPost2010PropOp34
 70
     1
102
RTVSPost2010Prop35
280
     0
102
RTVSPost2010PropOp35
 70
     1
102
RTVSPost2010Prop36
280
     0
102
RTVSPost2010PropOp36
 70
     1
102
RTVSPost2010Prop37
 90
       50
102
RTVSPost2010PropOp37
 70
     1
102
RTVSPost2010Prop38
140
0.0
102
RTVSPost2010PropOp38
 70
     1
102
RTVSPost2010Prop39
140
1.0
102
RTVSPost2010PropOp39
 70
     1
102
RTVSPost2010Prop40
 90
        0
102
RTVSPost2010PropOp40
 70
     1
102
RTVSPost2010Prop41ColorIndex
 90
       18
102
RTVSPost2010Prop41ColorRGB
 90
        0
102
RTVSPost2010PropOp41
 70
     1
102
RTVSPost2010Prop42
 90
       50
102
RTVSPost2010PropOp42
 70
     1
102
RTVSPost2010Prop43
 90
        3
102
RTVSPost2010PropOp43
 70
     1
102
RTVSPost2010Prop44ColorIndex
 90
        5
102
RTVSPost2010Prop44ColorRGB
 90
      255
102
RTVSPost2010PropOp44
 70
     1
102
RTVSPost2010Prop45
280
     0
102
RTVSPost2010PropOp45
 70
     1
102
RTVSPost2010Prop46
 90
       50
102
RTVSPost2010PropOp46
 70
     1
102
RTVSPost2010Prop47
 90
       50
102
RTVSPost2010PropOp47
 70
     1
102
RTVSPost2010Prop48
 90
       50
102
RTVSPost2010PropOp48
 70
     1
102
RTVSPost2010Prop49
280
     0
102
RTVSPost2010PropOp49
 70
     1
102
RTVSPost2010Prop50
 90
       50
102
RTVSPost2010PropOp50
 70
     1
102
RTVSPost2010Prop51ColorIndex
 90
      256
102
RTVSPost2010Prop51ColorRGB
 90
-16777216
102
RTVSPost2010PropOp51
 70
     0
102
RTVSPost2010Prop52
140
1.0
102
RTVSPost2010PropOp52
 70
     0
102
RTVSPost2010Prop53
 90
        2
102
RTVSPost2010PropOp53
 70
     1
102
RTVSPost2010Prop54
  1
strokes_ogs.tif
102
RTVSPost2010PropOp54
 70
     1
102
RTVSPost2010Prop55
280
     0
102
RTVSPost2010PropOp55
 70
     1
102
RTVSPost2010Prop56
140
1.0
102
RTVSPost2010PropOp56
 70
     1
102
RTVSPost2010Prop57
140
1.0
102
RTVSPost2010PropOp57
 70
     1
  0
XRECORD
  5
29A
102
{ACAD_REACTORS
330
299
102
}
330
299
100
AcDbXrecord
280
     1
102
RTVSPropertyOp0
 70
     1
102
RTVSPropertyOp1
 70
     1
102
RTVSPropertyOp2
 70
     1
102
RTVSPropertyOp3
 70
     1
102
RTVSPropertyOp4
 70
     1
102
RTVSPropertyOp5
 70
     1
102
RTVSPropertyOp6
 70
     1
102
RTVSPropertyOp7
 70
     1
102
RTVSPropertyOp8
 70
     1
102
RTVSPropertyOp9
 70
     1
102
RTVSPropertyOp10
 70
     1
102
RTVSPropertyOp11
 70
     1
102
RTVSPropertyOp12
 70
     1
102
RTVSPropertyOp13
 70
     1
102
RTVSPropertyOp14
 70
     1
102
RTVSPropertyOp15
 70
     1
102
RTVSPropertyOp16
 70
     1
102
RTVSPropertyOp17
 70
     1
102
RTVSPropertyOp18
 70
     1
102
RTVSPropertyOp19
 70
     1
102
RTVSPropertyOp20
 70
     1
102
RTVSPropertyOp21
 70
     1
102
RTVSPropertyOp22
 70
     1
102
RTVSPropertyOp23
 70
     1
102
RTVSPropertyOp24
 70
     1
102
RTVSPropertyOp25
 70
     1
102
RTVSPropertyOp26
 70
     1
102
RTVSPropertyOp27
 70
     1
102
RTVSPropertyOp28
 70
     1
102
RTVSPropertyOp29
 70
     1
102
RTVSPropertyOp30
 70
     1
102
RTVSPropertyOp31
 70
     1
102
RTVSPropertyOp32
 70
     1
102
RTVSPropertyOp33
 70
     1
102
RTVSPropertyOp34
 70
     1
102
RTVSPropertyOp35
 70
     1
102
RTVSPropertyOp36
 70
     1
102
RTVSPropertyOp37
 70
     1
102
RTVSPropertyOp38
 70
     1
102
RTVSPropertyOp39
 70
     1
102
RTVSPropertyOp40
 70
     1
102
RTVSPropertyOp41
 70
     1
102
RTVSPropertyOp42
 70
     1
102
RTVSPropertyOp43
 70
     1
102
RTVSPropertyOp44
 70
     1
102
RTVSPropertyOp45
 70
     1
102
RTVSPropertyOp46
 70
     1
102
RTVSPropertyOp47
 70
     1
102
RTVSPropertyOp48
 70
     1
102
RTVSPropertyOp49
 70
     1
102
RTVSPropertyOp50
 70
     1
102
RTVSPropertyOp51
 70
     0
102
RTVSPropertyOp52
 70
     0
102
RTVSPropertyOp53
 70
     1
102
RTVSPropertyOp54
 70
     1
102
RTVSPropertyOp55
 70
     1
102
RTVSPropertyOp56
 70
     1
102
RTVSPropertyOp57
 70
     1
102
RTVSPost2010Prop28
280
     0
102
RTVSPost2010PropOp28
 70
     1
102
RTVSPost2010Prop29
280
     1
102
RTVSPost2010PropOp29
 70
     1
102
RTVSPost2010Prop30
280
     1
102
RTVSPost2010PropOp30
 70
     1
102
RTVSPost2010Prop31
280
     0
102
RTVSPost2010PropOp31
 70
     1
102
RTVSPost2010Prop32
280
     0
102
RTVSPost2010PropOp32
 70
     1
102
RTVSPost2010Prop33
280
     0
102
RTVSPost2010PropOp33
 70
     1
102
RTVSPost2010Prop34
280
     0
102
RTVSPost2010PropOp34
 70
     1
102
RTVSPost2010Prop35
280
     0
102
RTVSPost2010PropOp35
 70
     1
102
RTVSPost2010Prop36
280
     0
102
RTVSPost2010PropOp36
 70
     1
102
RTVSPost2010Prop37
 90
       50
102
RTVSPost2010PropOp37
 70
     1
102
RTVSPost2010Prop38
140
0.0
102
RTVSPost2010PropOp38
 70
     1
102
RTVSPost2010Prop39
140
1.0
102
RTVSPost2010PropOp39
 70
     1
102
RTVSPost2010Prop40
 90
        0
102
RTVSPost2010PropOp40
 70
     1
102
RTVSPost2010Prop41ColorIndex
 90
       18
102
RTVSPost2010Prop41ColorRGB
 90
        0
102
RTVSPost2010PropOp41
 70
     1
102
RTVSPost2010Prop42
 90
       50
102
RTVSPost2010PropOp42
 70
     1
102
RTVSPost2010Prop43
 90
        3
102
RTVSPost2010PropOp43
 70
     1
102
RTVSPost2010Prop44ColorIndex
 90
        5
102
RTVSPost2010Prop44ColorRGB
 90
      255
102
RTVSPost2010PropOp44
 70
     1
102
RTVSPost2010Prop45
280
     0
102
RTVSPost2010PropOp45
 70
     1
102
RTVSPost2010Prop46
 90
       50
102
RTVSPost2010PropOp46
 70
     1
102
RTVSPost2010Prop47
 90
       50
102
RTVSPost2010PropOp47
 70
     1
102
RTVSPost2010Prop48
 90
       50
102
RTVSPost2010PropOp48
 70
     1
102
RTVSPost2010Prop49
280
     0
102
RTVSPost2010PropOp49
 70
     1
102
RTVSPost2010Prop50
 90
       50
102
RTVSPost2010PropOp50
 70
     1
102
RTVSPost2010Prop51ColorIndex
 90
      256
102
RTVSPost2010Prop51ColorRGB
 90
-16777216
102
RTVSPost2010PropOp51
 70
     0
102
RTVSPost2010Prop52
140
1.0
102
RTVSPost2010PropOp52
 70
     0
102
RTVSPost2010Prop53
 90
        2
102
RTVSPost2010PropOp53
 70
     1
102
RTVSPost2010Prop54
  1
strokes_ogs.tif
102
RTVSPost2010PropOp54
 70
     1
102
RTVSPost2010Prop55
280
     0
102
RTVSPost2010PropOp55
 70
     1
102
RTVSPost2010Prop56
140
1.0
102
RTVSPost2010PropOp56
 70
     1
102
RTVSPost2010Prop57
140
1.0
102
RTVSPost2010PropOp57
 70
     1
  0
XRECORD
  5
2AA
102
{ACAD_REACTORS
330
2A9
102
}
330
2A9
100
AcDbXrecord
280
     1
102
RTVSPropertyOp0
 70
     0
102
RTVSPropertyOp1
 70
     0
102
RTVSPropertyOp2
 70
     0
102
RTVSPropertyOp3
 70
     0
102
RTVSPropertyOp4
 70
     0
102
RTVSPropertyOp5
 70
     0
102
RTVSPropertyOp6
 70
     0
102
RTVSPropertyOp7
 70
     0
102
RTVSPropertyOp8
 70
     0
102
RTVSPropertyOp9
 70
     0
102
RTVSPropertyOp10
 70
     0
102
RTVSPropertyOp11
 70
     0
102
RTVSPropertyOp12
 70
     0
102
RTVSPropertyOp13
 70
     0
102
RTVSPropertyOp14
 70
     2
102
RTVSPropertyOp15
 70
     0
102
RTVSPropertyOp16
 70
     0
102
RTVSPropertyOp17
 70
     0
102
RTVSPropertyOp18
 70
     0
102
RTVSPropertyOp19
 70
     0
102
RTVSPropertyOp20
 70
     0
102
RTVSPropertyOp21
 70
     0
102
RTVSPropertyOp22
 70
     0
102
RTVSPropertyOp23
 70
     0
102
RTVSPropertyOp24
 70
     0
102
RTVSPropertyOp25
 70
     0
102
RTVSPropertyOp26
 70
     0
102
RTVSPropertyOp27
 70
     0
102
RTVSPropertyOp28
 70
     0
102
RTVSPropertyOp29
 70
     0
102
RTVSPropertyOp30
 70
     0
102
RTVSPropertyOp31
 70
     0
102
RTVSPropertyOp32
 70
     0
102
RTVSPropertyOp33
 70
     0
102
RTVSPropertyOp34
 70
     0
102
RTVSPropertyOp35
 70
     0
102
RTVSPropertyOp36
 70
     0
102
RTVSPropertyOp37
 70
     0
102
RTVSPropertyOp38
 70
     0
102
RTVSPropertyOp39
 70
     0
102
RTVSPropertyOp40
 70
     0
102
RTVSPropertyOp41
 70
     0
102
RTVSPropertyOp42
 70
     0
102
RTVSPropertyOp43
 70
     0
102
RTVSPropertyOp44
 70
     0
102
RTVSPropertyOp45
 70
     0
102
RTVSPropertyOp46
 70
     0
102
RTVSPropertyOp47
 70
     0
102
RTVSPropertyOp48
 70
     0
102
RTVSPropertyOp49
 70
     0
102
RTVSPropertyOp50
 70
     0
102
RTVSPropertyOp51
 70
     0
102
RTVSPropertyOp52
 70
     0
102
RTVSPropertyOp53
 70
     0
102
RTVSPropertyOp54
 70
     0
102
RTVSPropertyOp55
 70
     0
102
RTVSPropertyOp56
 70
     0
102
RTVSPropertyOp57
 70
     0
102
RTVSPost2010Prop28
280
     0
102
RTVSPost2010PropOp28
 70
     0
102
RTVSPost2010Prop29
280
     1
102
RTVSPost2010PropOp29
 70
     0
102
RTVSPost2010Prop30
280
     1
102
RTVSPost2010PropOp30
 70
     0
102
RTVSPost2010Prop31
280
     0
102
RTVSPost2010PropOp31
 70
     0
102
RTVSPost2010Prop32
280
     0
102
RTVSPost2010PropOp32
 70
     0
102
RTVSPost2010Prop33
280
     0
102
RTVSPost2010PropOp33
 70
     0
102
RTVSPost2010Prop34
280
     0
102
RTVSPost2010PropOp34
 70
     0
102
RTVSPost2010Prop35
280
     0
102
RTVSPost2010PropOp35
 70
     0
102
RTVSPost2010Prop36
280
     0
102
RTVSPost2010PropOp36
 70
     0
102
RTVSPost2010Prop37
 90
       50
102
RTVSPost2010PropOp37
 70
     0
102
RTVSPost2010Prop38
140
0.0
102
RTVSPost2010PropOp38
 70
     0
102
RTVSPost2010Prop39
140
1.0
102
RTVSPost2010PropOp39
 70
     0
102
RTVSPost2010Prop40
 90
        0
102
RTVSPost2010PropOp40
 70
     0
102
RTVSPost2010Prop41ColorIndex
 90
       18
102
RTVSPost2010Prop41ColorRGB
 90
        0
102
RTVSPost2010PropOp41
 70
     0
102
RTVSPost2010Prop42
 90
       50
102
RTVSPost2010PropOp42
 70
     0
102
RTVSPost2010Prop43
 90
        3
102
RTVSPost2010PropOp43
 70
     0
102
RTVSPost2010Prop44ColorIndex
 90
        5
102
RTVSPost2010Prop44ColorRGB
 90
      255
102
RTVSPost2010PropOp44
 70
     0
102
RTVSPost2010Prop45
280
     0
102
RTVSPost2010PropOp45
 70
     0
102
RTVSPost2010Prop46
 90
       50
102
RTVSPost2010PropOp46
 70
     0
102
RTVSPost2010Prop47
 90
       50
102
RTVSPost2010PropOp47
 70
     0
102
RTVSPost2010Prop48
 90
       50
102
RTVSPost2010PropOp48
 70
     0
102
RTVSPost2010Prop49
280
     0
102
RTVSPost2010PropOp49
 70
     0
102
RTVSPost2010Prop50
 90
       50
102
RTVSPost2010PropOp50
 70
     0
102
RTVSPost2010Prop51ColorIndex
 90
      256
102
RTVSPost2010Prop51ColorRGB
 90
-16777216
102
RTVSPost2010PropOp51
 70
     0
102
RTVSPost2010Prop52
140
1.0
102
RTVSPost2010PropOp52
 70
     0
102
RTVSPost2010Prop53
 90
        2
102
RTVSPost2010PropOp53
 70
     0
102
RTVSPost2010Prop54
  1
strokes_ogs.tif
102
RTVSPost2010PropOp54
 70
     0
102
RTVSPost2010Prop55
280
     0
102
RTVSPost2010PropOp55
 70
     0
102
RTVSPost2010Prop56
140
1.0
102
RTVSPost2010PropOp56
 70
     0
102
RTVSPost2010Prop57
140
1.0
102
RTVSPost2010PropOp57
 70
     0
  0
XRECORD
  5
2A2
102
{ACAD_REACTORS
330
2A1
102
}
330
2A1
100
AcDbXrecord
280
     1
102
RTVSPropertyOp0
 70
     1
102
RTVSPropertyOp1
 70
     1
102
RTVSPropertyOp2
 70
     1
102
RTVSPropertyOp3
 70
     1
102
RTVSPropertyOp4
 70
     1
102
RTVSPropertyOp5
 70
     1
102
RTVSPropertyOp6
 70
     1
102
RTVSPropertyOp7
 70
     1
102
RTVSPropertyOp8
 70
     1
102
RTVSPropertyOp9
 70
     1
102
RTVSPropertyOp10
 70
     1
102
RTVSPropertyOp11
 70
     1
102
RTVSPropertyOp12
 70
     1
102
RTVSPropertyOp13
 70
     1
102
RTVSPropertyOp14
 70
     1
102
RTVSPropertyOp15
 70
     1
102
RTVSPropertyOp16
 70
     1
102
RTVSPropertyOp17
 70
     1
102
RTVSPropertyOp18
 70
     1
102
RTVSPropertyOp19
 70
     1
102
RTVSPropertyOp20
 70
     1
102
RTVSPropertyOp21
 70
     1
102
RTVSPropertyOp22
 70
     1
102
RTVSPropertyOp23
 70
     1
102
RTVSPropertyOp24
 70
     1
102
RTVSPropertyOp25
 70
     1
102
RTVSPropertyOp26
 70
     1
102
RTVSPropertyOp27
 70
     1
102
RTVSPropertyOp28
 70
     1
102
RTVSPropertyOp29
 70
     1
102
RTVSPropertyOp30
 70
     1
102
RTVSPropertyOp31
 70
     1
102
RTVSPropertyOp32
 70
     1
102
RTVSPropertyOp33
 70
     1
102
RTVSPropertyOp34
 70
     1
102
RTVSPropertyOp35
 70
     1
102
RTVSPropertyOp36
 70
     1
102
RTVSPropertyOp37
 70
     1
102
RTVSPropertyOp38
 70
     1
102
RTVSPropertyOp39
 70
     1
102
RTVSPropertyOp40
 70
     1
102
RTVSPropertyOp41
 70
     1
102
RTVSPropertyOp42
 70
     1
102
RTVSPropertyOp43
 70
     1
102
RTVSPropertyOp44
 70
     1
102
RTVSPropertyOp45
 70
     1
102
RTVSPropertyOp46
 70
     1
102
RTVSPropertyOp47
 70
     1
102
RTVSPropertyOp48
 70
     1
102
RTVSPropertyOp49
 70
     1
102
RTVSPropertyOp50
 70
     1
102
RTVSPropertyOp51
 70
     0
102
RTVSPropertyOp52
 70
     0
102
RTVSPropertyOp53
 70
     1
102
RTVSPropertyOp54
 70
     1
102
RTVSPropertyOp55
 70
     1
102
RTVSPropertyOp56
 70
     1
102
RTVSPropertyOp57
 70
     1
102
RTVSPost2010Prop28
280
     0
102
RTVSPost2010PropOp28
 70
     1
102
RTVSPost2010Prop29
280
     1
102
RTVSPost2010PropOp29
 70
     1
102
RTVSPost2010Prop30
280
     1
102
RTVSPost2010PropOp30
 70
     1
102
RTVSPost2010Prop31
280
     0
102
RTVSPost2010PropOp31
 70
     1
102
RTVSPost2010Prop32
280
     0
102
RTVSPost2010PropOp32
 70
     1
102
RTVSPost2010Prop33
280
     0
102
RTVSPost2010PropOp33
 70
     1
102
RTVSPost2010Prop34
280
     0
102
RTVSPost2010PropOp34
 70
     1
102
RTVSPost2010Prop35
280
     0
102
RTVSPost2010PropOp35
 70
     1
102
RTVSPost2010Prop36
280
     0
102
RTVSPost2010PropOp36
 70
     1
102
RTVSPost2010Prop37
 90
       50
102
RTVSPost2010PropOp37
 70
     1
102
RTVSPost2010Prop38
140
0.0
102
RTVSPost2010PropOp38
 70
     1
102
RTVSPost2010Prop39
140
1.0
102
RTVSPost2010PropOp39
 70
     1
102
RTVSPost2010Prop40
 90
        0
102
RTVSPost2010PropOp40
 70
     1
102
RTVSPost2010Prop41ColorIndex
 90
       18
102
RTVSPost2010Prop41ColorRGB
 90
        0
102
RTVSPost2010PropOp41
 70
     1
102
RTVSPost2010Prop42
 90
       50
102
RTVSPost2010PropOp42
 70
     1
102
RTVSPost2010Prop43
 90
        3
102
RTVSPost2010PropOp43
 70
     1
102
RTVSPost2010Prop44ColorIndex
 90
        5
102
RTVSPost2010Prop44ColorRGB
 90
      255
102
RTVSPost2010PropOp44
 70
     1
102
RTVSPost2010Prop45
280
     0
102
RTVSPost2010PropOp45
 70
     1
102
RTVSPost2010Prop46
 90
       50
102
RTVSPost2010PropOp46
 70
     1
102
RTVSPost2010Prop47
 90
       50
102
RTVSPost2010PropOp47
 70
     1
102
RTVSPost2010Prop48
 90
       50
102
RTVSPost2010PropOp48
 70
     1
102
RTVSPost2010Prop49
280
     0
102
RTVSPost2010PropOp49
 70
     1
102
RTVSPost2010Prop50
 90
       50
102
RTVSPost2010PropOp50
 70
     1
102
RTVSPost2010Prop51ColorIndex
 90
      256
102
RTVSPost2010Prop51ColorRGB
 90
-16777216
102
RTVSPost2010PropOp51
 70
     0
102
RTVSPost2010Prop52
140
1.0
102
RTVSPost2010PropOp52
 70
     0
102
RTVSPost2010Prop53
 90
        2
102
RTVSPost2010PropOp53
 70
     1
102
RTVSPost2010Prop54
  1
strokes_ogs.tif
102
RTVSPost2010PropOp54
 70
     1
102
RTVSPost2010Prop55
280
     0
102
RTVSPost2010PropOp55
 70
     1
102
RTVSPost2010Prop56
140
1.0
102
RTVSPost2010PropOp56
 70
     1
102
RTVSPost2010Prop57
140
1.0
102
RTVSPost2010PropOp57
 70
     1
  0
XRECORD
  5
286
102
{ACAD_REACTORS
330
285
102
}
330
285
100
AcDbXrecord
280
     1
102
RTVSPropertyOp0
 70
     1
102
RTVSPropertyOp1
 70
     1
102
RTVSPropertyOp2
 70
     1
102
RTVSPropertyOp3
 70
     1
102
RTVSPropertyOp4
 70
     1
102
RTVSPropertyOp5
 70
     1
102
RTVSPropertyOp6
 70
     1
102
RTVSPropertyOp7
 70
     1
102
RTVSPropertyOp8
 70
     1
102
RTVSPropertyOp9
 70
     1
102
RTVSPropertyOp10
 70
     1
102
RTVSPropertyOp11
 70
     1
102
RTVSPropertyOp12
 70
     1
102
RTVSPropertyOp13
 70
     1
102
RTVSPropertyOp14
 70
     1
102
RTVSPropertyOp15
 70
     1
102
RTVSPropertyOp16
 70
     1
102
RTVSPropertyOp17
 70
     1
102
RTVSPropertyOp18
 70
     1
102
RTVSPropertyOp19
 70
     1
102
RTVSPropertyOp20
 70
     1
102
RTVSPropertyOp21
 70
     1
102
RTVSPropertyOp22
 70
     1
102
RTVSPropertyOp23
 70
     1
102
RTVSPropertyOp24
 70
     1
102
RTVSPropertyOp25
 70
     1
102
RTVSPropertyOp26
 70
     1
102
RTVSPropertyOp27
 70
     1
102
RTVSPropertyOp28
 70
     1
102
RTVSPropertyOp29
 70
     1
102
RTVSPropertyOp30
 70
     1
102
RTVSPropertyOp31
 70
     1
102
RTVSPropertyOp32
 70
     1
102
RTVSPropertyOp33
 70
     1
102
RTVSPropertyOp34
 70
     1
102
RTVSPropertyOp35
 70
     1
102
RTVSPropertyOp36
 70
     1
102
RTVSPropertyOp37
 70
     1
102
RTVSPropertyOp38
 70
     1
102
RTVSPropertyOp39
 70
     1
102
RTVSPropertyOp40
 70
     1
102
RTVSPropertyOp41
 70
     1
102
RTVSPropertyOp42
 70
     1
102
RTVSPropertyOp43
 70
     1
102
RTVSPropertyOp44
 70
     1
102
RTVSPropertyOp45
 70
     1
102
RTVSPropertyOp46
 70
     1
102
RTVSPropertyOp47
 70
     1
102
RTVSPropertyOp48
 70
     1
102
RTVSPropertyOp49
 70
     1
102
RTVSPropertyOp50
 70
     1
102
RTVSPropertyOp51
 70
     0
102
RTVSPropertyOp52
 70
     0
102
RTVSPropertyOp53
 70
     1
102
RTVSPropertyOp54
 70
     1
102
RTVSPropertyOp55
 70
     1
102
RTVSPropertyOp56
 70
     1
102
RTVSPropertyOp57
 70
     1
102
RTVSPost2010Prop28
280
     0
102
RTVSPost2010PropOp28
 70
     1
102
RTVSPost2010Prop29
280
     1
102
RTVSPost2010PropOp29
 70
     1
102
RTVSPost2010Prop30
280
     1
102
RTVSPost2010PropOp30
 70
     1
102
RTVSPost2010Prop31
280
     0
102
RTVSPost2010PropOp31
 70
     1
102
RTVSPost2010Prop32
280
     0
102
RTVSPost2010PropOp32
 70
     1
102
RTVSPost2010Prop33
280
     0
102
RTVSPost2010PropOp33
 70
     1
102
RTVSPost2010Prop34
280
     0
102
RTVSPost2010PropOp34
 70
     1
102
RTVSPost2010Prop35
280
     0
102
RTVSPost2010PropOp35
 70
     1
102
RTVSPost2010Prop36
280
     0
102
RTVSPost2010PropOp36
 70
     1
102
RTVSPost2010Prop37
 90
       50
102
RTVSPost2010PropOp37
 70
     1
102
RTVSPost2010Prop38
140
0.0
102
RTVSPost2010PropOp38
 70
     1
102
RTVSPost2010Prop39
140
1.0
102
RTVSPost2010PropOp39
 70
     1
102
RTVSPost2010Prop40
 90
        0
102
RTVSPost2010PropOp40
 70
     1
102
RTVSPost2010Prop41ColorIndex
 90
       18
102
RTVSPost2010Prop41ColorRGB
 90
        0
102
RTVSPost2010PropOp41
 70
     1
102
RTVSPost2010Prop42
 90
       50
102
RTVSPost2010PropOp42
 70
     1
102
RTVSPost2010Prop43
 90
        3
102
RTVSPost2010PropOp43
 70
     1
102
RTVSPost2010Prop44ColorIndex
 90
        5
102
RTVSPost2010Prop44ColorRGB
 90
      255
102
RTVSPost2010PropOp44
 70
     1
102
RTVSPost2010Prop45
280
     0
102
RTVSPost2010PropOp45
 70
     1
102
RTVSPost2010Prop46
 90
       50
102
RTVSPost2010PropOp46
 70
     1
102
RTVSPost2010Prop47
 90
       50
102
RTVSPost2010PropOp47
 70
     1
102
RTVSPost2010Prop48
 90
       50
102
RTVSPost2010PropOp48
 70
     1
102
RTVSPost2010Prop49
280
     0
102
RTVSPost2010PropOp49
 70
     1
102
RTVSPost2010Prop50
 90
       50
102
RTVSPost2010PropOp50
 70
     1
102
RTVSPost2010Prop51ColorIndex
 90
      256
102
RTVSPost2010Prop51ColorRGB
 90
-16777216
102
RTVSPost2010PropOp51
 70
     0
102
RTVSPost2010Prop52
140
1.0
102
RTVSPost2010PropOp52
 70
     0
102
RTVSPost2010Prop53
 90
        2
102
RTVSPost2010PropOp53
 70
     1
102
RTVSPost2010Prop54
  1
strokes_ogs.tif
102
RTVSPost2010PropOp54
 70
     1
102
RTVSPost2010Prop55
280
     0
102
RTVSPost2010PropOp55
 70
     1
102
RTVSPost2010Prop56
140
1.0
102
RTVSPost2010PropOp56
 70
     1
102
RTVSPost2010Prop57
140
1.0
102
RTVSPost2010PropOp57
 70
     1
  0
XRECORD
  5
288
102
{ACAD_REACTORS
330
287
102
}
330
287
100
AcDbXrecord
280
     1
102
RTVSPropertyOp0
 70
     1
102
RTVSPropertyOp1
 70
     1
102
RTVSPropertyOp2
 70
     1
102
RTVSPropertyOp3
 70
     1
102
RTVSPropertyOp4
 70
     1
102
RTVSPropertyOp5
 70
     1
102
RTVSPropertyOp6
 70
     1
102
RTVSPropertyOp7
 70
     1
102
RTVSPropertyOp8
 70
     1
102
RTVSPropertyOp9
 70
     1
102
RTVSPropertyOp10
 70
     1
102
RTVSPropertyOp11
 70
     1
102
RTVSPropertyOp12
 70
     1
102
RTVSPropertyOp13
 70
     1
102
RTVSPropertyOp14
 70
     1
102
RTVSPropertyOp15
 70
     1
102
RTVSPropertyOp16
 70
     1
102
RTVSPropertyOp17
 70
     1
102
RTVSPropertyOp18
 70
     1
102
RTVSPropertyOp19
 70
     1
102
RTVSPropertyOp20
 70
     1
102
RTVSPropertyOp21
 70
     1
102
RTVSPropertyOp22
 70
     1
102
RTVSPropertyOp23
 70
     1
102
RTVSPropertyOp24
 70
     1
102
RTVSPropertyOp25
 70
     1
102
RTVSPropertyOp26
 70
     1
102
RTVSPropertyOp27
 70
     1
102
RTVSPropertyOp28
 70
     1
102
RTVSPropertyOp29
 70
     1
102
RTVSPropertyOp30
 70
     1
102
RTVSPropertyOp31
 70
     1
102
RTVSPropertyOp32
 70
     1
102
RTVSPropertyOp33
 70
     1
102
RTVSPropertyOp34
 70
     1
102
RTVSPropertyOp35
 70
     1
102
RTVSPropertyOp36
 70
     1
102
RTVSPropertyOp37
 70
     1
102
RTVSPropertyOp38
 70
     1
102
RTVSPropertyOp39
 70
     1
102
RTVSPropertyOp40
 70
     1
102
RTVSPropertyOp41
 70
     1
102
RTVSPropertyOp42
 70
     1
102
RTVSPropertyOp43
 70
     1
102
RTVSPropertyOp44
 70
     1
102
RTVSPropertyOp45
 70
     1
102
RTVSPropertyOp46
 70
     1
102
RTVSPropertyOp47
 70
     1
102
RTVSPropertyOp48
 70
     1
102
RTVSPropertyOp49
 70
     1
102
RTVSPropertyOp50
 70
     1
102
RTVSPropertyOp51
 70
     0
102
RTVSPropertyOp52
 70
     0
102
RTVSPropertyOp53
 70
     1
102
RTVSPropertyOp54
 70
     1
102
RTVSPropertyOp55
 70
     1
102
RTVSPropertyOp56
 70
     1
102
RTVSPropertyOp57
 70
     1
102
RTVSPost2010Prop28
280
     0
102
RTVSPost2010PropOp28
 70
     1
102
RTVSPost2010Prop29
280
     1
102
RTVSPost2010PropOp29
 70
     1
102
RTVSPost2010Prop30
280
     1
102
RTVSPost2010PropOp30
 70
     1
102
RTVSPost2010Prop31
280
     0
102
RTVSPost2010PropOp31
 70
     1
102
RTVSPost2010Prop32
280
     0
102
RTVSPost2010PropOp32
 70
     1
102
RTVSPost2010Prop33
280
     0
102
RTVSPost2010PropOp33
 70
     1
102
RTVSPost2010Prop34
280
     0
102
RTVSPost2010PropOp34
 70
     1
102
RTVSPost2010Prop35
280
     0
102
RTVSPost2010PropOp35
 70
     1
102
RTVSPost2010Prop36
280
     0
102
RTVSPost2010PropOp36
 70
     1
102
RTVSPost2010Prop37
 90
       50
102
RTVSPost2010PropOp37
 70
     1
102
RTVSPost2010Prop38
140
0.0
102
RTVSPost2010PropOp38
 70
     1
102
RTVSPost2010Prop39
140
1.0
102
RTVSPost2010PropOp39
 70
     1
102
RTVSPost2010Prop40
 90
        0
102
RTVSPost2010PropOp40
 70
     1
102
RTVSPost2010Prop41ColorIndex
 90
       18
102
RTVSPost2010Prop41ColorRGB
 90
        0
102
RTVSPost2010PropOp41
 70
     1
102
RTVSPost2010Prop42
 90
       50
102
RTVSPost2010PropOp42
 70
     1
102
RTVSPost2010Prop43
 90
        3
102
RTVSPost2010PropOp43
 70
     1
102
RTVSPost2010Prop44ColorIndex
 90
        5
102
RTVSPost2010Prop44ColorRGB
 90
      255
102
RTVSPost2010PropOp44
 70
     1
102
RTVSPost2010Prop45
280
     0
102
RTVSPost2010PropOp45
 70
     1
102
RTVSPost2010Prop46
 90
       50
102
RTVSPost2010PropOp46
 70
     1
102
RTVSPost2010Prop47
 90
       50
102
RTVSPost2010PropOp47
 70
     1
102
RTVSPost2010Prop48
 90
       50
102
RTVSPost2010PropOp48
 70
     1
102
RTVSPost2010Prop49
280
     0
102
RTVSPost2010PropOp49
 70
     1
102
RTVSPost2010Prop50
 90
       50
102
RTVSPost2010PropOp50
 70
     1
102
RTVSPost2010Prop51ColorIndex
 90
      256
102
RTVSPost2010Prop51ColorRGB
 90
-16777216
102
RTVSPost2010PropOp51
 70
     0
102
RTVSPost2010Prop52
140
1.0
102
RTVSPost2010PropOp52
 70
     0
102
RTVSPost2010Prop53
 90
        2
102
RTVSPost2010PropOp53
 70
     1
102
RTVSPost2010Prop54
  1
strokes_ogs.tif
102
RTVSPost2010PropOp54
 70
     1
102
RTVSPost2010Prop55
280
     0
102
RTVSPost2010PropOp55
 70
     1
102
RTVSPost2010Prop56
140
1.0
102
RTVSPost2010PropOp56
 70
     1
102
RTVSPost2010Prop57
140
1.0
102
RTVSPost2010PropOp57
 70
     1
  0
XRECORD
  5
28A
102
{ACAD_REACTORS
330
289
102
}
330
289
100
AcDbXrecord
280
     1
102
RTVSPropertyOp0
 70
     1
102
RTVSPropertyOp1
 70
     1
102
RTVSPropertyOp2
 70
     1
102
RTVSPropertyOp3
 70
     1
102
RTVSPropertyOp4
 70
     1
102
RTVSPropertyOp5
 70
     1
102
RTVSPropertyOp6
 70
     1
102
RTVSPropertyOp7
 70
     1
102
RTVSPropertyOp8
 70
     1
102
RTVSPropertyOp9
 70
     1
102
RTVSPropertyOp10
 70
     1
102
RTVSPropertyOp11
 70
     1
102
RTVSPropertyOp12
 70
     1
102
RTVSPropertyOp13
 70
     1
102
RTVSPropertyOp14
 70
     1
102
RTVSPropertyOp15
 70
     1
102
RTVSPropertyOp16
 70
     1
102
RTVSPropertyOp17
 70
     1
102
RTVSPropertyOp18
 70
     1
102
RTVSPropertyOp19
 70
     1
102
RTVSPropertyOp20
 70
     1
102
RTVSPropertyOp21
 70
     1
102
RTVSPropertyOp22
 70
     1
102
RTVSPropertyOp23
 70
     1
102
RTVSPropertyOp24
 70
     1
102
RTVSPropertyOp25
 70
     1
102
RTVSPropertyOp26
 70
     1
102
RTVSPropertyOp27
 70
     1
102
RTVSPropertyOp28
 70
     1
102
RTVSPropertyOp29
 70
     1
102
RTVSPropertyOp30
 70
     1
102
RTVSPropertyOp31
 70
     1
102
RTVSPropertyOp32
 70
     1
102
RTVSPropertyOp33
 70
     1
102
RTVSPropertyOp34
 70
     1
102
RTVSPropertyOp35
 70
     1
102
RTVSPropertyOp36
 70
     1
102
RTVSPropertyOp37
 70
     1
102
RTVSPropertyOp38
 70
     1
102
RTVSPropertyOp39
 70
     1
102
RTVSPropertyOp40
 70
     1
102
RTVSPropertyOp41
 70
     1
102
RTVSPropertyOp42
 70
     1
102
RTVSPropertyOp43
 70
     1
102
RTVSPropertyOp44
 70
     1
102
RTVSPropertyOp45
 70
     1
102
RTVSPropertyOp46
 70
     1
102
RTVSPropertyOp47
 70
     1
102
RTVSPropertyOp48
 70
     1
102
RTVSPropertyOp49
 70
     1
102
RTVSPropertyOp50
 70
     1
102
RTVSPropertyOp51
 70
     0
102
RTVSPropertyOp52
 70
     0
102
RTVSPropertyOp53
 70
     1
102
RTVSPropertyOp54
 70
     1
102
RTVSPropertyOp55
 70
     1
102
RTVSPropertyOp56
 70
     1
102
RTVSPropertyOp57
 70
     1
102
RTVSPost2010Prop28
280
     0
102
RTVSPost2010PropOp28
 70
     1
102
RTVSPost2010Prop29
280
     1
102
RTVSPost2010PropOp29
 70
     1
102
RTVSPost2010Prop30
280
     1
102
RTVSPost2010PropOp30
 70
     1
102
RTVSPost2010Prop31
280
     0
102
RTVSPost2010PropOp31
 70
     1
102
RTVSPost2010Prop32
280
     0
102
RTVSPost2010PropOp32
 70
     1
102
RTVSPost2010Prop33
280
     0
102
RTVSPost2010PropOp33
 70
     1
102
RTVSPost2010Prop34
280
     0
102
RTVSPost2010PropOp34
 70
     1
102
RTVSPost2010Prop35
280
     0
102
RTVSPost2010PropOp35
 70
     1
102
RTVSPost2010Prop36
280
     0
102
RTVSPost2010PropOp36
 70
     1
102
RTVSPost2010Prop37
 90
       50
102
RTVSPost2010PropOp37
 70
     1
102
RTVSPost2010Prop38
140
0.0
102
RTVSPost2010PropOp38
 70
     1
102
RTVSPost2010Prop39
140
1.0
102
RTVSPost2010PropOp39
 70
     1
102
RTVSPost2010Prop40
 90
        0
102
RTVSPost2010PropOp40
 70
     1
102
RTVSPost2010Prop41ColorIndex
 90
       18
102
RTVSPost2010Prop41ColorRGB
 90
        0
102
RTVSPost2010PropOp41
 70
     1
102
RTVSPost2010Prop42
 90
       50
102
RTVSPost2010PropOp42
 70
     1
102
RTVSPost2010Prop43
 90
        3
102
RTVSPost2010PropOp43
 70
     1
102
RTVSPost2010Prop44ColorIndex
 90
        5
102
RTVSPost2010Prop44ColorRGB
 90
      255
102
RTVSPost2010PropOp44
 70
     1
102
RTVSPost2010Prop45
280
     0
102
RTVSPost2010PropOp45
 70
     1
102
RTVSPost2010Prop46
 90
       50
102
RTVSPost2010PropOp46
 70
     1
102
RTVSPost2010Prop47
 90
       50
102
RTVSPost2010PropOp47
 70
     1
102
RTVSPost2010Prop48
 90
       50
102
RTVSPost2010PropOp48
 70
     1
102
RTVSPost2010Prop49
280
     0
102
RTVSPost2010PropOp49
 70
     1
102
RTVSPost2010Prop50
 90
       50
102
RTVSPost2010PropOp50
 70
     1
102
RTVSPost2010Prop51ColorIndex
 90
      256
102
RTVSPost2010Prop51ColorRGB
 90
-16777216
102
RTVSPost2010PropOp51
 70
     0
102
RTVSPost2010Prop52
140
1.0
102
RTVSPost2010PropOp52
 70
     0
102
RTVSPost2010Prop53
 90
        2
102
RTVSPost2010PropOp53
 70
     1
102
RTVSPost2010Prop54
  1
strokes_ogs.tif
102
RTVSPost2010PropOp54
 70
     1
102
RTVSPost2010Prop55
280
     0
102
RTVSPost2010PropOp55
 70
     1
102
RTVSPost2010Prop56
140
1.0
102
RTVSPost2010PropOp56
 70
     1
102
RTVSPost2010Prop57
140
1.0
102
RTVSPost2010PropOp57
 70
     1
  0
XRECORD
  5
28C
102
{ACAD_REACTORS
330
28B
102
}
330
28B
100
AcDbXrecord
280
     1
102
RTVSPropertyOp0
 70
     1
102
RTVSPropertyOp1
 70
     1
102
RTVSPropertyOp2
 70
     1
102
RTVSPropertyOp3
 70
     1
102
RTVSPropertyOp4
 70
     1
102
RTVSPropertyOp5
 70
     1
102
RTVSPropertyOp6
 70
     1
102
RTVSPropertyOp7
 70
     1
102
RTVSPropertyOp8
 70
     1
102
RTVSPropertyOp9
 70
     1
102
RTVSPropertyOp10
 70
     1
102
RTVSPropertyOp11
 70
     1
102
RTVSPropertyOp12
 70
     1
102
RTVSPropertyOp13
 70
     1
102
RTVSPropertyOp14
 70
     1
102
RTVSPropertyOp15
 70
     1
102
RTVSPropertyOp16
 70
     1
102
RTVSPropertyOp17
 70
     1
102
RTVSPropertyOp18
 70
     1
102
RTVSPropertyOp19
 70
     1
102
RTVSPropertyOp20
 70
     1
102
RTVSPropertyOp21
 70
     1
102
RTVSPropertyOp22
 70
     1
102
RTVSPropertyOp23
 70
     1
102
RTVSPropertyOp24
 70
     1
102
RTVSPropertyOp25
 70
     1
102
RTVSPropertyOp26
 70
     1
102
RTVSPropertyOp27
 70
     1
102
RTVSPropertyOp28
 70
     1
102
RTVSPropertyOp29
 70
     1
102
RTVSPropertyOp30
 70
     1
102
RTVSPropertyOp31
 70
     1
102
RTVSPropertyOp32
 70
     1
102
RTVSPropertyOp33
 70
     1
102
RTVSPropertyOp34
 70
     1
102
RTVSPropertyOp35
 70
     1
102
RTVSPropertyOp36
 70
     1
102
RTVSPropertyOp37
 70
     1
102
RTVSPropertyOp38
 70
     1
102
RTVSPropertyOp39
 70
     1
102
RTVSPropertyOp40
 70
     1
102
RTVSPropertyOp41
 70
     1
102
RTVSPropertyOp42
 70
     1
102
RTVSPropertyOp43
 70
     1
102
RTVSPropertyOp44
 70
     1
102
RTVSPropertyOp45
 70
     1
102
RTVSPropertyOp46
 70
     1
102
RTVSPropertyOp47
 70
     1
102
RTVSPropertyOp48
 70
     1
102
RTVSPropertyOp49
 70
     1
102
RTVSPropertyOp50
 70
     1
102
RTVSPropertyOp51
 70
     0
102
RTVSPropertyOp52
 70
     0
102
RTVSPropertyOp53
 70
     1
102
RTVSPropertyOp54
 70
     1
102
RTVSPropertyOp55
 70
     1
102
RTVSPropertyOp56
 70
     1
102
RTVSPropertyOp57
 70
     1
102
RTVSPost2010Prop28
280
     0
102
RTVSPost2010PropOp28
 70
     1
102
RTVSPost2010Prop29
280
     1
102
RTVSPost2010PropOp29
 70
     1
102
RTVSPost2010Prop30
280
     1
102
RTVSPost2010PropOp30
 70
     1
102
RTVSPost2010Prop31
280
     0
102
RTVSPost2010PropOp31
 70
     1
102
RTVSPost2010Prop32
280
     0
102
RTVSPost2010PropOp32
 70
     1
102
RTVSPost2010Prop33
280
     0
102
RTVSPost2010PropOp33
 70
     1
102
RTVSPost2010Prop34
280
     0
102
RTVSPost2010PropOp34
 70
     1
102
RTVSPost2010Prop35
280
     0
102
RTVSPost2010PropOp35
 70
     1
102
RTVSPost2010Prop36
280
     0
102
RTVSPost2010PropOp36
 70
     1
102
RTVSPost2010Prop37
 90
       50
102
RTVSPost2010PropOp37
 70
     1
102
RTVSPost2010Prop38
140
0.0
102
RTVSPost2010PropOp38
 70
     1
102
RTVSPost2010Prop39
140
1.0
102
RTVSPost2010PropOp39
 70
     1
102
RTVSPost2010Prop40
 90
        0
102
RTVSPost2010PropOp40
 70
     1
102
RTVSPost2010Prop41ColorIndex
 90
       18
102
RTVSPost2010Prop41ColorRGB
 90
        0
102
RTVSPost2010PropOp41
 70
     1
102
RTVSPost2010Prop42
 90
       50
102
RTVSPost2010PropOp42
 70
     1
102
RTVSPost2010Prop43
 90
        3
102
RTVSPost2010PropOp43
 70
     1
102
RTVSPost2010Prop44ColorIndex
 90
        5
102
RTVSPost2010Prop44ColorRGB
 90
      255
102
RTVSPost2010PropOp44
 70
     1
102
RTVSPost2010Prop45
280
     0
102
RTVSPost2010PropOp45
 70
     1
102
RTVSPost2010Prop46
 90
       50
102
RTVSPost2010PropOp46
 70
     1
102
RTVSPost2010Prop47
 90
       50
102
RTVSPost2010PropOp47
 70
     1
102
RTVSPost2010Prop48
 90
       50
102
RTVSPost2010PropOp48
 70
     1
102
RTVSPost2010Prop49
280
     0
102
RTVSPost2010PropOp49
 70
     1
102
RTVSPost2010Prop50
 90
       50
102
RTVSPost2010PropOp50
 70
     1
102
RTVSPost2010Prop51ColorIndex
 90
      256
102
RTVSPost2010Prop51ColorRGB
 90
-16777216
102
RTVSPost2010PropOp51
 70
     0
102
RTVSPost2010Prop52
140
1.0
102
RTVSPost2010PropOp52
 70
     0
102
RTVSPost2010Prop53
 90
        2
102
RTVSPost2010PropOp53
 70
     1
102
RTVSPost2010Prop54
  1
strokes_ogs.tif
102
RTVSPost2010PropOp54
 70
     1
102
RTVSPost2010Prop55
280
     0
102
RTVSPost2010PropOp55
 70
     1
102
RTVSPost2010Prop56
140
1.0
102
RTVSPost2010PropOp56
 70
     1
102
RTVSPost2010Prop57
140
1.0
102
RTVSPost2010PropOp57
 70
     1
  0
XRECORD
  5
292
102
{ACAD_REACTORS
330
291
102
}
330
291
100
AcDbXrecord
280
     1
102
RTVSPropertyOp0
 70
     1
102
RTVSPropertyOp1
 70
     1
102
RTVSPropertyOp2
 70
     1
102
RTVSPropertyOp3
 70
     1
102
RTVSPropertyOp4
 70
     1
102
RTVSPropertyOp5
 70
     1
102
RTVSPropertyOp6
 70
     1
102
RTVSPropertyOp7
 70
     1
102
RTVSPropertyOp8
 70
     1
102
RTVSPropertyOp9
 70
     1
102
RTVSPropertyOp10
 70
     1
102
RTVSPropertyOp11
 70
     1
102
RTVSPropertyOp12
 70
     1
102
RTVSPropertyOp13
 70
     1
102
RTVSPropertyOp14
 70
     1
102
RTVSPropertyOp15
 70
     1
102
RTVSPropertyOp16
 70
     1
102
RTVSPropertyOp17
 70
     1
102
RTVSPropertyOp18
 70
     1
102
RTVSPropertyOp19
 70
     1
102
RTVSPropertyOp20
 70
     1
102
RTVSPropertyOp21
 70
     1
102
RTVSPropertyOp22
 70
     1
102
RTVSPropertyOp23
 70
     1
102
RTVSPropertyOp24
 70
     1
102
RTVSPropertyOp25
 70
     1
102
RTVSPropertyOp26
 70
     1
102
RTVSPropertyOp27
 70
     1
102
RTVSPropertyOp28
 70
     1
102
RTVSPropertyOp29
 70
     1
102
RTVSPropertyOp30
 70
     1
102
RTVSPropertyOp31
 70
     1
102
RTVSPropertyOp32
 70
     1
102
RTVSPropertyOp33
 70
     1
102
RTVSPropertyOp34
 70
     1
102
RTVSPropertyOp35
 70
     1
102
RTVSPropertyOp36
 70
     1
102
RTVSPropertyOp37
 70
     1
102
RTVSPropertyOp38
 70
     1
102
RTVSPropertyOp39
 70
     1
102
RTVSPropertyOp40
 70
     1
102
RTVSPropertyOp41
 70
     1
102
RTVSPropertyOp42
 70
     1
102
RTVSPropertyOp43
 70
     1
102
RTVSPropertyOp44
 70
     1
102
RTVSPropertyOp45
 70
     1
102
RTVSPropertyOp46
 70
     1
102
RTVSPropertyOp47
 70
     1
102
RTVSPropertyOp48
 70
     1
102
RTVSPropertyOp49
 70
     1
102
RTVSPropertyOp50
 70
     1
102
RTVSPropertyOp51
 70
     0
102
RTVSPropertyOp52
 70
     0
102
RTVSPropertyOp53
 70
     1
102
RTVSPropertyOp54
 70
     1
102
RTVSPropertyOp55
 70
     1
102
RTVSPropertyOp56
 70
     1
102
RTVSPropertyOp57
 70
     1
102
RTVSPost2010Prop28
280
     0
102
RTVSPost2010PropOp28
 70
     1
102
RTVSPost2010Prop29
280
     1
102
RTVSPost2010PropOp29
 70
     1
102
RTVSPost2010Prop30
280
     1
102
RTVSPost2010PropOp30
 70
     1
102
RTVSPost2010Prop31
280
     0
102
RTVSPost2010PropOp31
 70
     1
102
RTVSPost2010Prop32
280
     0
102
RTVSPost2010PropOp32
 70
     1
102
RTVSPost2010Prop33
280
     0
102
RTVSPost2010PropOp33
 70
     1
102
RTVSPost2010Prop34
280
     0
102
RTVSPost2010PropOp34
 70
     1
102
RTVSPost2010Prop35
280
     0
102
RTVSPost2010PropOp35
 70
     1
102
RTVSPost2010Prop36
280
     0
102
RTVSPost2010PropOp36
 70
     1
102
RTVSPost2010Prop37
 90
       50
102
RTVSPost2010PropOp37
 70
     1
102
RTVSPost2010Prop38
140
0.0
102
RTVSPost2010PropOp38
 70
     1
102
RTVSPost2010Prop39
140
1.0
102
RTVSPost2010PropOp39
 70
     1
102
RTVSPost2010Prop40
 90
        0
102
RTVSPost2010PropOp40
 70
     1
102
RTVSPost2010Prop41ColorIndex
 90
       18
102
RTVSPost2010Prop41ColorRGB
 90
        0
102
RTVSPost2010PropOp41
 70
     1
102
RTVSPost2010Prop42
 90
       50
102
RTVSPost2010PropOp42
 70
     1
102
RTVSPost2010Prop43
 90
        3
102
RTVSPost2010PropOp43
 70
     1
102
RTVSPost2010Prop44ColorIndex
 90
        5
102
RTVSPost2010Prop44ColorRGB
 90
      255
102
RTVSPost2010PropOp44
 70
     1
102
RTVSPost2010Prop45
280
     0
102
RTVSPost2010PropOp45
 70
     1
102
RTVSPost2010Prop46
 90
       50
102
RTVSPost2010PropOp46
 70
     1
102
RTVSPost2010Prop47
 90
       50
102
RTVSPost2010PropOp47
 70
     1
102
RTVSPost2010Prop48
 90
       50
102
RTVSPost2010PropOp48
 70
     1
102
RTVSPost2010Prop49
280
     0
102
RTVSPost2010PropOp49
 70
     1
102
RTVSPost2010Prop50
 90
       50
102
RTVSPost2010PropOp50
 70
     1
102
RTVSPost2010Prop51ColorIndex
 90
      256
102
RTVSPost2010Prop51ColorRGB
 90
-16777216
102
RTVSPost2010PropOp51
 70
     0
102
RTVSPost2010Prop52
140
1.0
102
RTVSPost2010PropOp52
 70
     0
102
RTVSPost2010Prop53
 90
        2
102
RTVSPost2010PropOp53
 70
     1
102
RTVSPost2010Prop54
  1
strokes_ogs.tif
102
RTVSPost2010PropOp54
 70
     1
102
RTVSPost2010Prop55
280
     0
102
RTVSPost2010PropOp55
 70
     1
102
RTVSPost2010Prop56
140
1.0
102
RTVSPost2010PropOp56
 70
     1
102
RTVSPost2010Prop57
140
1.0
102
RTVSPost2010PropOp57
 70
     1
  0
XRECORD
  5
2A6
102
{ACAD_REACTORS
330
2A5
102
}
330
2A5
100
AcDbXrecord
280
     1
102
RTVSPropertyOp0
 70
     0
102
RTVSPropertyOp1
 70
     0
102
RTVSPropertyOp2
 70
     0
102
RTVSPropertyOp3
 70
     0
102
RTVSPropertyOp4
 70
     0
102
RTVSPropertyOp5
 70
     0
102
RTVSPropertyOp6
 70
     0
102
RTVSPropertyOp7
 70
     0
102
RTVSPropertyOp8
 70
     0
102
RTVSPropertyOp9
 70
     0
102
RTVSPropertyOp10
 70
     0
102
RTVSPropertyOp11
 70
     0
102
RTVSPropertyOp12
 70
     0
102
RTVSPropertyOp13
 70
     0
102
RTVSPropertyOp14
 70
     2
102
RTVSPropertyOp15
 70
     0
102
RTVSPropertyOp16
 70
     0
102
RTVSPropertyOp17
 70
     0
102
RTVSPropertyOp18
 70
     0
102
RTVSPropertyOp19
 70
     0
102
RTVSPropertyOp20
 70
     0
102
RTVSPropertyOp21
 70
     0
102
RTVSPropertyOp22
 70
     0
102
RTVSPropertyOp23
 70
     0
102
RTVSPropertyOp24
 70
     0
102
RTVSPropertyOp25
 70
     0
102
RTVSPropertyOp26
 70
     0
102
RTVSPropertyOp27
 70
     0
102
RTVSPropertyOp28
 70
     0
102
RTVSPropertyOp29
 70
     0
102
RTVSPropertyOp30
 70
     0
102
RTVSPropertyOp31
 70
     0
102
RTVSPropertyOp32
 70
     0
102
RTVSPropertyOp33
 70
     0
102
RTVSPropertyOp34
 70
     0
102
RTVSPropertyOp35
 70
     0
102
RTVSPropertyOp36
 70
     0
102
RTVSPropertyOp37
 70
     0
102
RTVSPropertyOp38
 70
     0
102
RTVSPropertyOp39
 70
     0
102
RTVSPropertyOp40
 70
     0
102
RTVSPropertyOp41
 70
     0
102
RTVSPropertyOp42
 70
     0
102
RTVSPropertyOp43
 70
     0
102
RTVSPropertyOp44
 70
     0
102
RTVSPropertyOp45
 70
     0
102
RTVSPropertyOp46
 70
     0
102
RTVSPropertyOp47
 70
     0
102
RTVSPropertyOp48
 70
     0
102
RTVSPropertyOp49
 70
     0
102
RTVSPropertyOp50
 70
     0
102
RTVSPropertyOp51
 70
     0
102
RTVSPropertyOp52
 70
     0
102
RTVSPropertyOp53
 70
     0
102
RTVSPropertyOp54
 70
     0
102
RTVSPropertyOp55
 70
     0
102
RTVSPropertyOp56
 70
     0
102
RTVSPropertyOp57
 70
     0
102
RTVSPost2010Prop28
280
     0
102
RTVSPost2010PropOp28
 70
     0
102
RTVSPost2010Prop29
280
     1
102
RTVSPost2010PropOp29
 70
     0
102
RTVSPost2010Prop30
280
     1
102
RTVSPost2010PropOp30
 70
     0
102
RTVSPost2010Prop31
280
     0
102
RTVSPost2010PropOp31
 70
     0
102
RTVSPost2010Prop32
280
     0
102
RTVSPost2010PropOp32
 70
     0
102
RTVSPost2010Prop33
280
     0
102
RTVSPost2010PropOp33
 70
     0
102
RTVSPost2010Prop34
280
     0
102
RTVSPost2010PropOp34
 70
     0
102
RTVSPost2010Prop35
280
     0
102
RTVSPost2010PropOp35
 70
     0
102
RTVSPost2010Prop36
280
     0
102
RTVSPost2010PropOp36
 70
     0
102
RTVSPost2010Prop37
 90
       50
102
RTVSPost2010PropOp37
 70
     0
102
RTVSPost2010Prop38
140
0.0
102
RTVSPost2010PropOp38
 70
     0
102
RTVSPost2010Prop39
140
1.0
102
RTVSPost2010PropOp39
 70
     0
102
RTVSPost2010Prop40
 90
        0
102
RTVSPost2010PropOp40
 70
     0
102
RTVSPost2010Prop41ColorIndex
 90
       18
102
RTVSPost2010Prop41ColorRGB
 90
        0
102
RTVSPost2010PropOp41
 70
     0
102
RTVSPost2010Prop42
 90
       50
102
RTVSPost2010PropOp42
 70
     0
102
RTVSPost2010Prop43
 90
        3
102
RTVSPost2010PropOp43
 70
     0
102
RTVSPost2010Prop44ColorIndex
 90
        5
102
RTVSPost2010Prop44ColorRGB
 90
      255
102
RTVSPost2010PropOp44
 70
     0
102
RTVSPost2010Prop45
280
     0
102
RTVSPost2010PropOp45
 70
     0
102
RTVSPost2010Prop46
 90
       50
102
RTVSPost2010PropOp46
 70
     0
102
RTVSPost2010Prop47
 90
       50
102
RTVSPost2010PropOp47
 70
     0
102
RTVSPost2010Prop48
 90
       50
102
RTVSPost2010PropOp48
 70
     0
102
RTVSPost2010Prop49
280
     0
102
RTVSPost2010PropOp49
 70
     0
102
RTVSPost2010Prop50
 90
       50
102
RTVSPost2010PropOp50
 70
     0
102
RTVSPost2010Prop51ColorIndex
 90
      256
102
RTVSPost2010Prop51ColorRGB
 90
-16777216
102
RTVSPost2010PropOp51
 70
     0
102
RTVSPost2010Prop52
140
1.0
102
RTVSPost2010PropOp52
 70
     0
102
RTVSPost2010Prop53
 90
        2
102
RTVSPost2010PropOp53
 70
     0
102
RTVSPost2010Prop54
  1
strokes_ogs.tif
102
RTVSPost2010PropOp54
 70
     0
102
RTVSPost2010Prop55
280
     0
102
RTVSPost2010PropOp55
 70
     0
102
RTVSPost2010Prop56
140
1.0
102
RTVSPost2010PropOp56
 70
     0
102
RTVSPost2010Prop57
140
1.0
102
RTVSPost2010PropOp57
 70
     0
  0
XRECORD
  5
2A0
102
{ACAD_REACTORS
330
29F
102
}
330
29F
100
AcDbXrecord
280
     1
102
RTVSPropertyOp0
 70
     1
102
RTVSPropertyOp1
 70
     1
102
RTVSPropertyOp2
 70
     1
102
RTVSPropertyOp3
 70
     1
102
RTVSPropertyOp4
 70
     1
102
RTVSPropertyOp5
 70
     1
102
RTVSPropertyOp6
 70
     1
102
RTVSPropertyOp7
 70
     1
102
RTVSPropertyOp8
 70
     1
102
RTVSPropertyOp9
 70
     1
102
RTVSPropertyOp10
 70
     1
102
RTVSPropertyOp11
 70
     1
102
RTVSPropertyOp12
 70
     1
102
RTVSPropertyOp13
 70
     1
102
RTVSPropertyOp14
 70
     1
102
RTVSPropertyOp15
 70
     1
102
RTVSPropertyOp16
 70
     1
102
RTVSPropertyOp17
 70
     1
102
RTVSPropertyOp18
 70
     1
102
RTVSPropertyOp19
 70
     1
102
RTVSPropertyOp20
 70
     1
102
RTVSPropertyOp21
 70
     1
102
RTVSPropertyOp22
 70
     1
102
RTVSPropertyOp23
 70
     1
102
RTVSPropertyOp24
 70
     1
102
RTVSPropertyOp25
 70
     1
102
RTVSPropertyOp26
 70
     1
102
RTVSPropertyOp27
 70
     1
102
RTVSPropertyOp28
 70
     1
102
RTVSPropertyOp29
 70
     1
102
RTVSPropertyOp30
 70
     1
102
RTVSPropertyOp31
 70
     1
102
RTVSPropertyOp32
 70
     1
102
RTVSPropertyOp33
 70
     1
102
RTVSPropertyOp34
 70
     1
102
RTVSPropertyOp35
 70
     1
102
RTVSPropertyOp36
 70
     1
102
RTVSPropertyOp37
 70
     1
102
RTVSPropertyOp38
 70
     1
102
RTVSPropertyOp39
 70
     1
102
RTVSPropertyOp40
 70
     1
102
RTVSPropertyOp41
 70
     1
102
RTVSPropertyOp42
 70
     1
102
RTVSPropertyOp43
 70
     1
102
RTVSPropertyOp44
 70
     1
102
RTVSPropertyOp45
 70
     1
102
RTVSPropertyOp46
 70
     1
102
RTVSPropertyOp47
 70
     1
102
RTVSPropertyOp48
 70
     1
102
RTVSPropertyOp49
 70
     1
102
RTVSPropertyOp50
 70
     1
102
RTVSPropertyOp51
 70
     0
102
RTVSPropertyOp52
 70
     0
102
RTVSPropertyOp53
 70
     1
102
RTVSPropertyOp54
 70
     1
102
RTVSPropertyOp55
 70
     1
102
RTVSPropertyOp56
 70
     1
102
RTVSPropertyOp57
 70
     1
102
RTVSPost2010Prop28
280
     0
102
RTVSPost2010PropOp28
 70
     1
102
RTVSPost2010Prop29
280
     1
102
RTVSPost2010PropOp29
 70
     1
102
RTVSPost2010Prop30
280
     1
102
RTVSPost2010PropOp30
 70
     1
102
RTVSPost2010Prop31
280
     0
102
RTVSPost2010PropOp31
 70
     1
102
RTVSPost2010Prop32
280
     0
102
RTVSPost2010PropOp32
 70
     1
102
RTVSPost2010Prop33
280
     0
102
RTVSPost2010PropOp33
 70
     1
102
RTVSPost2010Prop34
280
     0
102
RTVSPost2010PropOp34
 70
     1
102
RTVSPost2010Prop35
280
     0
102
RTVSPost2010PropOp35
 70
     1
102
RTVSPost2010Prop36
280
     0
102
RTVSPost2010PropOp36
 70
     1
102
RTVSPost2010Prop37
 90
       50
102
RTVSPost2010PropOp37
 70
     1
102
RTVSPost2010Prop38
140
0.0
102
RTVSPost2010PropOp38
 70
     1
102
RTVSPost2010Prop39
140
1.0
102
RTVSPost2010PropOp39
 70
     1
102
RTVSPost2010Prop40
 90
        0
102
RTVSPost2010PropOp40
 70
     1
102
RTVSPost2010Prop41ColorIndex
 90
       18
102
RTVSPost2010Prop41ColorRGB
 90
        0
102
RTVSPost2010PropOp41
 70
     1
102
RTVSPost2010Prop42
 90
       50
102
RTVSPost2010PropOp42
 70
     1
102
RTVSPost2010Prop43
 90
        3
102
RTVSPost2010PropOp43
 70
     1
102
RTVSPost2010Prop44ColorIndex
 90
        5
102
RTVSPost2010Prop44ColorRGB
 90
      255
102
RTVSPost2010PropOp44
 70
     1
102
RTVSPost2010Prop45
280
     0
102
RTVSPost2010PropOp45
 70
     1
102
RTVSPost2010Prop46
 90
       50
102
RTVSPost2010PropOp46
 70
     1
102
RTVSPost2010Prop47
 90
       50
102
RTVSPost2010PropOp47
 70
     1
102
RTVSPost2010Prop48
 90
       50
102
RTVSPost2010PropOp48
 70
     1
102
RTVSPost2010Prop49
280
     0
102
RTVSPost2010PropOp49
 70
     1
102
RTVSPost2010Prop50
 90
       50
102
RTVSPost2010PropOp50
 70
     1
102
RTVSPost2010Prop51ColorIndex
 90
      256
102
RTVSPost2010Prop51ColorRGB
 90
-16777216
102
RTVSPost2010PropOp51
 70
     0
102
RTVSPost2010Prop52
140
1.0
102
RTVSPost2010PropOp52
 70
     0
102
RTVSPost2010Prop53
 90
        2
102
RTVSPost2010PropOp53
 70
     1
102
RTVSPost2010Prop54
  1
strokes_ogs.tif
102
RTVSPost2010PropOp54
 70
     1
102
RTVSPost2010Prop55
280
     0
102
RTVSPost2010PropOp55
 70
     1
102
RTVSPost2010Prop56
140
1.0
102
RTVSPost2010PropOp56
 70
     1
102
RTVSPost2010Prop57
140
1.0
102
RTVSPost2010PropOp57
 70
     1
  0
XRECORD
  5
2A8
102
{ACAD_REACTORS
330
2A7
102
}
330
2A7
100
AcDbXrecord
280
     1
102
RTVSPropertyOp0
 70
     0
102
RTVSPropertyOp1
 70
     0
102
RTVSPropertyOp2
 70
     0
102
RTVSPropertyOp3
 70
     0
102
RTVSPropertyOp4
 70
     0
102
RTVSPropertyOp5
 70
     0
102
RTVSPropertyOp6
 70
     0
102
RTVSPropertyOp7
 70
     0
102
RTVSPropertyOp8
 70
     0
102
RTVSPropertyOp9
 70
     0
102
RTVSPropertyOp10
 70
     0
102
RTVSPropertyOp11
 70
     0
102
RTVSPropertyOp12
 70
     0
102
RTVSPropertyOp13
 70
     0
102
RTVSPropertyOp14
 70
     2
102
RTVSPropertyOp15
 70
     0
102
RTVSPropertyOp16
 70
     0
102
RTVSPropertyOp17
 70
     0
102
RTVSPropertyOp18
 70
     0
102
RTVSPropertyOp19
 70
     0
102
RTVSPropertyOp20
 70
     0
102
RTVSPropertyOp21
 70
     0
102
RTVSPropertyOp22
 70
     0
102
RTVSPropertyOp23
 70
     0
102
RTVSPropertyOp24
 70
     0
102
RTVSPropertyOp25
 70
     0
102
RTVSPropertyOp26
 70
     0
102
RTVSPropertyOp27
 70
     0
102
RTVSPropertyOp28
 70
     0
102
RTVSPropertyOp29
 70
     0
102
RTVSPropertyOp30
 70
     0
102
RTVSPropertyOp31
 70
     0
102
RTVSPropertyOp32
 70
     0
102
RTVSPropertyOp33
 70
     0
102
RTVSPropertyOp34
 70
     0
102
RTVSPropertyOp35
 70
     0
102
RTVSPropertyOp36
 70
     0
102
RTVSPropertyOp37
 70
     0
102
RTVSPropertyOp38
 70
     0
102
RTVSPropertyOp39
 70
     0
102
RTVSPropertyOp40
 70
     0
102
RTVSPropertyOp41
 70
     0
102
RTVSPropertyOp42
 70
     0
102
RTVSPropertyOp43
 70
     0
102
RTVSPropertyOp44
 70
     0
102
RTVSPropertyOp45
 70
     0
102
RTVSPropertyOp46
 70
     0
102
RTVSPropertyOp47
 70
     0
102
RTVSPropertyOp48
 70
     0
102
RTVSPropertyOp49
 70
     0
102
RTVSPropertyOp50
 70
     0
102
RTVSPropertyOp51
 70
     0
102
RTVSPropertyOp52
 70
     0
102
RTVSPropertyOp53
 70
     0
102
RTVSPropertyOp54
 70
     0
102
RTVSPropertyOp55
 70
     0
102
RTVSPropertyOp56
 70
     0
102
RTVSPropertyOp57
 70
     0
102
RTVSPost2010Prop28
280
     0
102
RTVSPost2010PropOp28
 70
     0
102
RTVSPost2010Prop29
280
     1
102
RTVSPost2010PropOp29
 70
     0
102
RTVSPost2010Prop30
280
     1
102
RTVSPost2010PropOp30
 70
     0
102
RTVSPost2010Prop31
280
     0
102
RTVSPost2010PropOp31
 70
     0
102
RTVSPost2010Prop32
280
     0
102
RTVSPost2010PropOp32
 70
     0
102
RTVSPost2010Prop33
280
     0
102
RTVSPost2010PropOp33
 70
     0
102
RTVSPost2010Prop34
280
     0
102
RTVSPost2010PropOp34
 70
     0
102
RTVSPost2010Prop35
280
     0
102
RTVSPost2010PropOp35
 70
     0
102
RTVSPost2010Prop36
280
     0
102
RTVSPost2010PropOp36
 70
     0
102
RTVSPost2010Prop37
 90
       50
102
RTVSPost2010PropOp37
 70
     0
102
RTVSPost2010Prop38
140
0.0
102
RTVSPost2010PropOp38
 70
     0
102
RTVSPost2010Prop39
140
1.0
102
RTVSPost2010PropOp39
 70
     0
102
RTVSPost2010Prop40
 90
        0
102
RTVSPost2010PropOp40
 70
     0
102
RTVSPost2010Prop41ColorIndex
 90
       18
102
RTVSPost2010Prop41ColorRGB
 90
        0
102
RTVSPost2010PropOp41
 70
     0
102
RTVSPost2010Prop42
 90
       50
102
RTVSPost2010PropOp42
 70
     0
102
RTVSPost2010Prop43
 90
        3
102
RTVSPost2010PropOp43
 70
     0
102
RTVSPost2010Prop44ColorIndex
 90
        5
102
RTVSPost2010Prop44ColorRGB
 90
      255
102
RTVSPost2010PropOp44
 70
     0
102
RTVSPost2010Prop45
280
     0
102
RTVSPost2010PropOp45
 70
     0
102
RTVSPost2010Prop46
 90
       50
102
RTVSPost2010PropOp46
 70
     0
102
RTVSPost2010Prop47
 90
       50
102
RTVSPost2010PropOp47
 70
     0
102
RTVSPost2010Prop48
 90
       50
102
RTVSPost2010PropOp48
 70
     0
102
RTVSPost2010Prop49
280
     0
102
RTVSPost2010PropOp49
 70
     0
102
RTVSPost2010Prop50
 90
       50
102
RTVSPost2010PropOp50
 70
     0
102
RTVSPost2010Prop51ColorIndex
 90
      256
102
RTVSPost2010Prop51ColorRGB
 90
-16777216
102
RTVSPost2010PropOp51
 70
     0
102
RTVSPost2010Prop52
140
1.0
102
RTVSPost2010PropOp52
 70
     0
102
RTVSPost2010Prop53
 90
        2
102
RTVSPost2010PropOp53
 70
     0
102
RTVSPost2010Prop54
  1
strokes_ogs.tif
102
RTVSPost2010PropOp54
 70
     0
102
RTVSPost2010Prop55
280
     0
102
RTVSPost2010PropOp55
 70
     0
102
RTVSPost2010Prop56
140
1.0
102
RTVSPost2010PropOp56
 70
     0
102
RTVSPost2010Prop57
140
1.0
102
RTVSPost2010PropOp57
 70
     0
  0
XRECORD
  5
296
102
{ACAD_REACTORS
330
295
102
}
330
295
100
AcDbXrecord
280
     1
102
RTVSPropertyOp0
 70
     1
102
RTVSPropertyOp1
 70
     1
102
RTVSPropertyOp2
 70
     1
102
RTVSPropertyOp3
 70
     1
102
RTVSPropertyOp4
 70
     1
102
RTVSPropertyOp5
 70
     1
102
RTVSPropertyOp6
 70
     1
102
RTVSPropertyOp7
 70
     1
102
RTVSPropertyOp8
 70
     1
102
RTVSPropertyOp9
 70
     1
102
RTVSPropertyOp10
 70
     1
102
RTVSPropertyOp11
 70
     1
102
RTVSPropertyOp12
 70
     1
102
RTVSPropertyOp13
 70
     1
102
RTVSPropertyOp14
 70
     1
102
RTVSPropertyOp15
 70
     1
102
RTVSPropertyOp16
 70
     1
102
RTVSPropertyOp17
 70
     1
102
RTVSPropertyOp18
 70
     1
102
RTVSPropertyOp19
 70
     1
102
RTVSPropertyOp20
 70
     1
102
RTVSPropertyOp21
 70
     1
102
RTVSPropertyOp22
 70
     1
102
RTVSPropertyOp23
 70
     1
102
RTVSPropertyOp24
 70
     1
102
RTVSPropertyOp25
 70
     1
102
RTVSPropertyOp26
 70
     1
102
RTVSPropertyOp27
 70
     1
102
RTVSPropertyOp28
 70
     1
102
RTVSPropertyOp29
 70
     1
102
RTVSPropertyOp30
 70
     1
102
RTVSPropertyOp31
 70
     1
102
RTVSPropertyOp32
 70
     1
102
RTVSPropertyOp33
 70
     1
102
RTVSPropertyOp34
 70
     1
102
RTVSPropertyOp35
 70
     1
102
RTVSPropertyOp36
 70
     1
102
RTVSPropertyOp37
 70
     1
102
RTVSPropertyOp38
 70
     1
102
RTVSPropertyOp39
 70
     1
102
RTVSPropertyOp40
 70
     1
102
RTVSPropertyOp41
 70
     1
102
RTVSPropertyOp42
 70
     1
102
RTVSPropertyOp43
 70
     1
102
RTVSPropertyOp44
 70
     1
102
RTVSPropertyOp45
 70
     1
102
RTVSPropertyOp46
 70
     1
102
RTVSPropertyOp47
 70
     1
102
RTVSPropertyOp48
 70
     1
102
RTVSPropertyOp49
 70
     1
102
RTVSPropertyOp50
 70
     1
102
RTVSPropertyOp51
 70
     0
102
RTVSPropertyOp52
 70
     0
102
RTVSPropertyOp53
 70
     1
102
RTVSPropertyOp54
 70
     1
102
RTVSPropertyOp55
 70
     1
102
RTVSPropertyOp56
 70
     1
102
RTVSPropertyOp57
 70
     1
102
RTVSPost2010Prop28
280
     0
102
RTVSPost2010PropOp28
 70
     1
102
RTVSPost2010Prop29
280
     1
102
RTVSPost2010PropOp29
 70
     1
102
RTVSPost2010Prop30
280
     1
102
RTVSPost2010PropOp30
 70
     1
102
RTVSPost2010Prop31
280
     0
102
RTVSPost2010PropOp31
 70
     1
102
RTVSPost2010Prop32
280
     0
102
RTVSPost2010PropOp32
 70
     1
102
RTVSPost2010Prop33
280
     0
102
RTVSPost2010PropOp33
 70
     1
102
RTVSPost2010Prop34
280
     0
102
RTVSPost2010PropOp34
 70
     1
102
RTVSPost2010Prop35
280
     0
102
RTVSPost2010PropOp35
 70
     1
102
RTVSPost2010Prop36
280
     0
102
RTVSPost2010PropOp36
 70
     1
102
RTVSPost2010Prop37
 90
       50
102
RTVSPost2010PropOp37
 70
     1
102
RTVSPost2010Prop38
140
0.0
102
RTVSPost2010PropOp38
 70
     1
102
RTVSPost2010Prop39
140
1.0
102
RTVSPost2010PropOp39
 70
     1
102
RTVSPost2010Prop40
 90
        0
102
RTVSPost2010PropOp40
 70
     1
102
RTVSPost2010Prop41ColorIndex
 90
       18
102
RTVSPost2010Prop41ColorRGB
 90
        0
102
RTVSPost2010PropOp41
 70
     1
102
RTVSPost2010Prop42
 90
       50
102
RTVSPost2010PropOp42
 70
     1
102
RTVSPost2010Prop43
 90
        3
102
RTVSPost2010PropOp43
 70
     1
102
RTVSPost2010Prop44ColorIndex
 90
        5
102
RTVSPost2010Prop44ColorRGB
 90
      255
102
RTVSPost2010PropOp44
 70
     1
102
RTVSPost2010Prop45
280
     0
102
RTVSPost2010PropOp45
 70
     1
102
RTVSPost2010Prop46
 90
       50
102
RTVSPost2010PropOp46
 70
     1
102
RTVSPost2010Prop47
 90
       50
102
RTVSPost2010PropOp47
 70
     1
102
RTVSPost2010Prop48
 90
       50
102
RTVSPost2010PropOp48
 70
     1
102
RTVSPost2010Prop49
280
     0
102
RTVSPost2010PropOp49
 70
     1
102
RTVSPost2010Prop50
 90
       50
102
RTVSPost2010PropOp50
 70
     1
102
RTVSPost2010Prop51ColorIndex
 90
      256
102
RTVSPost2010Prop51ColorRGB
 90
-16777216
102
RTVSPost2010PropOp51
 70
     0
102
RTVSPost2010Prop52
140
1.0
102
RTVSPost2010PropOp52
 70
     0
102
RTVSPost2010Prop53
 90
        2
102
RTVSPost2010PropOp53
 70
     1
102
RTVSPost2010Prop54
  1
strokes_ogs.tif
102
RTVSPost2010PropOp54
 70
     1
102
RTVSPost2010Prop55
280
     0
102
RTVSPost2010PropOp55
 70
     1
102
RTVSPost2010Prop56
140
1.0
102
RTVSPost2010PropOp56
 70
     1
102
RTVSPost2010Prop57
140
1.0
102
RTVSPost2010PropOp57
 70
     1
  0
XRECORD
  5
2B4
102
{ACAD_REACTORS
330
2B3
102
}
330
2B3
100
AcDbXrecord
280
     1
102
RTVSPropertyOp0
 70
     1
102
RTVSPropertyOp1
 70
     1
102
RTVSPropertyOp2
 70
     1
102
RTVSPropertyOp3
 70
     1
102
RTVSPropertyOp4
 70
     1
102
RTVSPropertyOp5
 70
     1
102
RTVSPropertyOp6
 70
     1
102
RTVSPropertyOp7
 70
     1
102
RTVSPropertyOp8
 70
     1
102
RTVSPropertyOp9
 70
     1
102
RTVSPropertyOp10
 70
     1
102
RTVSPropertyOp11
 70
     1
102
RTVSPropertyOp12
 70
     1
102
RTVSPropertyOp13
 70
     1
102
RTVSPropertyOp14
 70
     1
102
RTVSPropertyOp15
 70
     1
102
RTVSPropertyOp16
 70
     1
102
RTVSPropertyOp17
 70
     1
102
RTVSPropertyOp18
 70
     1
102
RTVSPropertyOp19
 70
     1
102
RTVSPropertyOp20
 70
     1
102
RTVSPropertyOp21
 70
     1
102
RTVSPropertyOp22
 70
     1
102
RTVSPropertyOp23
 70
     1
102
RTVSPropertyOp24
 70
     1
102
RTVSPropertyOp25
 70
     1
102
RTVSPropertyOp26
 70
     1
102
RTVSPropertyOp27
 70
     1
102
RTVSPropertyOp28
 70
     1
102
RTVSPropertyOp29
 70
     1
102
RTVSPropertyOp30
 70
     1
102
RTVSPropertyOp31
 70
     1
102
RTVSPropertyOp32
 70
     1
102
RTVSPropertyOp33
 70
     1
102
RTVSPropertyOp34
 70
     1
102
RTVSPropertyOp35
 70
     1
102
RTVSPropertyOp36
 70
     1
102
RTVSPropertyOp37
 70
     1
102
RTVSPropertyOp38
 70
     1
102
RTVSPropertyOp39
 70
     1
102
RTVSPropertyOp40
 70
     1
102
RTVSPropertyOp41
 70
     1
102
RTVSPropertyOp42
 70
     1
102
RTVSPropertyOp43
 70
     1
102
RTVSPropertyOp44
 70
     1
102
RTVSPropertyOp45
 70
     1
102
RTVSPropertyOp46
 70
     1
102
RTVSPropertyOp47
 70
     1
102
RTVSPropertyOp48
 70
     1
102
RTVSPropertyOp49
 70
     1
102
RTVSPropertyOp50
 70
     1
102
RTVSPropertyOp51
 70
     0
102
RTVSPropertyOp52
 70
     0
102
RTVSPropertyOp53
 70
     1
102
RTVSPropertyOp54
 70
     1
102
RTVSPropertyOp55
 70
     1
102
RTVSPropertyOp56
 70
     1
102
RTVSPropertyOp57
 70
     1
102
RTVSPost2010Prop28
280
     0
102
RTVSPost2010PropOp28
 70
     1
102
RTVSPost2010Prop29
280
     1
102
RTVSPost2010PropOp29
 70
     1
102
RTVSPost2010Prop30
280
     1
102
RTVSPost2010PropOp30
 70
     1
102
RTVSPost2010Prop31
280
     0
102
RTVSPost2010PropOp31
 70
     1
102
RTVSPost2010Prop32
280
     0
102
RTVSPost2010PropOp32
 70
     1
102
RTVSPost2010Prop33
280
     0
102
RTVSPost2010PropOp33
 70
     1
102
RTVSPost2010Prop34
280
     0
102
RTVSPost2010PropOp34
 70
     1
102
RTVSPost2010Prop35
280
     0
102
RTVSPost2010PropOp35
 70
     1
102
RTVSPost2010Prop36
280
     0
102
RTVSPost2010PropOp36
 70
     1
102
RTVSPost2010Prop37
 90
       50
102
RTVSPost2010PropOp37
 70
     1
102
RTVSPost2010Prop38
140
0.0
102
RTVSPost2010PropOp38
 70
     1
102
RTVSPost2010Prop39
140
1.0
102
RTVSPost2010PropOp39
 70
     1
102
RTVSPost2010Prop40
 90
        0
102
RTVSPost2010PropOp40
 70
     1
102
RTVSPost2010Prop41ColorIndex
 90
       18
102
RTVSPost2010Prop41ColorRGB
 90
        0
102
RTVSPost2010PropOp41
 70
     1
102
RTVSPost2010Prop42
 90
       50
102
RTVSPost2010PropOp42
 70
     1
102
RTVSPost2010Prop43
 90
        3
102
RTVSPost2010PropOp43
 70
     1
102
RTVSPost2010Prop44ColorIndex
 90
        5
102
RTVSPost2010Prop44ColorRGB
 90
      255
102
RTVSPost2010PropOp44
 70
     1
102
RTVSPost2010Prop45
280
     0
102
RTVSPost2010PropOp45
 70
     1
102
RTVSPost2010Prop46
 90
       50
102
RTVSPost2010PropOp46
 70
     1
102
RTVSPost2010Prop47
 90
       50
102
RTVSPost2010PropOp47
 70
     1
102
RTVSPost2010Prop48
 90
       50
102
RTVSPost2010PropOp48
 70
     1
102
RTVSPost2010Prop49
280
     0
102
RTVSPost2010PropOp49
 70
     1
102
RTVSPost2010Prop50
 90
       50
102
RTVSPost2010PropOp50
 70
     1
102
RTVSPost2010Prop51ColorIndex
 90
      256
102
RTVSPost2010Prop51ColorRGB
 90
-16777216
102
RTVSPost2010PropOp51
 70
     0
102
RTVSPost2010Prop52
140
1.0
102
RTVSPost2010PropOp52
 70
     0
102
RTVSPost2010Prop53
 90
        2
102
RTVSPost2010PropOp53
 70
     1
102
RTVSPost2010Prop54
  1
strokes_ogs.tif
102
RTVSPost2010PropOp54
 70
     1
102
RTVSPost2010Prop55
280
     0
102
RTVSPost2010PropOp55
 70
     1
102
RTVSPost2010Prop56
140
1.0
102
RTVSPost2010PropOp56
 70
     1
102
RTVSPost2010Prop57
140
1.0
102
RTVSPost2010PropOp57
 70
     1
  0
XRECORD
  5
2B2
102
{ACAD_REACTORS
330
2B1
102
}
330
2B1
100
AcDbXrecord
280
     1
102
RTVSPropertyOp0
 70
     1
102
RTVSPropertyOp1
 70
     1
102
RTVSPropertyOp2
 70
     1
102
RTVSPropertyOp3
 70
     1
102
RTVSPropertyOp4
 70
     1
102
RTVSPropertyOp5
 70
     1
102
RTVSPropertyOp6
 70
     1
102
RTVSPropertyOp7
 70
     1
102
RTVSPropertyOp8
 70
     1
102
RTVSPropertyOp9
 70
     1
102
RTVSPropertyOp10
 70
     1
102
RTVSPropertyOp11
 70
     1
102
RTVSPropertyOp12
 70
     1
102
RTVSPropertyOp13
 70
     1
102
RTVSPropertyOp14
 70
     1
102
RTVSPropertyOp15
 70
     1
102
RTVSPropertyOp16
 70
     1
102
RTVSPropertyOp17
 70
     1
102
RTVSPropertyOp18
 70
     1
102
RTVSPropertyOp19
 70
     1
102
RTVSPropertyOp20
 70
     1
102
RTVSPropertyOp21
 70
     1
102
RTVSPropertyOp22
 70
     1
102
RTVSPropertyOp23
 70
     1
102
RTVSPropertyOp24
 70
     1
102
RTVSPropertyOp25
 70
     1
102
RTVSPropertyOp26
 70
     1
102
RTVSPropertyOp27
 70
     1
102
RTVSPropertyOp28
 70
     1
102
RTVSPropertyOp29
 70
     1
102
RTVSPropertyOp30
 70
     1
102
RTVSPropertyOp31
 70
     1
102
RTVSPropertyOp32
 70
     1
102
RTVSPropertyOp33
 70
     1
102
RTVSPropertyOp34
 70
     1
102
RTVSPropertyOp35
 70
     1
102
RTVSPropertyOp36
 70
     1
102
RTVSPropertyOp37
 70
     1
102
RTVSPropertyOp38
 70
     1
102
RTVSPropertyOp39
 70
     1
102
RTVSPropertyOp40
 70
     1
102
RTVSPropertyOp41
 70
     1
102
RTVSPropertyOp42
 70
     1
102
RTVSPropertyOp43
 70
     1
102
RTVSPropertyOp44
 70
     1
102
RTVSPropertyOp45
 70
     1
102
RTVSPropertyOp46
 70
     1
102
RTVSPropertyOp47
 70
     1
102
RTVSPropertyOp48
 70
     1
102
RTVSPropertyOp49
 70
     1
102
RTVSPropertyOp50
 70
     1
102
RTVSPropertyOp51
 70
     0
102
RTVSPropertyOp52
 70
     0
102
RTVSPropertyOp53
 70
     1
102
RTVSPropertyOp54
 70
     1
102
RTVSPropertyOp55
 70
     1
102
RTVSPropertyOp56
 70
     1
102
RTVSPropertyOp57
 70
     1
102
RTVSPost2010Prop28
280
     0
102
RTVSPost2010PropOp28
 70
     1
102
RTVSPost2010Prop29
280
     1
102
RTVSPost2010PropOp29
 70
     1
102
RTVSPost2010Prop30
280
     1
102
RTVSPost2010PropOp30
 70
     1
102
RTVSPost2010Prop31
280
     0
102
RTVSPost2010PropOp31
 70
     1
102
RTVSPost2010Prop32
280
     0
102
RTVSPost2010PropOp32
 70
     1
102
RTVSPost2010Prop33
280
     0
102
RTVSPost2010PropOp33
 70
     1
102
RTVSPost2010Prop34
280
     0
102
RTVSPost2010PropOp34
 70
     1
102
RTVSPost2010Prop35
280
     0
102
RTVSPost2010PropOp35
 70
     1
102
RTVSPost2010Prop36
280
     0
102
RTVSPost2010PropOp36
 70
     1
102
RTVSPost2010Prop37
 90
       50
102
RTVSPost2010PropOp37
 70
     1
102
RTVSPost2010Prop38
140
0.0
102
RTVSPost2010PropOp38
 70
     1
102
RTVSPost2010Prop39
140
1.0
102
RTVSPost2010PropOp39
 70
     1
102
RTVSPost2010Prop40
 90
        0
102
RTVSPost2010PropOp40
 70
     1
102
RTVSPost2010Prop41ColorIndex
 90
       18
102
RTVSPost2010Prop41ColorRGB
 90
        0
102
RTVSPost2010PropOp41
 70
     1
102
RTVSPost2010Prop42
 90
       50
102
RTVSPost2010PropOp42
 70
     1
102
RTVSPost2010Prop43
 90
        3
102
RTVSPost2010PropOp43
 70
     1
102
RTVSPost2010Prop44ColorIndex
 90
        5
102
RTVSPost2010Prop44ColorRGB
 90
      255
102
RTVSPost2010PropOp44
 70
     1
102
RTVSPost2010Prop45
280
     0
102
RTVSPost2010PropOp45
 70
     1
102
RTVSPost2010Prop46
 90
       50
102
RTVSPost2010PropOp46
 70
     1
102
RTVSPost2010Prop47
 90
       50
102
RTVSPost2010PropOp47
 70
     1
102
RTVSPost2010Prop48
 90
       50
102
RTVSPost2010PropOp48
 70
     1
102
RTVSPost2010Prop49
280
     0
102
RTVSPost2010PropOp49
 70
     1
102
RTVSPost2010Prop50
 90
       50
102
RTVSPost2010PropOp50
 70
     1
102
RTVSPost2010Prop51ColorIndex
 90
      256
102
RTVSPost2010Prop51ColorRGB
 90
-16777216
102
RTVSPost2010PropOp51
 70
     0
102
RTVSPost2010Prop52
140
1.0
102
RTVSPost2010PropOp52
 70
     0
102
RTVSPost2010Prop53
 90
        2
102
RTVSPost2010PropOp53
 70
     1
102
RTVSPost2010Prop54
  1
strokes_ogs.tif
102
RTVSPost2010PropOp54
 70
     1
102
RTVSPost2010Prop55
280
     0
102
RTVSPost2010PropOp55
 70
     1
102
RTVSPost2010Prop56
140
1.0
102
RTVSPost2010PropOp56
 70
     1
102
RTVSPost2010Prop57
140
1.0
102
RTVSPost2010PropOp57
 70
     1
  0
XRECORD
  5
2AC
102
{ACAD_REACTORS
330
2AB
102
}
330
2AB
100
AcDbXrecord
280
     1
102
RTVSPropertyOp0
 70
     1
102
RTVSPropertyOp1
 70
     1
102
RTVSPropertyOp2
 70
     1
102
RTVSPropertyOp3
 70
     1
102
RTVSPropertyOp4
 70
     1
102
RTVSPropertyOp5
 70
     1
102
RTVSPropertyOp6
 70
     1
102
RTVSPropertyOp7
 70
     1
102
RTVSPropertyOp8
 70
     1
102
RTVSPropertyOp9
 70
     1
102
RTVSPropertyOp10
 70
     1
102
RTVSPropertyOp11
 70
     1
102
RTVSPropertyOp12
 70
     1
102
RTVSPropertyOp13
 70
     1
102
RTVSPropertyOp14
 70
     1
102
RTVSPropertyOp15
 70
     1
102
RTVSPropertyOp16
 70
     1
102
RTVSPropertyOp17
 70
     1
102
RTVSPropertyOp18
 70
     1
102
RTVSPropertyOp19
 70
     1
102
RTVSPropertyOp20
 70
     1
102
RTVSPropertyOp21
 70
     1
102
RTVSPropertyOp22
 70
     1
102
RTVSPropertyOp23
 70
     1
102
RTVSPropertyOp24
 70
     1
102
RTVSPropertyOp25
 70
     1
102
RTVSPropertyOp26
 70
     1
102
RTVSPropertyOp27
 70
     1
102
RTVSPropertyOp28
 70
     1
102
RTVSPropertyOp29
 70
     1
102
RTVSPropertyOp30
 70
     1
102
RTVSPropertyOp31
 70
     1
102
RTVSPropertyOp32
 70
     1
102
RTVSPropertyOp33
 70
     1
102
RTVSPropertyOp34
 70
     1
102
RTVSPropertyOp35
 70
     1
102
RTVSPropertyOp36
 70
     1
102
RTVSPropertyOp37
 70
     1
102
RTVSPropertyOp38
 70
     1
102
RTVSPropertyOp39
 70
     1
102
RTVSPropertyOp40
 70
     1
102
RTVSPropertyOp41
 70
     1
102
RTVSPropertyOp42
 70
     1
102
RTVSPropertyOp43
 70
     1
102
RTVSPropertyOp44
 70
     1
102
RTVSPropertyOp45
 70
     1
102
RTVSPropertyOp46
 70
     1
102
RTVSPropertyOp47
 70
     1
102
RTVSPropertyOp48
 70
     1
102
RTVSPropertyOp49
 70
     1
102
RTVSPropertyOp50
 70
     1
102
RTVSPropertyOp51
 70
     0
102
RTVSPropertyOp52
 70
     0
102
RTVSPropertyOp53
 70
     1
102
RTVSPropertyOp54
 70
     1
102
RTVSPropertyOp55
 70
     1
102
RTVSPropertyOp56
 70
     1
102
RTVSPropertyOp57
 70
     1
102
RTVSPost2010Prop28
280
     0
102
RTVSPost2010PropOp28
 70
     1
102
RTVSPost2010Prop29
280
     1
102
RTVSPost2010PropOp29
 70
     1
102
RTVSPost2010Prop30
280
     1
102
RTVSPost2010PropOp30
 70
     1
102
RTVSPost2010Prop31
280
     0
102
RTVSPost2010PropOp31
 70
     1
102
RTVSPost2010Prop32
280
     0
102
RTVSPost2010PropOp32
 70
     1
102
RTVSPost2010Prop33
280
     0
102
RTVSPost2010PropOp33
 70
     1
102
RTVSPost2010Prop34
280
     0
102
RTVSPost2010PropOp34
 70
     1
102
RTVSPost2010Prop35
280
     0
102
RTVSPost2010PropOp35
 70
     1
102
RTVSPost2010Prop36
280
     0
102
RTVSPost2010PropOp36
 70
     1
102
RTVSPost2010Prop37
 90
       50
102
RTVSPost2010PropOp37
 70
     1
102
RTVSPost2010Prop38
140
0.0
102
RTVSPost2010PropOp38
 70
     1
102
RTVSPost2010Prop39
140
1.0
102
RTVSPost2010PropOp39
 70
     1
102
RTVSPost2010Prop40
 90
        0
102
RTVSPost2010PropOp40
 70
     1
102
RTVSPost2010Prop41ColorIndex
 90
       18
102
RTVSPost2010Prop41ColorRGB
 90
        0
102
RTVSPost2010PropOp41
 70
     1
102
RTVSPost2010Prop42
 90
       50
102
RTVSPost2010PropOp42
 70
     1
102
RTVSPost2010Prop43
 90
        3
102
RTVSPost2010PropOp43
 70
     1
102
RTVSPost2010Prop44ColorIndex
 90
        5
102
RTVSPost2010Prop44ColorRGB
 90
      255
102
RTVSPost2010PropOp44
 70
     1
102
RTVSPost2010Prop45
280
     0
102
RTVSPost2010PropOp45
 70
     1
102
RTVSPost2010Prop46
 90
       50
102
RTVSPost2010PropOp46
 70
     1
102
RTVSPost2010Prop47
 90
       50
102
RTVSPost2010PropOp47
 70
     1
102
RTVSPost2010Prop48
 90
       50
102
RTVSPost2010PropOp48
 70
     1
102
RTVSPost2010Prop49
280
     0
102
RTVSPost2010PropOp49
 70
     1
102
RTVSPost2010Prop50
 90
       50
102
RTVSPost2010PropOp50
 70
     1
102
RTVSPost2010Prop51ColorIndex
 90
      256
102
RTVSPost2010Prop51ColorRGB
 90
-16777216
102
RTVSPost2010PropOp51
 70
     0
102
RTVSPost2010Prop52
140
1.0
102
RTVSPost2010PropOp52
 70
     0
102
RTVSPost2010Prop53
 90
        2
102
RTVSPost2010PropOp53
 70
     1
102
RTVSPost2010Prop54
  1
strokes_ogs.tif
102
RTVSPost2010PropOp54
 70
     1
102
RTVSPost2010Prop55
280
     0
102
RTVSPost2010PropOp55
 70
     1
102
RTVSPost2010Prop56
140
1.0
102
RTVSPost2010PropOp56
 70
     1
102
RTVSPost2010Prop57
140
1.0
102
RTVSPost2010PropOp57
 70
     1
  0
XRECORD
  5
2AE
102
{ACAD_REACTORS
330
2AD
102
}
330
2AD
100
AcDbXrecord
280
     1
102
RTVSPropertyOp0
 70
     1
102
RTVSPropertyOp1
 70
     1
102
RTVSPropertyOp2
 70
     1
102
RTVSPropertyOp3
 70
     1
102
RTVSPropertyOp4
 70
     1
102
RTVSPropertyOp5
 70
     1
102
RTVSPropertyOp6
 70
     1
102
RTVSPropertyOp7
 70
     1
102
RTVSPropertyOp8
 70
     1
102
RTVSPropertyOp9
 70
     1
102
RTVSPropertyOp10
 70
     1
102
RTVSPropertyOp11
 70
     1
102
RTVSPropertyOp12
 70
     1
102
RTVSPropertyOp13
 70
     1
102
RTVSPropertyOp14
 70
     1
102
RTVSPropertyOp15
 70
     1
102
RTVSPropertyOp16
 70
     1
102
RTVSPropertyOp17
 70
     1
102
RTVSPropertyOp18
 70
     1
102
RTVSPropertyOp19
 70
     1
102
RTVSPropertyOp20
 70
     1
102
RTVSPropertyOp21
 70
     1
102
RTVSPropertyOp22
 70
     1
102
RTVSPropertyOp23
 70
     1
102
RTVSPropertyOp24
 70
     1
102
RTVSPropertyOp25
 70
     1
102
RTVSPropertyOp26
 70
     1
102
RTVSPropertyOp27
 70
     1
102
RTVSPropertyOp28
 70
     1
102
RTVSPropertyOp29
 70
     1
102
RTVSPropertyOp30
 70
     1
102
RTVSPropertyOp31
 70
     1
102
RTVSPropertyOp32
 70
     1
102
RTVSPropertyOp33
 70
     1
102
RTVSPropertyOp34
 70
     1
102
RTVSPropertyOp35
 70
     1
102
RTVSPropertyOp36
 70
     1
102
RTVSPropertyOp37
 70
     1
102
RTVSPropertyOp38
 70
     1
102
RTVSPropertyOp39
 70
     1
102
RTVSPropertyOp40
 70
     1
102
RTVSPropertyOp41
 70
     1
102
RTVSPropertyOp42
 70
     1
102
RTVSPropertyOp43
 70
     1
102
RTVSPropertyOp44
 70
     1
102
RTVSPropertyOp45
 70
     1
102
RTVSPropertyOp46
 70
     1
102
RTVSPropertyOp47
 70
     1
102
RTVSPropertyOp48
 70
     1
102
RTVSPropertyOp49
 70
     1
102
RTVSPropertyOp50
 70
     1
102
RTVSPropertyOp51
 70
     0
102
RTVSPropertyOp52
 70
     0
102
RTVSPropertyOp53
 70
     1
102
RTVSPropertyOp54
 70
     1
102
RTVSPropertyOp55
 70
     1
102
RTVSPropertyOp56
 70
     1
102
RTVSPropertyOp57
 70
     1
102
RTVSPost2010Prop28
280
     0
102
RTVSPost2010PropOp28
 70
     1
102
RTVSPost2010Prop29
280
     1
102
RTVSPost2010PropOp29
 70
     1
102
RTVSPost2010Prop30
280
     1
102
RTVSPost2010PropOp30
 70
     1
102
RTVSPost2010Prop31
280
     0
102
RTVSPost2010PropOp31
 70
     1
102
RTVSPost2010Prop32
280
     0
102
RTVSPost2010PropOp32
 70
     1
102
RTVSPost2010Prop33
280
     0
102
RTVSPost2010PropOp33
 70
     1
102
RTVSPost2010Prop34
280
     0
102
RTVSPost2010PropOp34
 70
     1
102
RTVSPost2010Prop35
280
     0
102
RTVSPost2010PropOp35
 70
     1
102
RTVSPost2010Prop36
280
     0
102
RTVSPost2010PropOp36
 70
     1
102
RTVSPost2010Prop37
 90
       50
102
RTVSPost2010PropOp37
 70
     1
102
RTVSPost2010Prop38
140
0.0
102
RTVSPost2010PropOp38
 70
     1
102
RTVSPost2010Prop39
140
1.0
102
RTVSPost2010PropOp39
 70
     1
102
RTVSPost2010Prop40
 90
        0
102
RTVSPost2010PropOp40
 70
     1
102
RTVSPost2010Prop41ColorIndex
 90
       18
102
RTVSPost2010Prop41ColorRGB
 90
        0
102
RTVSPost2010PropOp41
 70
     1
102
RTVSPost2010Prop42
 90
       50
102
RTVSPost2010PropOp42
 70
     1
102
RTVSPost2010Prop43
 90
        3
102
RTVSPost2010PropOp43
 70
     1
102
RTVSPost2010Prop44ColorIndex
 90
        5
102
RTVSPost2010Prop44ColorRGB
 90
      255
102
RTVSPost2010PropOp44
 70
     1
102
RTVSPost2010Prop45
280
     0
102
RTVSPost2010PropOp45
 70
     1
102
RTVSPost2010Prop46
 90
       50
102
RTVSPost2010PropOp46
 70
     1
102
RTVSPost2010Prop47
 90
       50
102
RTVSPost2010PropOp47
 70
     1
102
RTVSPost2010Prop48
 90
       50
102
RTVSPost2010PropOp48
 70
     1
102
RTVSPost2010Prop49
280
     0
102
RTVSPost2010PropOp49
 70
     1
102
RTVSPost2010Prop50
 90
       50
102
RTVSPost2010PropOp50
 70
     1
102
RTVSPost2010Prop51ColorIndex
 90
      256
102
RTVSPost2010Prop51ColorRGB
 90
-16777216
102
RTVSPost2010PropOp51
 70
     0
102
RTVSPost2010Prop52
140
1.0
102
RTVSPost2010PropOp52
 70
     0
102
RTVSPost2010Prop53
 90
        2
102
RTVSPost2010PropOp53
 70
     1
102
RTVSPost2010Prop54
  1
strokes_ogs.tif
102
RTVSPost2010PropOp54
 70
     1
102
RTVSPost2010Prop55
280
     0
102
RTVSPost2010PropOp55
 70
     1
102
RTVSPost2010Prop56
140
1.0
102
RTVSPost2010PropOp56
 70
     1
102
RTVSPost2010Prop57
140
1.0
102
RTVSPost2010PropOp57
 70
     1
  0
XRECORD
  5
29E
102
{ACAD_REACTORS
330
29D
102
}
330
29D
100
AcDbXrecord
280
     1
102
RTVSPropertyOp0
 70
     1
102
RTVSPropertyOp1
 70
     1
102
RTVSPropertyOp2
 70
     1
102
RTVSPropertyOp3
 70
     1
102
RTVSPropertyOp4
 70
     1
102
RTVSPropertyOp5
 70
     1
102
RTVSPropertyOp6
 70
     1
102
RTVSPropertyOp7
 70
     1
102
RTVSPropertyOp8
 70
     1
102
RTVSPropertyOp9
 70
     1
102
RTVSPropertyOp10
 70
     1
102
RTVSPropertyOp11
 70
     1
102
RTVSPropertyOp12
 70
     1
102
RTVSPropertyOp13
 70
     1
102
RTVSPropertyOp14
 70
     1
102
RTVSPropertyOp15
 70
     1
102
RTVSPropertyOp16
 70
     1
102
RTVSPropertyOp17
 70
     1
102
RTVSPropertyOp18
 70
     1
102
RTVSPropertyOp19
 70
     1
102
RTVSPropertyOp20
 70
     1
102
RTVSPropertyOp21
 70
     1
102
RTVSPropertyOp22
 70
     1
102
RTVSPropertyOp23
 70
     1
102
RTVSPropertyOp24
 70
     1
102
RTVSPropertyOp25
 70
     1
102
RTVSPropertyOp26
 70
     1
102
RTVSPropertyOp27
 70
     1
102
RTVSPropertyOp28
 70
     1
102
RTVSPropertyOp29
 70
     1
102
RTVSPropertyOp30
 70
     1
102
RTVSPropertyOp31
 70
     1
102
RTVSPropertyOp32
 70
     1
102
RTVSPropertyOp33
 70
     1
102
RTVSPropertyOp34
 70
     1
102
RTVSPropertyOp35
 70
     1
102
RTVSPropertyOp36
 70
     1
102
RTVSPropertyOp37
 70
     1
102
RTVSPropertyOp38
 70
     1
102
RTVSPropertyOp39
 70
     1
102
RTVSPropertyOp40
 70
     1
102
RTVSPropertyOp41
 70
     1
102
RTVSPropertyOp42
 70
     1
102
RTVSPropertyOp43
 70
     1
102
RTVSPropertyOp44
 70
     1
102
RTVSPropertyOp45
 70
     1
102
RTVSPropertyOp46
 70
     1
102
RTVSPropertyOp47
 70
     1
102
RTVSPropertyOp48
 70
     1
102
RTVSPropertyOp49
 70
     1
102
RTVSPropertyOp50
 70
     1
102
RTVSPropertyOp51
 70
     0
102
RTVSPropertyOp52
 70
     0
102
RTVSPropertyOp53
 70
     1
102
RTVSPropertyOp54
 70
     1
102
RTVSPropertyOp55
 70
     1
102
RTVSPropertyOp56
 70
     1
102
RTVSPropertyOp57
 70
     1
102
RTVSPost2010Prop28
280
     0
102
RTVSPost2010PropOp28
 70
     1
102
RTVSPost2010Prop29
280
     1
102
RTVSPost2010PropOp29
 70
     1
102
RTVSPost2010Prop30
280
     1
102
RTVSPost2010PropOp30
 70
     1
102
RTVSPost2010Prop31
280
     0
102
RTVSPost2010PropOp31
 70
     1
102
RTVSPost2010Prop32
280
     0
102
RTVSPost2010PropOp32
 70
     1
102
RTVSPost2010Prop33
280
     0
102
RTVSPost2010PropOp33
 70
     1
102
RTVSPost2010Prop34
280
     0
102
RTVSPost2010PropOp34
 70
     1
102
RTVSPost2010Prop35
280
     0
102
RTVSPost2010PropOp35
 70
     1
102
RTVSPost2010Prop36
280
     0
102
RTVSPost2010PropOp36
 70
     1
102
RTVSPost2010Prop37
 90
       50
102
RTVSPost2010PropOp37
 70
     1
102
RTVSPost2010Prop38
140
0.0
102
RTVSPost2010PropOp38
 70
     1
102
RTVSPost2010Prop39
140
1.0
102
RTVSPost2010PropOp39
 70
     1
102
RTVSPost2010Prop40
 90
        0
102
RTVSPost2010PropOp40
 70
     1
102
RTVSPost2010Prop41ColorIndex
 90
       18
102
RTVSPost2010Prop41ColorRGB
 90
        0
102
RTVSPost2010PropOp41
 70
     1
102
RTVSPost2010Prop42
 90
       50
102
RTVSPost2010PropOp42
 70
     1
102
RTVSPost2010Prop43
 90
        3
102
RTVSPost2010PropOp43
 70
     1
102
RTVSPost2010Prop44ColorIndex
 90
        5
102
RTVSPost2010Prop44ColorRGB
 90
      255
102
RTVSPost2010PropOp44
 70
     1
102
RTVSPost2010Prop45
280
     0
102
RTVSPost2010PropOp45
 70
     1
102
RTVSPost2010Prop46
 90
       50
102
RTVSPost2010PropOp46
 70
     1
102
RTVSPost2010Prop47
 90
       50
102
RTVSPost2010PropOp47
 70
     1
102
RTVSPost2010Prop48
 90
       50
102
RTVSPost2010PropOp48
 70
     1
102
RTVSPost2010Prop49
280
     0
102
RTVSPost2010PropOp49
 70
     1
102
RTVSPost2010Prop50
 90
       50
102
RTVSPost2010PropOp50
 70
     1
102
RTVSPost2010Prop51ColorIndex
 90
      256
102
RTVSPost2010Prop51ColorRGB
 90
-16777216
102
RTVSPost2010PropOp51
 70
     0
102
RTVSPost2010Prop52
140
1.0
102
RTVSPost2010PropOp52
 70
     0
102
RTVSPost2010Prop53
 90
        2
102
RTVSPost2010PropOp53
 70
     1
102
RTVSPost2010Prop54
  1
strokes_ogs.tif
102
RTVSPost2010PropOp54
 70
     1
102
RTVSPost2010Prop55
280
     0
102
RTVSPost2010PropOp55
 70
     1
102
RTVSPost2010Prop56
140
1.0
102
RTVSPost2010PropOp56
 70
     1
102
RTVSPost2010Prop57
140
1.0
102
RTVSPost2010PropOp57
 70
     1
  0
XRECORD
  5
290
102
{ACAD_REACTORS
330
28F
102
}
330
28F
100
AcDbXrecord
280
     1
102
RTVSPropertyOp0
 70
     1
102
RTVSPropertyOp1
 70
     1
102
RTVSPropertyOp2
 70
     1
102
RTVSPropertyOp3
 70
     1
102
RTVSPropertyOp4
 70
     1
102
RTVSPropertyOp5
 70
     1
102
RTVSPropertyOp6
 70
     1
102
RTVSPropertyOp7
 70
     1
102
RTVSPropertyOp8
 70
     1
102
RTVSPropertyOp9
 70
     1
102
RTVSPropertyOp10
 70
     1
102
RTVSPropertyOp11
 70
     1
102
RTVSPropertyOp12
 70
     1
102
RTVSPropertyOp13
 70
     1
102
RTVSPropertyOp14
 70
     1
102
RTVSPropertyOp15
 70
     1
102
RTVSPropertyOp16
 70
     1
102
RTVSPropertyOp17
 70
     1
102
RTVSPropertyOp18
 70
     1
102
RTVSPropertyOp19
 70
     1
102
RTVSPropertyOp20
 70
     1
102
RTVSPropertyOp21
 70
     1
102
RTVSPropertyOp22
 70
     1
102
RTVSPropertyOp23
 70
     1
102
RTVSPropertyOp24
 70
     1
102
RTVSPropertyOp25
 70
     1
102
RTVSPropertyOp26
 70
     1
102
RTVSPropertyOp27
 70
     1
102
RTVSPropertyOp28
 70
     1
102
RTVSPropertyOp29
 70
     1
102
RTVSPropertyOp30
 70
     1
102
RTVSPropertyOp31
 70
     1
102
RTVSPropertyOp32
 70
     1
102
RTVSPropertyOp33
 70
     1
102
RTVSPropertyOp34
 70
     1
102
RTVSPropertyOp35
 70
     1
102
RTVSPropertyOp36
 70
     1
102
RTVSPropertyOp37
 70
     1
102
RTVSPropertyOp38
 70
     1
102
RTVSPropertyOp39
 70
     1
102
RTVSPropertyOp40
 70
     1
102
RTVSPropertyOp41
 70
     1
102
RTVSPropertyOp42
 70
     1
102
RTVSPropertyOp43
 70
     1
102
RTVSPropertyOp44
 70
     1
102
RTVSPropertyOp45
 70
     1
102
RTVSPropertyOp46
 70
     1
102
RTVSPropertyOp47
 70
     1
102
RTVSPropertyOp48
 70
     1
102
RTVSPropertyOp49
 70
     1
102
RTVSPropertyOp50
 70
     1
102
RTVSPropertyOp51
 70
     0
102
RTVSPropertyOp52
 70
     0
102
RTVSPropertyOp53
 70
     1
102
RTVSPropertyOp54
 70
     1
102
RTVSPropertyOp55
 70
     1
102
RTVSPropertyOp56
 70
     1
102
RTVSPropertyOp57
 70
     1
102
RTVSPost2010Prop28
280
     0
102
RTVSPost2010PropOp28
 70
     1
102
RTVSPost2010Prop29
280
     1
102
RTVSPost2010PropOp29
 70
     1
102
RTVSPost2010Prop30
280
     1
102
RTVSPost2010PropOp30
 70
     1
102
RTVSPost2010Prop31
280
     0
102
RTVSPost2010PropOp31
 70
     1
102
RTVSPost2010Prop32
280
     0
102
RTVSPost2010PropOp32
 70
     1
102
RTVSPost2010Prop33
280
     0
102
RTVSPost2010PropOp33
 70
     1
102
RTVSPost2010Prop34
280
     0
102
RTVSPost2010PropOp34
 70
     1
102
RTVSPost2010Prop35
280
     0
102
RTVSPost2010PropOp35
 70
     1
102
RTVSPost2010Prop36
280
     0
102
RTVSPost2010PropOp36
 70
     1
102
RTVSPost2010Prop37
 90
       50
102
RTVSPost2010PropOp37
 70
     1
102
RTVSPost2010Prop38
140
0.0
102
RTVSPost2010PropOp38
 70
     1
102
RTVSPost2010Prop39
140
1.0
102
RTVSPost2010PropOp39
 70
     1
102
RTVSPost2010Prop40
 90
        0
102
RTVSPost2010PropOp40
 70
     1
102
RTVSPost2010Prop41ColorIndex
 90
       18
102
RTVSPost2010Prop41ColorRGB
 90
        0
102
RTVSPost2010PropOp41
 70
     1
102
RTVSPost2010Prop42
 90
       50
102
RTVSPost2010PropOp42
 70
     1
102
RTVSPost2010Prop43
 90
        3
102
RTVSPost2010PropOp43
 70
     1
102
RTVSPost2010Prop44ColorIndex
 90
        5
102
RTVSPost2010Prop44ColorRGB
 90
      255
102
RTVSPost2010PropOp44
 70
     1
102
RTVSPost2010Prop45
280
     0
102
RTVSPost2010PropOp45
 70
     1
102
RTVSPost2010Prop46
 90
       50
102
RTVSPost2010PropOp46
 70
     1
102
RTVSPost2010Prop47
 90
       50
102
RTVSPost2010PropOp47
 70
     1
102
RTVSPost2010Prop48
 90
       50
102
RTVSPost2010PropOp48
 70
     1
102
RTVSPost2010Prop49
280
     0
102
RTVSPost2010PropOp49
 70
     1
102
RTVSPost2010Prop50
 90
       50
102
RTVSPost2010PropOp50
 70
     1
102
RTVSPost2010Prop51ColorIndex
 90
      256
102
RTVSPost2010Prop51ColorRGB
 90
-16777216
102
RTVSPost2010PropOp51
 70
     0
102
RTVSPost2010Prop52
140
1.0
102
RTVSPost2010PropOp52
 70
     0
102
RTVSPost2010Prop53
 90
        2
102
RTVSPost2010PropOp53
 70
     1
102
RTVSPost2010Prop54
  1
strokes_ogs.tif
102
RTVSPost2010PropOp54
 70
     1
102
RTVSPost2010Prop55
280
     0
102
RTVSPost2010PropOp55
 70
     1
102
RTVSPost2010Prop56
140
1.0
102
RTVSPost2010PropOp56
 70
     1
102
RTVSPost2010Prop57
140
1.0
102
RTVSPost2010PropOp57
 70
     1
  0
XRECORD
  5
2B0
102
{ACAD_REACTORS
330
2AF
102
}
330
2AF
100
AcDbXrecord
280
     1
102
RTVSPropertyOp0
 70
     1
102
RTVSPropertyOp1
 70
     1
102
RTVSPropertyOp2
 70
     1
102
RTVSPropertyOp3
 70
     1
102
RTVSPropertyOp4
 70
     1
102
RTVSPropertyOp5
 70
     1
102
RTVSPropertyOp6
 70
     1
102
RTVSPropertyOp7
 70
     1
102
RTVSPropertyOp8
 70
     1
102
RTVSPropertyOp9
 70
     1
102
RTVSPropertyOp10
 70
     1
102
RTVSPropertyOp11
 70
     1
102
RTVSPropertyOp12
 70
     1
102
RTVSPropertyOp13
 70
     1
102
RTVSPropertyOp14
 70
     1
102
RTVSPropertyOp15
 70
     1
102
RTVSPropertyOp16
 70
     1
102
RTVSPropertyOp17
 70
     1
102
RTVSPropertyOp18
 70
     1
102
RTVSPropertyOp19
 70
     1
102
RTVSPropertyOp20
 70
     1
102
RTVSPropertyOp21
 70
     1
102
RTVSPropertyOp22
 70
     1
102
RTVSPropertyOp23
 70
     1
102
RTVSPropertyOp24
 70
     1
102
RTVSPropertyOp25
 70
     1
102
RTVSPropertyOp26
 70
     1
102
RTVSPropertyOp27
 70
     1
102
RTVSPropertyOp28
 70
     1
102
RTVSPropertyOp29
 70
     1
102
RTVSPropertyOp30
 70
     1
102
RTVSPropertyOp31
 70
     1
102
RTVSPropertyOp32
 70
     1
102
RTVSPropertyOp33
 70
     1
102
RTVSPropertyOp34
 70
     1
102
RTVSPropertyOp35
 70
     1
102
RTVSPropertyOp36
 70
     1
102
RTVSPropertyOp37
 70
     1
102
RTVSPropertyOp38
 70
     1
102
RTVSPropertyOp39
 70
     1
102
RTVSPropertyOp40
 70
     1
102
RTVSPropertyOp41
 70
     1
102
RTVSPropertyOp42
 70
     1
102
RTVSPropertyOp43
 70
     1
102
RTVSPropertyOp44
 70
     1
102
RTVSPropertyOp45
 70
     1
102
RTVSPropertyOp46
 70
     1
102
RTVSPropertyOp47
 70
     1
102
RTVSPropertyOp48
 70
     1
102
RTVSPropertyOp49
 70
     1
102
RTVSPropertyOp50
 70
     1
102
RTVSPropertyOp51
 70
     0
102
RTVSPropertyOp52
 70
     0
102
RTVSPropertyOp53
 70
     1
102
RTVSPropertyOp54
 70
     1
102
RTVSPropertyOp55
 70
     1
102
RTVSPropertyOp56
 70
     1
102
RTVSPropertyOp57
 70
     1
102
RTVSPost2010Prop28
280
     0
102
RTVSPost2010PropOp28
 70
     1
102
RTVSPost2010Prop29
280
     1
102
RTVSPost2010PropOp29
 70
     1
102
RTVSPost2010Prop30
280
     1
102
RTVSPost2010PropOp30
 70
     1
102
RTVSPost2010Prop31
280
     0
102
RTVSPost2010PropOp31
 70
     1
102
RTVSPost2010Prop32
280
     0
102
RTVSPost2010PropOp32
 70
     1
102
RTVSPost2010Prop33
280
     0
102
RTVSPost2010PropOp33
 70
     1
102
RTVSPost2010Prop34
280
     0
102
RTVSPost2010PropOp34
 70
     1
102
RTVSPost2010Prop35
280
     0
102
RTVSPost2010PropOp35
 70
     1
102
RTVSPost2010Prop36
280
     0
102
RTVSPost2010PropOp36
 70
     1
102
RTVSPost2010Prop37
 90
       50
102
RTVSPost2010PropOp37
 70
     1
102
RTVSPost2010Prop38
140
0.0
102
RTVSPost2010PropOp38
 70
     1
102
RTVSPost2010Prop39
140
1.0
102
RTVSPost2010PropOp39
 70
     1
102
RTVSPost2010Prop40
 90
        0
102
RTVSPost2010PropOp40
 70
     1
102
RTVSPost2010Prop41ColorIndex
 90
       18
102
RTVSPost2010Prop41ColorRGB
 90
        0
102
RTVSPost2010PropOp41
 70
     1
102
RTVSPost2010Prop42
 90
       50
102
RTVSPost2010PropOp42
 70
     1
102
RTVSPost2010Prop43
 90
        3
102
RTVSPost2010PropOp43
 70
     1
102
RTVSPost2010Prop44ColorIndex
 90
        5
102
RTVSPost2010Prop44ColorRGB
 90
      255
102
RTVSPost2010PropOp44
 70
     1
102
RTVSPost2010Prop45
280
     0
102
RTVSPost2010PropOp45
 70
     1
102
RTVSPost2010Prop46
 90
       50
102
RTVSPost2010PropOp46
 70
     1
102
RTVSPost2010Prop47
 90
       50
102
RTVSPost2010PropOp47
 70
     1
102
RTVSPost2010Prop48
 90
       50
102
RTVSPost2010PropOp48
 70
     1
102
RTVSPost2010Prop49
280
     0
102
RTVSPost2010PropOp49
 70
     1
102
RTVSPost2010Prop50
 90
       50
102
RTVSPost2010PropOp50
 70
     1
102
RTVSPost2010Prop51ColorIndex
 90
      256
102
RTVSPost2010Prop51ColorRGB
 90
-16777216
102
RTVSPost2010PropOp51
 70
     0
102
RTVSPost2010Prop52
140
1.0
102
RTVSPost2010PropOp52
 70
     0
102
RTVSPost2010Prop53
 90
        2
102
RTVSPost2010PropOp53
 70
     1
102
RTVSPost2010Prop54
  1
strokes_ogs.tif
102
RTVSPost2010PropOp54
 70
     1
102
RTVSPost2010Prop55
280
     0
102
RTVSPost2010PropOp55
 70
     1
102
RTVSPost2010Prop56
140
1.0
102
RTVSPost2010PropOp56
 70
     1
102
RTVSPost2010Prop57
140
1.0
102
RTVSPost2010PropOp57
 70
     1
  0
ENDSEC
  0
EOF
