  0
SECTION
  2
HEADER
  9
$ACADVER
  1
AC1014
  9
$ACADMAINTVER
 70
     9
  9
$DWGCODEPAGE
  3
ANSI_932
  9
$INSBASE
 10
0.0
 20
0.0
 30
0.0
  9
$EXTMIN
 10
0.0
 20
0.0
 30
0.0
  9
$EXTMAX
 10
420.0
 20
297.0
 30
0.0
  9
$LIMMIN
 10
0.0
 20
0.0
  9
$LIMMAX
 10
420.0
 20
297.0
  9
$ORTHOMODE
 70
     0
  9
$REGENMODE
 70
     1
  9
$FILLMODE
 70
     1
  9
$QTEXTMODE
 70
     0
  9
$MIRRTEXT
 70
     1
  9
$DRAGMODE
 70
     2
  9
$LTSCALE
 40
1.0
  9
$OSMODE
 70
    37
  9
$ATTMODE
 70
     1
  9
$TEXTSIZE
 40
0.2
  9
$TRACEWID
 40
0.05
  9
$TEXTSTYLE
  7
STYLE1
  9
$CLAYER
  8
0
  9
$CELTYPE
  6
BYLAYER
  9
$CECOLOR
 62
   256
  9
$CELTSCALE
 40
1.0
  9
$DELOBJ
 70
     1
  9
$DISPSILH
 70
     0
  9
$DIMSCALE
 40
1.0
  9
$DIMASZ
 40
4.0
  9
$DIMEXO
 40
1.0
  9
$DIMDLI
 40
10.0
  9
$DIMRND
 40
0.0
  9
$DIMDLE
 40
6.0
  9
$DIMEXE
 40
1.0
  9
$DIMTP
 40
0.0
  9
$DIMTM
 40
0.0
  9
$DIMTXT
 40
4.0
  9
$DIMCEN
 40
2.5
  9
$DIMTSZ
 40
0.0
  9
$DIMTOL
 70
     0
  9
$DIMLIM
 70
     0
  9
$DIMTIH
 70
     0
  9
$DIMTOH
 70
     0
  9
$DIMSE1
 70
     0
  9
$DIMSE2
 70
     0
  9
$DIMTAD
 70
     1
  9
$DIMZIN
 70
     8
  9
$DIMBLK
  1

  9
$DIMASO
 70
     1
  9
$DIMSHO
 70
     1
  9
$DIMPOST
  1

  9
$DIMAPOST
  1

  9
$DIMALT
 70
     0
  9
$DIMALTD
 70
     3
  9
$DIMALTF
 40
0.03937
  9
$DIMLFAC
 40
1.0
  9
$DIMTOFL
 70
     1
  9
$DIMTVP
 40
0.0
  9
$DIMTIX
 70
     0
  9
$DIMSOXD
 70
     0
  9
$DIMSAH
 70
     1
  9
$DIMBLK1
  1
FXTIP_ARROW_S
  9
$DIMBLK2
  1
FXTIP_ARROW_E
  9
$DIMSTYLE
  2
FXDIMINFO
  9
$DIMCLRD
 70
     7
  9
$DIMCLRE
 70
     7
  9
$DIMCLRT
 70
     7
  9
$DIMTFAC
 40
1.0
  9
$DIMGAP
 40
1.0
  9
$DIMJUST
 70
     0
  9
$DIMSD1
 70
     0
  9
$DIMSD2
 70
     0
  9
$DIMTOLJ
 70
     0
  9
$DIMTZIN
 70
     8
  9
$DIMALTZ
 70
     0
  9
$DIMALTTZ
 70
     0
  9
$DIMFIT
 70
     3
  9
$DIMUPT
 70
     0
  9
$DIMUNIT
 70
     2
  9
$DIMDEC
 70
     2
  9
$DIMTDEC
 70
     2
  9
$DIMALTU
 70
     2
  9
$DIMALTTD
 70
     3
  9
$DIMTXSTY
  7
STYLE1
  9
$DIMAUNIT
 70
     0
  9
$LUNITS
 70
     2
  9
$LUPREC
 70
     4
  9
$SKETCHINC
 40
0.1
  9
$FILLETRAD
 40
0.5
  9
$AUNITS
 70
     0
  9
$AUPREC
 70
     0
  9
$MENU
  1
.
  9
$ELEVATION
 40
0.0
  9
$PELEVATION
 40
0.0
  9
$THICKNESS
 40
0.0
  9
$LIMCHECK
 70
     0
  9
$CHAMFERA
 40
0.5
  9
$CHAMFERB
 40
0.5
  9
$CHAMFERC
 40
1.0
  9
$CHAMFERD
 40
0.0
  9
$SKPOLY
 70
     0
  9
$TDCREATE
 40
2455307.589539445
  9
$TDUPDATE
 40
2455307.589539456
  9
$TDINDWG
 40
0.0000000116
  9
$TDUSRTIMER
 40
0.0000000116
  9
$USRTIMER
 70
     1
  9
$ANGBASE
 50
0.0
  9
$ANGDIR
 70
     0
  9
$PDMODE
 70
     0
  9
$PDSIZE
 40
0.0
  9
$PLINEWID
 40
0.0
  9
$COORDS
 70
     1
  9
$SPLFRAME
 70
     0
  9
$SPLINETYPE
 70
     6
  9
$SPLINESEGS
 70
     8
  9
$ATTDIA
 70
     0
  9
$ATTREQ
 70
     1
  9
$HANDLING
 70
     1
  9
$HANDSEED
  5
3C7
  9
$SURFTAB1
 70
     6
  9
$SURFTAB2
 70
     6
  9
$SURFTYPE
 70
     6
  9
$SURFU
 70
     6
  9
$SURFV
 70
     6
  9
$UCSNAME
  2

  9
$UCSORG
 10
0.0
 20
0.0
 30
0.0
  9
$UCSXDIR
 10
1.0
 20
0.0
 30
0.0
  9
$UCSYDIR
 10
0.0
 20
1.0
 30
0.0
  9
$PUCSNAME
  2

  9
$PUCSORG
 10
0.0
 20
0.0
 30
0.0
  9
$PUCSXDIR
 10
1.0
 20
0.0
 30
0.0
  9
$PUCSYDIR
 10
0.0
 20
1.0
 30
0.0
  9
$USERI1
 70
     0
  9
$USERI2
 70
     0
  9
$USERI3
 70
     0
  9
$USERI4
 70
     0
  9
$USERI5
 70
     0
  9
$USERR1
 40
0.0
  9
$USERR2
 40
0.0
  9
$USERR3
 40
0.0
  9
$USERR4
 40
0.0
  9
$USERR5
 40
0.0
  9
$WORLDVIEW
 70
     1
  9
$SHADEDGE
 70
     3
  9
$SHADEDIF
 70
    70
  9
$TILEMODE
 70
     1
  9
$MAXACTVP
 70
    64
  9
$PINSBASE
 10
0.0
 20
0.0
 30
0.0
  9
$PLIMCHECK
 70
     0
  9
$PEXTMIN
 10
1.000000E+20
 20
1.000000E+20
 30
1.000000E+20
  9
$PEXTMAX
 10
-1.000000E+20
 20
-1.000000E+20
 30
-1.000000E+20
  9
$PLIMMIN
 10
0.0
 20
0.0
  9
$PLIMMAX
 10
12.0
 20
9.0
  9
$UNITMODE
 70
     0
  9
$VISRETAIN
 70
     1
  9
$PLINEGEN
 70
     0
  9
$PSLTSCALE
 70
     1
  9
$TREEDEPTH
 70
  3020
  9
$PICKSTYLE
 70
     1
  9
$CMLSTYLE
  2
STANDARD
  9
$CMLJUST
 70
     0
  9
$CMLSCALE
 40
1.0
  9
$PROXYGRAPHICS
 70
     1
  9
$MEASUREMENT
 70
     0
  0
ENDSEC
  0
SECTION
  2
CLASSES
  0
CLASS
  1
ACDBDICTIONARYWDFLT
  2
AcDbDictionaryWithDefault
  3
ObjectDBX Classes
 90
        0
280
     0
281
     0
  0
CLASS
  1
XRECORD
  2
AcDbXrecord
  3
AutoCAD 2000
 90
        0
280
     0
281
     0
  0
CLASS
  1
LWPOLYLINE
  2
AcDbPolyline
  3
AutoCAD 2000
 90
        0
280
     0
281
     1
  0
CLASS
  1
HATCH
  2
AcDbHatch
  3
AutoCAD 2000
 90
        0
280
     0
281
     1
  0
CLASS
  1
ACDBPLACEHOLDER
  2
AcDbPlaceHolder
  3
ObjectDBX Classes
 90
        0
280
     0
281
     0
  0
CLASS
  1
LAYOUT
  2
AcDbLayout
  3
ObjectDBX Classes
 90
        0
280
     0
281
     0
  0
ENDSEC
  0
SECTION
  2
TABLES
  0
TABLE
  2
VPORT
  5
8
330
0
100
AcDbSymbolTable
 70
     1
  0
VPORT
  5
29
330
8
100
AcDbSymbolTableRecord
100
AcDbViewportTableRecord
  2
*ACTIVE
 70
     0
 10
0.0
 20
0.0
 11
1.0
 21
1.0
 12
210.0
 22
148.5
 13
0.0
 23
0.0
 14
0.5
 24
0.5
 15
0.5
 25
0.5
 16
0.0
 26
0.0
 36
1.0
 17
0.0
 27
0.0
 37
0.0
 40
297.0
 41
1.414141
 42
50.0
 43
0.0
 44
0.0
 50
0.0
 51
0.0
 71
     0
 72
   100
 73
     1
 74
     3
 75
     0
 76
     0
 77
     0
 78
     0
  0
ENDTAB
  0
TABLE
  2
LTYPE
  5
5
330
0
100
AcDbSymbolTable
 70
     4
  0
LTYPE
  5
14
330
5
100
AcDbSymbolTableRecord
100
AcDbLinetypeTableRecord
  2
BYBLOCK
 70
     0
  3

 72
    65
 73
     0
 40
0.0
  0
LTYPE
  5
15
330
5
100
AcDbSymbolTableRecord
100
AcDbLinetypeTableRecord
  2
BYLAYER
 70
     0
  3

 72
    65
 73
     0
 40
0.0
  0
LTYPE
  5
16
330
5
100
AcDbSymbolTableRecord
100
AcDbLinetypeTableRecord
  2
CONTINUOUS
 70
     0
  3
--------------------
 72
    65
 73
     0
 40
0.0
  0
LTYPE
  5
2A
330
5
100
AcDbSymbolTableRecord
100
AcDbLinetypeTableRecord
  2
CENTER
 70
     0
  3
Center ____ _ ____ _ ____ _ ____ _ ____ _ ____
 72
    65
 73
     4
 40
13.0
 49
10.0
 74
     0
 49
-1.0
 74
     0
 49
1.0
 74
     0
 49
-1.0
 74
     0
  0
ENDTAB
  0
TABLE
  2
LAYER
  5
2
330
0
100
AcDbSymbolTable
 70
    20
  0
LAYER
  5
10
330
2
100
AcDbSymbolTableRecord
100
AcDbLayerTableRecord
  2
0
 70
     0
 62
     7
  6
CONTINUOUS
  0
LAYER
  5
2D
330
2
100
AcDbSymbolTableRecord
100
AcDbLayerTableRecord
  2
LAYERGROUP-1
 70
     0
 62
     3
  6
CONTINUOUS
  0
LAYER
  5
3D
330
2
100
AcDbSymbolTableRecord
100
AcDbLayerTableRecord
  2
}}ﾊﾊGG血CCТ
 70
     0
 62
     3
  6
CONTINUOUS
  0
LAYER
  5
A8
330
2
100
AcDbSymbolTableRecord
100
AcDbLayerTableRecord
  2
GR1-1
 70
     0
 62
     7
  6
CONTINUOUS
  0
LAYER
  5
239
330
2
100
AcDbSymbolTableRecord
100
AcDbLayerTableRecord
  2
0-1
 70
     0
 62
     7
  6
CONTINUOUS
  0
ENDTAB
  0
TABLE
  2
STYLE
  5
3
330
0
100
AcDbSymbolTable
 70
     4
  0
STYLE
  5
11
330
3
100
AcDbSymbolTableRecord
100
AcDbTextStyleTableRecord
  2
STANDARD
 70
     0
 40
0.0
 41
1.0
 50
0.0
 71
     0
 42
0.2
  3
txt
  4

  0
STYLE
  5
3F
330
3
100
AcDbSymbolTableRecord
100
AcDbTextStyleTableRecord
  2
STYLE1
 70
     0
 40
0.0
 41
1.0
 50
0.0
 71
     0
 42
0.2
  3
MONOTXT.SHX
  4
extfont.shx
  0
STYLE
  5
40
330
3
100
AcDbSymbolTableRecord
100
AcDbTextStyleTableRecord
  2
FX_VECTOR
 70
     0
 40
0.0
 41
1.0
 50
0.0
 71
     0
 42
0.2
  3
MONOTXT.SHX
  4
BIGFONT.SHX
  0
ENDTAB
  0
TABLE
  2
VIEW
  5
6
330
0
100
AcDbSymbolTable
 70
     0
  0
ENDTAB
  0
TABLE
  2
UCS
  5
7
330
0
100
AcDbSymbolTable
 70
     0
  0
ENDTAB
  0
TABLE
  2
APPID
  5
9
330
0
100
AcDbSymbolTable
 70
     1
  0
APPID
  5
12
330
9
100
AcDbSymbolTableRecord
100
AcDbRegAppTableRecord
  2
ACAD
 70
     0
  0
ENDTAB
  0
TABLE
  2
DIMSTYLE
  5
A
330
0
100
AcDbSymbolTable
 70
     2
  0
DIMSTYLE
105
27
330
A
100
AcDbSymbolTableRecord
100
AcDbDimStyleTableRecord
  2
STANDARD
 70
     0
  3

  4

  5

  6

  7

 40
1.0
 41
0.18
 42
0.0625
 43
0.38
 44
0.18
 45
0.0
 46
0.0
 47
0.0
 48
0.0
140
0.18
141
0.09
142
0.0
143
25.4
144
1.0
145
0.0
146
1.0
147
0.09
 71
     0
 72
     0
 73
     1
 74
     1
 75
     0
 76
     0
 77
     0
 78
     0
170
     0
171
     2
172
     0
173
     0
174
     0
175
     0
176
     0
177
     0
178
     0
270
     2
271
     4
272
     4
273
     2
274
     2
340
11
275
     0
280
     0
281
     0
282
     0
283
     1
284
     0
285
     0
286
     0
287
     3
288
     0
  0
DIMSTYLE
105
A7
330
A
100
AcDbSymbolTableRecord
100
AcDbDimStyleTableRecord
  2
FXDIMINFO
 70
     0
  3

  4

  5

  6
FXTIP_ARROW_S
  7
FXTIP_ARROW_E
 40
1.0
 41
4.0
 42
1.0
 43
10.0
 44
1.0
 45
0.0
 46
6.0
 47
0.0
 48
0.0
140
4.0
141
2.5
142
0.0
143
0.03937
144
1.0
145
0.0
146
1.0
147
1.0
 71
     0
 72
     0
 73
     0
 74
     0
 75
     0
 76
     0
 77
     1
 78
     8
170
     0
171
     3
172
     1
173
     1
174
     0
175
     0
176
     7
177
     7
178
     7
179
     2
270
     2
271
     2
272
     2
273
     2
274
     3
340
3F
275
     0
280
     0
281
     0
282
     0
283
     0
284
     8
285
     0
286
     0
287
     3
288
     0
  0
ENDTAB
  0
TABLE
  2
BLOCK_RECORD
  5
1
330
0
100
AcDbSymbolTable
 70
    19
  0
BLOCK_RECORD
  5
1F
330
1
100
AcDbSymbolTableRecord
100
AcDbBlockTableRecord
  2
*MODEL_SPACE
  0
BLOCK_RECORD
  5
1B
330
1
100
AcDbSymbolTableRecord
100
AcDbBlockTableRecord
  2
*PAPER_SPACE
  0
BLOCK_RECORD
  5
41
330
1
100
AcDbSymbolTableRecord
100
AcDbBlockTableRecord
  2
FXTIP_ARROW_S
  0
BLOCK_RECORD
  5
47
330
1
100
AcDbSymbolTableRecord
100
AcDbBlockTableRecord
  2
FXTIP_ARROW_E
  0
BLOCK_RECORD
  5
4D
330
1
100
AcDbSymbolTableRecord
100
AcDbBlockTableRecord
  2
FXTIP_BLACKDOT_S
  0
BLOCK_RECORD
  5
53
330
1
100
AcDbSymbolTableRecord
100
AcDbBlockTableRecord
  2
FXTIP_BLACKDOT_E
  0
BLOCK_RECORD
  5
59
330
1
100
AcDbSymbolTableRecord
100
AcDbBlockTableRecord
  2
FXTIP_TRIANGLE_S
  0
BLOCK_RECORD
  5
60
330
1
100
AcDbSymbolTableRecord
100
AcDbBlockTableRecord
  2
FXTIP_TRIANGLE_E
  0
BLOCK_RECORD
  5
67
330
1
100
AcDbSymbolTableRecord
100
AcDbBlockTableRecord
  2
FXTIP_ARCHITECT_S
  0
BLOCK_RECORD
  5
6D
330
1
100
AcDbSymbolTableRecord
100
AcDbBlockTableRecord
  2
FXTIP_ARCHITECT_E
  0
BLOCK_RECORD
  5
73
330
1
100
AcDbSymbolTableRecord
100
AcDbBlockTableRecord
  2
FXTIP_CIVIL_S
  0
BLOCK_RECORD
  5
79
330
1
100
AcDbSymbolTableRecord
100
AcDbBlockTableRecord
  2
FXTIP_CIVIL_E
  0
BLOCK_RECORD
  5
7F
330
1
100
AcDbSymbolTableRecord
100
AcDbBlockTableRecord
  2
FXTIP_WHITEDOT_S
  0
BLOCK_RECORD
  5
84
330
1
100
AcDbSymbolTableRecord
100
AcDbBlockTableRecord
  2
FXTIP_WHITEDOT_E
  0
BLOCK_RECORD
  5
89
330
1
100
AcDbSymbolTableRecord
100
AcDbBlockTableRecord
  2
FXTIP_UPARROW_S
  0
BLOCK_RECORD
  5
8E
330
1
100
AcDbSymbolTableRecord
100
AcDbBlockTableRecord
  2
FXTIP_UPARROW_E
  0
BLOCK_RECORD
  5
93
330
1
100
AcDbSymbolTableRecord
100
AcDbBlockTableRecord
  2
FXTIP_DOWNARROW_S
  0
BLOCK_RECORD
  5
98
330
1
100
AcDbSymbolTableRecord
100
AcDbBlockTableRecord
  2
FXTIP_DOWNARROW_E
  0
BLOCK_RECORD
  5
9D
330
1
100
AcDbSymbolTableRecord
100
AcDbBlockTableRecord
  2
FXTIP_BLACKTRIANGLE_S
  0
BLOCK_RECORD
  5
A2
330
1
100
AcDbSymbolTableRecord
100
AcDbBlockTableRecord
  2
FXTIP_BLACKTRIANGLE_E
  0
ENDTAB
  0
ENDSEC
  0
SECTION
  2
BLOCKS
  0
BLOCK
  5
20
330
1F
100
AcDbEntity
  8
0
100
AcDbBlockBegin
  2
*MODEL_SPACE
 70
     0
 71
     0
 10
0.0
 20
0.0
 30
0.0
  3
*MODEL_SPACE
  1

  0
ENDBLK
  5
21
330
1F
100
AcDbEntity
  8
0
100
AcDbBlockEnd
  0
BLOCK
  5
1C
330
1B
100
AcDbEntity
 67
     1
  8
0
100
AcDbBlockBegin
  2
*PAPER_SPACE
 70
     0
 71
     0
 10
0.0
 20
0.0
 30
0.0
  3
*PAPER_SPACE
  1

  0
ENDBLK
  5
1D
330
1B
100
AcDbEntity
 67
     1
  8
0
100
AcDbBlockEnd
  0
BLOCK
  5
42
330
41
100
AcDbEntity
  8
0
100
AcDbBlockBegin
  2
FXTIP_ARROW_S
 70
     0
 71
     0
 10
0.0
 20
0.0
 30
0.0
  3
FXTIP_ARROW_S
  1

  0
LINE
  5
44
330
41
100
AcDbEntity
  8
0
  6
CONTINUOUS
 62
     0
100
AcDbLine
 10
0.0
 20
0.0
 30
0.0
 11
-1.0
 21
0.0
 31
0.0
  0
LINE
  5
45
330
41
100
AcDbEntity
  8
0
  6
CONTINUOUS
 62
     0
100
AcDbLine
 10
0.0
 20
0.0
 30
0.0
 11
-0.965926
 21
-0.258819
 31
0.0
  0
LINE
  5
46
330
41
100
AcDbEntity
  8
0
  6
CONTINUOUS
 62
     0
100
AcDbLine
 10
0.0
 20
0.0
 30
0.0
 11
-0.965926
 21
0.258819
 31
0.0
  0
ENDBLK
  5
43
330
41
100
AcDbEntity
  8
0
100
AcDbBlockEnd
  0
BLOCK
  5
48
330
47
100
AcDbEntity
  8
0
100
AcDbBlockBegin
  2
FXTIP_ARROW_E
 70
     0
 71
     0
 10
0.0
 20
0.0
 30
0.0
  3
FXTIP_ARROW_E
  1

  0
LINE
  5
4A
330
47
100
AcDbEntity
  8
0
  6
CONTINUOUS
 62
     0
100
AcDbLine
 10
0.0
 20
0.0
 30
0.0
 11
-1.0
 21
0.0
 31
0.0
  0
LINE
  5
4B
330
47
100
AcDbEntity
  8
0
  6
CONTINUOUS
 62
     0
100
AcDbLine
 10
0.0
 20
0.0
 30
0.0
 11
-0.965926
 21
0.258819
 31
0.0
  0
LINE
  5
4C
330
47
100
AcDbEntity
  8
0
  6
CONTINUOUS
 62
     0
100
AcDbLine
 10
0.0
 20
0.0
 30
0.0
 11
-0.965926
 21
-0.258819
 31
0.0
  0
ENDBLK
  5
49
330
47
100
AcDbEntity
  8
0
100
AcDbBlockEnd
  0
BLOCK
  5
4E
330
4D
100
AcDbEntity
  8
0
100
AcDbBlockBegin
  2
FXTIP_BLACKDOT_S
 70
     0
 71
     0
 10
0.0
 20
0.0
 30
0.0
  3
FXTIP_BLACKDOT_S
  1

  0
LINE
  5
50
330
4D
100
AcDbEntity
  8
0
  6
CONTINUOUS
 62
     0
100
AcDbLine
 10
0.0
 20
0.0
 30
0.0
 11
-1.0
 21
0.0
 31
0.0
  0
LWPOLYLINE
  5
51
330
4D
100
AcDbEntity
  8
0
  6
CONTINUOUS
 62
     0
100
AcDbPolyline
 90
        2
 70
     1
 10
-0.25
 20
0.0
 40
0.5
 41
0.5
 42
1.0
 10
0.25
 20
0.0
 40
0.5
 41
0.5
 42
1.0
  0
CIRCLE
  5
52
330
4D
100
AcDbEntity
  8
0
  6
CONTINUOUS
 62
     0
100
AcDbCircle
 10
0.0
 20
0.0
 30
0.0
 40
0.5
  0
ENDBLK
  5
4F
330
4D
100
AcDbEntity
  8
0
100
AcDbBlockEnd
  0
BLOCK
  5
54
330
53
100
AcDbEntity
  8
0
100
AcDbBlockBegin
  2
FXTIP_BLACKDOT_E
 70
     0
 71
     0
 10
0.0
 20
0.0
 30
0.0
  3
FXTIP_BLACKDOT_E
  1

  0
LINE
  5
56
330
53
100
AcDbEntity
  8
0
  6
CONTINUOUS
 62
     0
100
AcDbLine
 10
0.0
 20
0.0
 30
0.0
 11
-1.0
 21
0.0
 31
0.0
  0
LWPOLYLINE
  5
57
330
53
100
AcDbEntity
  8
0
  6
CONTINUOUS
 62
     0
100
AcDbPolyline
 90
        2
 70
     1
 10
-0.25
 20
0.0
 40
0.5
 41
0.5
 42
1.0
 10
0.25
 20
0.0
 40
0.5
 41
0.5
 42
1.0
  0
CIRCLE
  5
58
330
53
100
AcDbEntity
  8
0
  6
CONTINUOUS
 62
     0
100
AcDbCircle
 10
0.0
 20
0.0
 30
0.0
 40
0.5
  0
ENDBLK
  5
55
330
53
100
AcDbEntity
  8
0
100
AcDbBlockEnd
  0
BLOCK
  5
5A
330
59
100
AcDbEntity
  8
0
100
AcDbBlockBegin
  2
FXTIP_TRIANGLE_S
 70
     0
 71
     0
 10
0.0
 20
0.0
 30
0.0
  3
FXTIP_TRIANGLE_S
  1

  0
LINE
  5
5C
330
59
100
AcDbEntity
  8
0
  6
CONTINUOUS
 62
     0
100
AcDbLine
 10
0.0
 20
0.0
 30
0.0
 11
-1.0
 21
0.0
 31
0.0
  0
LINE
  5
5D
330
59
100
AcDbEntity
  8
0
  6
CONTINUOUS
 62
     0
100
AcDbLine
 10
0.0
 20
0.0
 30
0.0
 11
-0.965926
 21
-0.258819
 31
0.0
  0
LINE
  5
5E
330
59
100
AcDbEntity
  8
0
  6
CONTINUOUS
 62
     0
100
AcDbLine
 10
0.0
 20
0.0
 30
0.0
 11
-0.965926
 21
0.258819
 31
0.0
  0
LINE
  5
5F
330
59
100
AcDbEntity
  8
0
  6
CONTINUOUS
 62
     0
100
AcDbLine
 10
-0.965926
 20
-0.258819
 30
0.0
 11
-0.965926
 21
0.258819
 31
0.0
  0
ENDBLK
  5
5B
330
59
100
AcDbEntity
  8
0
100
AcDbBlockEnd
  0
BLOCK
  5
61
330
60
100
AcDbEntity
  8
0
100
AcDbBlockBegin
  2
FXTIP_TRIANGLE_E
 70
     0
 71
     0
 10
0.0
 20
0.0
 30
0.0
  3
FXTIP_TRIANGLE_E
  1

  0
LINE
  5
63
330
60
100
AcDbEntity
  8
0
  6
CONTINUOUS
 62
     0
100
AcDbLine
 10
0.0
 20
0.0
 30
0.0
 11
-1.0
 21
0.0
 31
0.0
  0
LINE
  5
64
330
60
100
AcDbEntity
  8
0
  6
CONTINUOUS
 62
     0
100
AcDbLine
 10
0.0
 20
0.0
 30
0.0
 11
-0.965926
 21
0.258819
 31
0.0
  0
LINE
  5
65
330
60
100
AcDbEntity
  8
0
  6
CONTINUOUS
 62
     0
100
AcDbLine
 10
0.0
 20
0.0
 30
0.0
 11
-0.965926
 21
-0.258819
 31
0.0
  0
LINE
  5
66
330
60
100
AcDbEntity
  8
0
  6
CONTINUOUS
 62
     0
100
AcDbLine
 10
-0.965926
 20
0.258819
 30
0.0
 11
-0.965926
 21
-0.258819
 31
0.0
  0
ENDBLK
  5
62
330
60
100
AcDbEntity
  8
0
100
AcDbBlockEnd
  0
BLOCK
  5
68
330
67
100
AcDbEntity
  8
0
100
AcDbBlockBegin
  2
FXTIP_ARCHITECT_S
 70
     0
 71
     0
 10
0.0
 20
0.0
 30
0.0
  3
FXTIP_ARCHITECT_S
  1

  0
LINE
  5
6A
330
67
100
AcDbEntity
  8
0
  6
CONTINUOUS
 62
     0
100
AcDbLine
 10
0.0
 20
0.0
 30
0.0
 11
-1.0
 21
0.0
 31
0.0
  0
LINE
  5
6B
330
67
100
AcDbEntity
  8
0
  6
CONTINUOUS
 62
     0
100
AcDbLine
 10
0.0
 20
0.0
 30
0.0
 11
-0.707107
 21
-0.707107
 31
0.0
  0
LINE
  5
6C
330
67
100
AcDbEntity
  8
0
  6
CONTINUOUS
 62
     0
100
AcDbLine
 10
0.0
 20
0.0
 30
0.0
 11
0.707107
 21
0.707107
 31
0.0
  0
ENDBLK
  5
69
330
67
100
AcDbEntity
  8
0
100
AcDbBlockEnd
  0
BLOCK
  5
6E
330
6D
100
AcDbEntity
  8
0
100
AcDbBlockBegin
  2
FXTIP_ARCHITECT_E
 70
     0
 71
     0
 10
0.0
 20
0.0
 30
0.0
  3
FXTIP_ARCHITECT_E
  1

  0
LINE
  5
70
330
6D
100
AcDbEntity
  8
0
  6
CONTINUOUS
 62
     0
100
AcDbLine
 10
0.0
 20
0.0
 30
0.0
 11
-1.0
 21
0.0
 31
0.0
  0
LINE
  5
71
330
6D
100
AcDbEntity
  8
0
  6
CONTINUOUS
 62
     0
100
AcDbLine
 10
0.0
 20
0.0
 30
0.0
 11
0.707107
 21
0.707107
 31
0.0
  0
LINE
  5
72
330
6D
100
AcDbEntity
  8
0
  6
CONTINUOUS
 62
     0
100
AcDbLine
 10
0.0
 20
0.0
 30
0.0
 11
-0.707107
 21
-0.707107
 31
0.0
  0
ENDBLK
  5
6F
330
6D
100
AcDbEntity
  8
0
100
AcDbBlockEnd
  0
BLOCK
  5
74
330
73
100
AcDbEntity
  8
0
100
AcDbBlockBegin
  2
FXTIP_CIVIL_S
 70
     0
 71
     0
 10
0.0
 20
0.0
 30
0.0
  3
FXTIP_CIVIL_S
  1

  0
LINE
  5
76
330
73
100
AcDbEntity
  8
0
  6
CONTINUOUS
 62
     0
100
AcDbLine
 10
0.0
 20
0.0
 30
0.0
 11
-1.0
 21
0.0
 31
0.0
  0
LINE
  5
77
330
73
100
AcDbEntity
  8
0
  6
CONTINUOUS
 62
     0
100
AcDbLine
 10
0.0
 20
-0.0625
 30
0.0
 11
-1.0
 21
-0.0625
 31
0.0
  0
LINE
  5
78
330
73
100
AcDbEntity
  8
0
  6
CONTINUOUS
 62
     0
100
AcDbLine
 10
0.0
 20
-0.125
 30
0.0
 11
-1.0
 21
-0.125
 31
0.0
  0
ENDBLK
  5
75
330
73
100
AcDbEntity
  8
0
100
AcDbBlockEnd
  0
BLOCK
  5
7A
330
79
100
AcDbEntity
  8
0
100
AcDbBlockBegin
  2
FXTIP_CIVIL_E
 70
     0
 71
     0
 10
0.0
 20
0.0
 30
0.0
  3
FXTIP_CIVIL_E
  1

  0
LINE
  5
7C
330
79
100
AcDbEntity
  8
0
  6
CONTINUOUS
 62
     0
100
AcDbLine
 10
0.0
 20
0.0
 30
0.0
 11
-1.0
 21
0.0
 31
0.0
  0
LINE
  5
7D
330
79
100
AcDbEntity
  8
0
  6
CONTINUOUS
 62
     0
100
AcDbLine
 10
0.0
 20
0.0625
 30
0.0
 11
-1.0
 21
0.0625
 31
0.0
  0
LINE
  5
7E
330
79
100
AcDbEntity
  8
0
  6
CONTINUOUS
 62
     0
100
AcDbLine
 10
0.0
 20
0.125
 30
0.0
 11
-1.0
 21
0.125
 31
0.0
  0
ENDBLK
  5
7B
330
79
100
AcDbEntity
  8
0
100
AcDbBlockEnd
  0
BLOCK
  5
80
330
7F
100
AcDbEntity
  8
0
100
AcDbBlockBegin
  2
FXTIP_WHITEDOT_S
 70
     0
 71
     0
 10
0.0
 20
0.0
 30
0.0
  3
FXTIP_WHITEDOT_S
  1

  0
LINE
  5
82
330
7F
100
AcDbEntity
  8
0
  6
CONTINUOUS
 62
     0
100
AcDbLine
 10
0.0
 20
0.0
 30
0.0
 11
-1.0
 21
0.0
 31
0.0
  0
CIRCLE
  5
83
330
7F
100
AcDbEntity
  8
0
  6
CONTINUOUS
 62
     0
100
AcDbCircle
 10
0.0
 20
0.0
 30
0.0
 40
0.5
  0
ENDBLK
  5
81
330
7F
100
AcDbEntity
  8
0
100
AcDbBlockEnd
  0
BLOCK
  5
85
330
84
100
AcDbEntity
  8
0
100
AcDbBlockBegin
  2
FXTIP_WHITEDOT_E
 70
     0
 71
     0
 10
0.0
 20
0.0
 30
0.0
  3
FXTIP_WHITEDOT_E
  1

  0
LINE
  5
87
330
84
100
AcDbEntity
  8
0
  6
CONTINUOUS
 62
     0
100
AcDbLine
 10
0.0
 20
0.0
 30
0.0
 11
-1.0
 21
0.0
 31
0.0
  0
CIRCLE
  5
88
330
84
100
AcDbEntity
  8
0
  6
CONTINUOUS
 62
     0
100
AcDbCircle
 10
0.0
 20
0.0
 30
0.0
 40
0.5
  0
ENDBLK
  5
86
330
84
100
AcDbEntity
  8
0
100
AcDbBlockEnd
  0
BLOCK
  5
8A
330
89
100
AcDbEntity
  8
0
100
AcDbBlockBegin
  2
FXTIP_UPARROW_S
 70
     0
 71
     0
 10
0.0
 20
0.0
 30
0.0
  3
FXTIP_UPARROW_S
  1

  0
LINE
  5
8C
330
89
100
AcDbEntity
  8
0
  6
CONTINUOUS
 62
     0
100
AcDbLine
 10
0.0
 20
0.0
 30
0.0
 11
-1.0
 21
0.0
 31
0.0
  0
LINE
  5
8D
330
89
100
AcDbEntity
  8
0
  6
CONTINUOUS
 62
     0
100
AcDbLine
 10
0.0
 20
0.0
 30
0.0
 11
-0.965926
 21
-0.258819
 31
0.0
  0
ENDBLK
  5
8B
330
89
100
AcDbEntity
  8
0
100
AcDbBlockEnd
  0
BLOCK
  5
8F
330
8E
100
AcDbEntity
  8
0
100
AcDbBlockBegin
  2
FXTIP_UPARROW_E
 70
     0
 71
     0
 10
0.0
 20
0.0
 30
0.0
  3
FXTIP_UPARROW_E
  1

  0
LINE
  5
91
330
8E
100
AcDbEntity
  8
0
  6
CONTINUOUS
 62
     0
100
AcDbLine
 10
0.0
 20
0.0
 30
0.0
 11
-1.0
 21
0.0
 31
0.0
  0
LINE
  5
92
330
8E
100
AcDbEntity
  8
0
  6
CONTINUOUS
 62
     0
100
AcDbLine
 10
0.0
 20
0.0
 30
0.0
 11
-0.965926
 21
0.258819
 31
0.0
  0
ENDBLK
  5
90
330
8E
100
AcDbEntity
  8
0
100
AcDbBlockEnd
  0
BLOCK
  5
94
330
93
100
AcDbEntity
  8
0
100
AcDbBlockBegin
  2
FXTIP_DOWNARROW_S
 70
     0
 71
     0
 10
0.0
 20
0.0
 30
0.0
  3
FXTIP_DOWNARROW_S
  1

  0
LINE
  5
96
330
93
100
AcDbEntity
  8
0
  6
CONTINUOUS
 62
     0
100
AcDbLine
 10
0.0
 20
0.0
 30
0.0
 11
-1.0
 21
0.0
 31
0.0
  0
LINE
  5
97
330
93
100
AcDbEntity
  8
0
  6
CONTINUOUS
 62
     0
100
AcDbLine
 10
0.0
 20
0.0
 30
0.0
 11
-0.965926
 21
0.258819
 31
0.0
  0
ENDBLK
  5
95
330
93
100
AcDbEntity
  8
0
100
AcDbBlockEnd
  0
BLOCK
  5
99
330
98
100
AcDbEntity
  8
0
100
AcDbBlockBegin
  2
FXTIP_DOWNARROW_E
 70
     0
 71
     0
 10
0.0
 20
0.0
 30
0.0
  3
FXTIP_DOWNARROW_E
  1

  0
LINE
  5
9B
330
98
100
AcDbEntity
  8
0
  6
CONTINUOUS
 62
     0
100
AcDbLine
 10
0.0
 20
0.0
 30
0.0
 11
-1.0
 21
0.0
 31
0.0
  0
LINE
  5
9C
330
98
100
AcDbEntity
  8
0
  6
CONTINUOUS
 62
     0
100
AcDbLine
 10
0.0
 20
0.0
 30
0.0
 11
-0.965926
 21
-0.258819
 31
0.0
  0
ENDBLK
  5
9A
330
98
100
AcDbEntity
  8
0
100
AcDbBlockEnd
  0
BLOCK
  5
9E
330
9D
100
AcDbEntity
  8
0
100
AcDbBlockBegin
  2
FXTIP_BLACKTRIANGLE_S
 70
     0
 71
     0
 10
0.0
 20
0.0
 30
0.0
  3
FXTIP_BLACKTRIANGLE_S
  1

  0
LINE
  5
A0
330
9D
100
AcDbEntity
  8
0
  6
CONTINUOUS
 62
     0
100
AcDbLine
 10
0.0
 20
0.0
 30
0.0
 11
-1.0
 21
0.0
 31
0.0
  0
SOLID
  5
A1
330
9D
100
AcDbEntity
  8
0
  6
CONTINUOUS
 62
     0
100
AcDbTrace
 10
0.0
 20
0.0
 30
0.0
 11
-0.965926
 21
-0.258819
 31
0.0
 12
-0.965926
 22
0.258819
 32
0.0
 13
-0.965926
 23
0.258819
 33
0.0
  0
ENDBLK
  5
9F
330
9D
100
AcDbEntity
  8
0
100
AcDbBlockEnd
  0
BLOCK
  5
A3
330
A2
100
AcDbEntity
  8
0
100
AcDbBlockBegin
  2
FXTIP_BLACKTRIANGLE_E
 70
     0
 71
     0
 10
0.0
 20
0.0
 30
0.0
  3
FXTIP_BLACKTRIANGLE_E
  1

  0
LINE
  5
A5
330
A2
100
AcDbEntity
  8
0
  6
CONTINUOUS
 62
     0
100
AcDbLine
 10
0.0
 20
0.0
 30
0.0
 11
-1.0
 21
0.0
 31
0.0
  0
SOLID
  5
A6
330
A2
100
AcDbEntity
  8
0
  6
CONTINUOUS
 62
     0
100
AcDbTrace
 10
0.0
 20
0.0
 30
0.0
 11
-0.965926
 21
0.258819
 31
0.0
 12
-0.965926
 22
-0.258819
 32
0.0
 13
-0.965926
 23
-0.258819
 33
0.0
  0
ENDBLK
  5
A4
330
A2
100
AcDbEntity
  8
0
100
AcDbBlockEnd
  0
ENDSEC
  0
SECTION
  2
ENTITIES
  0
LINE
  5
A9
330
1F
100
AcDbEntity
  8
GR1-1
  6
CONTINUOUS
 62
     3
100
AcDbLine
 10
229.23227
 20
247.1
 30
0.0
 11
251.23227
 21
247.1
 31
0.0
  0
ARC
  5
AA
330
1F
100
AcDbEntity
  8
GR1-1
  6
CONTINUOUS
 62
     3
100
AcDbCircle
 10
251.23227
 20
254.1
 30
0.0
 40
7.0
100
AcDbArc
 50
270.0
 51
322.616802
  0
ARC
  5
AB
330
1F
100
AcDbEntity
  8
GR1-1
  6
CONTINUOUS
 62
     3
100
AcDbCircle
 10
262.356567
 20
245.6
 30
0.0
 40
7.0
100
AcDbArc
 50
90.0
 51
142.616802
  0
LINE
  5
AC
330
1F
100
AcDbEntity
  8
GR1-1
  6
CONTINUOUS
 62
     3
100
AcDbLine
 10
262.356567
 20
252.6
 30
0.0
 11
267.73227
 21
252.6
 31
0.0
  0
LINE
  5
AD
330
1F
100
AcDbEntity
  8
GR1-1
  6
CONTINUOUS
 62
     3
100
AcDbLine
 10
267.73227
 20
252.6
 30
0.0
 11
268.085823
 21
252.246447
 31
0.0
  0
ARC
  5
AE
330
1F
100
AcDbEntity
  8
GR1-1
  6
CONTINUOUS
 62
     3
100
AcDbCircle
 10
268.439376
 20
252.6
 30
0.0
 40
0.5
100
AcDbArc
 50
225.0
 51
270.0
  0
LINE
  5
AF
330
1F
100
AcDbEntity
  8
GR1-1
  6
CONTINUOUS
 62
     3
100
AcDbLine
 10
268.439376
 20
252.1
 30
0.0
 11
270.73227
 21
252.1
 31
0.0
  0
LINE
  5
B0
330
1F
100
AcDbEntity
  8
GR1-1
  6
CONTINUOUS
 62
     3
100
AcDbLine
 10
275.23227
 20
247.6
 30
0.0
 11
275.23227
 21
209.4
 31
0.0
  0
CIRCLE
  5
B1
330
1F
100
AcDbEntity
  8
GR1-1
  6
CONTINUOUS
 62
     3
100
AcDbCircle
 10
267.73227
 20
214.5
 30
0.0
 40
4.4
  0
CIRCLE
  5
B2
330
1F
100
AcDbEntity
  8
GR1-1
  6
CONTINUOUS
 62
     3
100
AcDbCircle
 10
267.73227
 20
242.5
 30
0.0
 40
4.4
  0
ARC
  5
B3
330
1F
100
AcDbEntity
  8
GR1-1
  6
CONTINUOUS
 62
     3
100
AcDbCircle
 10
270.73227
 20
247.6
 30
0.0
 40
4.5
100
AcDbArc
 50
0.0
 51
90.0
  0
ARC
  5
B4
330
1F
100
AcDbEntity
  8
GR1-1
  6
CONTINUOUS
 62
     3
100
AcDbCircle
 10
218.107972
 20
245.6
 30
0.0
 40
7.0
100
AcDbArc
 50
37.383198
 51
90.0
  0
LINE
  5
B5
330
1F
100
AcDbEntity
  8
GR1-1
  6
CONTINUOUS
 62
     3
100
AcDbLine
 10
218.107972
 20
252.6
 30
0.0
 11
212.73227
 21
252.6
 31
0.0
  0
LINE
  5
B6
330
1F
100
AcDbEntity
  8
GR1-1
  6
CONTINUOUS
 62
     3
100
AcDbLine
 10
212.73227
 20
252.6
 30
0.0
 11
212.378716
 21
252.246447
 31
0.0
  0
LINE
  5
B7
330
1F
100
AcDbEntity
  8
GR1-1
  6
CONTINUOUS
 62
     3
100
AcDbLine
 10
212.025163
 20
252.1
 30
0.0
 11
209.73227
 21
252.1
 31
0.0
  0
ARC
  5
B8
330
1F
100
AcDbEntity
  8
GR1-1
  6
CONTINUOUS
 62
     3
100
AcDbCircle
 10
209.73227
 20
247.6
 30
0.0
 40
4.5
100
AcDbArc
 50
90.0
 51
180.0
  0
LINE
  5
B9
330
1F
100
AcDbEntity
  8
GR1-1
  6
CONTINUOUS
 62
     3
100
AcDbLine
 10
205.23227
 20
247.6
 30
0.0
 11
205.23227
 21
209.4
 31
0.0
  0
ARC
  5
BA
330
1F
100
AcDbEntity
  8
GR1-1
  6
CONTINUOUS
 62
     3
100
AcDbCircle
 10
209.73227
 20
209.4
 30
0.0
 40
4.5
100
AcDbArc
 50
180.0
 51
270.0
  0
LINE
  5
BB
330
1F
100
AcDbEntity
  8
GR1-1
  6
CONTINUOUS
 62
     3
100
AcDbLine
 10
209.73227
 20
204.9
 30
0.0
 11
212.025163
 21
204.9
 31
0.0
  0
ARC
  5
BC
330
1F
100
AcDbEntity
  8
GR1-1
  6
CONTINUOUS
 62
     3
100
AcDbCircle
 10
212.025163
 20
204.4
 30
0.0
 40
0.5
100
AcDbArc
 50
45.0
 51
90.0
  0
LINE
  5
BD
330
1F
100
AcDbEntity
  8
GR1-1
  6
CONTINUOUS
 62
     3
100
AcDbLine
 10
212.378716
 20
204.753553
 30
0.0
 11
212.73227
 21
204.4
 31
0.0
  0
LINE
  5
BE
330
1F
100
AcDbEntity
  8
GR1-1
  6
CONTINUOUS
 62
     3
100
AcDbLine
 10
212.73227
 20
204.4
 30
0.0
 11
218.107972
 21
204.4
 31
0.0
  0
ARC
  5
BF
330
1F
100
AcDbEntity
  8
GR1-1
  6
CONTINUOUS
 62
     3
100
AcDbCircle
 10
218.107972
 20
211.4
 30
0.0
 40
7.0
100
AcDbArc
 50
270.0
 51
322.616802
  0
LINE
  5
C0
330
1F
100
AcDbEntity
  8
GR1-1
  6
CONTINUOUS
 62
     3
100
AcDbLine
 10
229.23227
 20
209.9
 30
0.0
 11
251.23227
 21
209.9
 31
0.0
  0
ARC
  5
C1
330
1F
100
AcDbEntity
  8
GR1-1
  6
CONTINUOUS
 62
     3
100
AcDbCircle
 10
229.23227
 20
202.9
 30
0.0
 40
7.0
100
AcDbArc
 50
90.0
 51
142.616802
  0
CIRCLE
  5
C2
330
1F
100
AcDbEntity
  8
GR1-1
  6
CONTINUOUS
 62
     3
100
AcDbCircle
 10
212.73227
 20
214.5
 30
0.0
 40
4.4
  0
CIRCLE
  5
C3
330
1F
100
AcDbEntity
  8
GR1-1
  6
CONTINUOUS
 62
     3
100
AcDbCircle
 10
212.73227
 20
242.5
 30
0.0
 40
4.4
  0
ARC
  5
C4
330
1F
100
AcDbEntity
  8
GR1-1
  6
CONTINUOUS
 62
     3
100
AcDbCircle
 10
229.23227
 20
254.1
 30
0.0
 40
7.0
100
AcDbArc
 50
217.383198
 51
270.0
  0
ARC
  5
C5
330
1F
100
AcDbEntity
  8
GR1-1
  6
CONTINUOUS
 62
     3
100
AcDbCircle
 10
212.025163
 20
252.6
 30
0.0
 40
0.5
100
AcDbArc
 50
270.0
 51
315.0
  0
ARC
  5
C6
330
1F
100
AcDbEntity
  8
GR1-1
  6
CONTINUOUS
 62
     3
100
AcDbCircle
 10
262.356567
 20
211.4
 30
0.0
 40
7.0
100
AcDbArc
 50
217.383198
 51
270.0
  0
LINE
  5
C7
330
1F
100
AcDbEntity
  8
GR1-1
  6
CONTINUOUS
 62
     3
100
AcDbLine
 10
262.356567
 20
204.4
 30
0.0
 11
267.73227
 21
204.4
 31
0.0
  0
LINE
  5
C8
330
1F
100
AcDbEntity
  8
GR1-1
  6
CONTINUOUS
 62
     3
100
AcDbLine
 10
267.73227
 20
204.4
 30
0.0
 11
268.085823
 21
204.753553
 31
0.0
  0
LINE
  5
C9
330
1F
100
AcDbEntity
  8
GR1-1
  6
CONTINUOUS
 62
     3
100
AcDbLine
 10
268.439376
 20
204.9
 30
0.0
 11
270.73227
 21
204.9
 31
0.0
  0
ARC
  5
CA
330
1F
100
AcDbEntity
  8
GR1-1
  6
CONTINUOUS
 62
     3
100
AcDbCircle
 10
270.73227
 20
209.4
 30
0.0
 40
4.5
100
AcDbArc
 50
270.0
 51
360.0
  0
ARC
  5
CB
330
1F
100
AcDbEntity
  8
GR1-1
  6
CONTINUOUS
 62
     3
100
AcDbCircle
 10
268.439376
 20
204.4
 30
0.0
 40
0.5
100
AcDbArc
 50
90.0
 51
135.0
  0
ARC
  5
CC
330
1F
100
AcDbEntity
  8
GR1-1
  6
CONTINUOUS
 62
     3
100
AcDbCircle
 10
251.23227
 20
202.9
 30
0.0
 40
7.0
100
AcDbArc
 50
37.383198
 51
90.0
  0
LINE
  5
CD
330
1F
100
AcDbEntity
  8
GR1-1
  6
CONTINUOUS
 62
     3
100
AcDbLine
 10
257.79367
 20
148.5
 30
0.0
 11
275.23227
 21
148.5
 31
0.0
  0
LINE
  5
CE
330
1F
100
AcDbEntity
  8
GR1-1
  6
CONTINUOUS
 62
     3
100
AcDbLine
 10
275.23227
 20
148.5
 30
0.0
 11
275.23227
 21
146.5
 31
0.0
  0
LINE
  5
CF
330
1F
100
AcDbEntity
  8
GR1-1
  6
CONTINUOUS
 62
     3
100
AcDbLine
 10
275.23227
 20
146.5
 30
0.0
 11
270.745583
 21
146.5
 31
0.0
  0
LINE
  5
D0
330
1F
100
AcDbEntity
  8
GR1-1
  6
CONTINUOUS
 62
     3
100
AcDbLine
 10
268.679928
 20
145.675562
 30
0.0
 11
266.177127
 21
143.299198
 31
0.0
  0
ARC
  5
D1
330
1F
100
AcDbEntity
  8
GR1-1
  6
CONTINUOUS
 62
     3
100
AcDbCircle
 10
364.651877
 20
96.840775
 30
0.0
 40
108.9270880885072
100
AcDbArc
 50
154.927636
 51
168.14288
  0
ARC
  5
D2
330
1F
100
AcDbEntity
  8
GR1-1
  6
CONTINUOUS
 62
     3
100
AcDbCircle
 10
176.219998
 20
132.280897
 30
0.0
 40
82.85025564289923
100
AcDbArc
 50
344.758104
 51
350.933385
  0
LINE
  5
D3
330
1F
100
AcDbEntity
  8
GR1-1
  6
CONTINUOUS
 62
     3
100
AcDbLine
 10
256.155956
 20
110.5
 30
0.0
 11
249.803805
 21
89.504191
 31
0.0
  0
LINE
  5
D4
330
1F
100
AcDbEntity
  8
GR1-1
  6
CONTINUOUS
 62
     3
100
AcDbLine
 10
230.660734
 20
89.504191
 30
0.0
 11
224.308583
 21
110.5
 31
0.0
  0
ARC
  5
D5
330
1F
100
AcDbEntity
  8
GR1-1
  6
CONTINUOUS
 62
     3
100
AcDbCircle
 10
171.929303
 20
115.783137
 30
0.0
 40
50.61729442315149
100
AcDbArc
 50
3.899142
 51
29.86116
  0
LINE
  5
D6
330
1F
100
AcDbEntity
  8
GR1-1
  6
CONTINUOUS
 62
     3
100
AcDbLine
 10
205.23227
 20
148.5
 30
0.0
 11
222.670869
 21
148.5
 31
0.0
  0
LINE
  5
D7
330
1F
100
AcDbEntity
  8
GR1-1
  6
CONTINUOUS
 62
     3
100
AcDbLine
 10
226.174519
 20
147.370774
 30
0.0
 11
227.887103
 21
147.811045
 31
0.0
  0
LINE
  5
D8
330
1F
100
AcDbEntity
  8
GR1-1
  6
CONTINUOUS
 62
     3
100
AcDbLine
 10
226.657577
 20
147.0
 30
0.0
 11
226.358401
 21
147.233087
 31
0.0
  0
ARC
  5
D9
330
1F
100
AcDbEntity
  8
GR1-1
  6
CONTINUOUS
 62
     3
100
AcDbCircle
 10
222.670869
 20
142.5
 30
0.0
 40
6.0
100
AcDbArc
 50
52.077971
 51
90.0
  0
LINE
  5
DA
330
1F
100
AcDbEntity
  8
GR1-1
  6
CONTINUOUS
 62
     3
100
AcDbLine
 10
229.381008
 20
148.0
 30
0.0
 11
251.083531
 21
148.0
 31
0.0
  0
ARC
  5
DB
330
1F
100
AcDbEntity
  8
GR1-1
  6
CONTINUOUS
 62
     3
100
AcDbCircle
 10
251.083531
 20
142.0
 30
0.0
 40
6.0
100
AcDbArc
 50
75.582593
 51
90.0
  0
LINE
  5
DC
330
1F
100
AcDbEntity
  8
GR1-1
  6
CONTINUOUS
 62
     3
100
AcDbLine
 10
252.577436
 20
147.811045
 30
0.0
 11
254.29002
 21
147.370774
 31
0.0
  0
LINE
  5
DD
330
1F
100
AcDbEntity
  8
GR1-1
  6
CONTINUOUS
 62
     3
100
AcDbLine
 10
254.106139
 20
147.233087
 30
0.0
 11
253.806962
 21
147.0
 31
0.0
  0
ARC
  5
DE
330
1F
100
AcDbEntity
  8
GR1-1
  6
CONTINUOUS
 62
     3
100
AcDbCircle
 10
257.79367
 20
142.5
 30
0.0
 40
6.0
100
AcDbArc
 50
90.0
 51
127.922029
  0
ARC
  5
DF
330
1F
100
AcDbEntity
  8
GR1-1
  6
CONTINUOUS
 62
     3
100
AcDbCircle
 10
224.632474
 20
169.263725
 30
0.0
 40
48.99096658245985
100
AcDbArc
 50
324.74522
 51
333.156219
  0
ARC
  5
E0
330
1F
100
AcDbEntity
  8
GR1-1
  6
CONTINUOUS
 62
     3
100
AcDbCircle
 10
270.855367
 20
145.5
 30
0.0
 40
3.0
100
AcDbArc
 50
90.0
 51
146.829656
  0
ARC
  5
E1
330
1F
100
AcDbEntity
  8
GR1-1
  6
CONTINUOUS
 62
     3
100
AcDbCircle
 10
308.535236
 20
115.783137
 30
0.0
 40
50.61729442315149
100
AcDbArc
 50
150.13884
 51
176.100858
  0
ARC
  5
E2
330
1F
100
AcDbEntity
  8
GR1-1
  6
CONTINUOUS
 62
     3
100
AcDbCircle
 10
304.244541
 20
132.280897
 30
0.0
 40
82.85025564289923
100
AcDbArc
 50
189.066615
 51
195.241896
  0
ARC
  5
E3
330
1F
100
AcDbEntity
  8
GR1-1
  6
CONTINUOUS
 62
     3
100
AcDbCircle
 10
115.812662
 20
96.840775
 30
0.0
 40
108.9270880885072
100
AcDbArc
 50
11.85712
 51
25.072364
  0
ARC
  5
E4
330
1F
100
AcDbEntity
  8
GR1-1
  6
CONTINUOUS
 62
     3
100
AcDbCircle
 10
255.832065
 20
169.263725
 30
0.0
 40
48.99096658245985
100
AcDbArc
 50
206.843781
 51
215.25478
  0
ARC
  5
E5
330
1F
100
AcDbEntity
  8
GR1-1
  6
CONTINUOUS
 62
     3
100
AcDbCircle
 10
229.381008
 20
142.0
 30
0.0
 40
6.0
100
AcDbArc
 50
90.0
 51
104.417407
  0
ARC
  5
E6
330
1F
100
AcDbEntity
  8
GR1-1
  6
CONTINUOUS
 62
     3
100
AcDbCircle
 10
240.23227
 20
93.0
 30
0.0
 40
37.49999999999997
100
AcDbArc
 50
-239.122874
 51
59.122874
  0
ARC
  5
E7
330
1F
100
AcDbEntity
  8
GR1-1
  6
CONTINUOUS
 62
     3
100
AcDbCircle
 10
240.23227
 20
92.4
 30
0.0
 40
10.0
100
AcDbArc
 50
196.832864
 51
343.167136
  0
LINE
  5
E8
330
1F
100
AcDbEntity
  8
GR1-1
  6
CONTINUOUS
 62
     3
100
AcDbLine
 10
156.323291
 20
82.4
 30
0.0
 11
154.323291
 21
82.4
 31
0.0
  0
LINE
  5
E9
330
1F
100
AcDbEntity
  8
GR1-1
  6
CONTINUOUS
 62
     3
100
AcDbLine
 10
154.323291
 20
82.4
 30
0.0
 11
154.323291
 21
143.7
 31
0.0
  0
ARC
  5
EA
330
1F
100
AcDbEntity
  8
GR1-1
  6
CONTINUOUS
 62
     3
100
AcDbCircle
 10
153.323291
 20
143.7
 30
0.0
 40
1.0
100
AcDbArc
 50
0.0
 51
90.0
  0
LINE
  5
EB
330
1F
100
AcDbEntity
  8
GR1-1
  6
CONTINUOUS
 62
     3
100
AcDbLine
 10
153.323291
 20
144.7
 30
0.0
 11
122.723291
 21
144.7
 31
0.0
  0
LINE
  5
EC
330
1F
100
AcDbEntity
  8
GR1-1
  6
CONTINUOUS
 62
     3
100
AcDbLine
 10
119.723291
 20
82.4
 30
0.0
 11
119.723291
 21
106.644349
 31
0.0
  0
ARC
  5
ED
330
1F
100
AcDbEntity
  8
GR1-1
  6
CONTINUOUS
 62
     3
100
AcDbCircle
 10
47.855972
 20
105.330788
 30
0.0
 40
71.87932238530509
100
AcDbArc
 50
1.047112
 51
6.722859
  0
ARC
  5
EE
330
1F
100
AcDbEntity
  8
GR1-1
  6
CONTINUOUS
 62
     3
100
AcDbCircle
 10
61.303399
 20
104.024257
 30
0.0
 40
58.74754495780596
100
AcDbArc
 50
9.524805
 51
20.406445
  0
LINE
  5
EF
330
1F
100
AcDbEntity
  8
GR1-1
  6
CONTINUOUS
 62
     3
100
AcDbLine
 10
162.023291
 20
134.5
 30
0.0
 11
162.023291
 21
144.5
 31
0.0
  0
ARC
  5
F0
330
1F
100
AcDbEntity
  8
GR1-1
  6
CONTINUOUS
 62
     3
100
AcDbCircle
 10
158.023291
 20
144.5
 30
0.0
 40
4.0
100
AcDbArc
 50
0.0
 51
90.0
  0
LINE
  5
F1
330
1F
100
AcDbEntity
  8
GR1-1
  6
CONTINUOUS
 62
     3
100
AcDbLine
 10
158.023291
 20
148.5
 30
0.0
 11
118.023291
 21
148.5
 31
0.0
  0
ARC
  5
F2
330
1F
100
AcDbEntity
  8
GR1-1
  6
CONTINUOUS
 62
     3
100
AcDbCircle
 10
118.023291
 20
144.5
 30
0.0
 40
4.0
100
AcDbArc
 50
90.0
 51
180.0
  0
LINE
  5
F3
330
1F
100
AcDbEntity
  8
GR1-1
  6
CONTINUOUS
 62
     3
100
AcDbLine
 10
114.023291
 20
144.5
 30
0.0
 11
114.023291
 21
134.5
 31
0.0
  0
ARC
  5
F4
330
1F
100
AcDbEntity
  8
GR1-1
  6
CONTINUOUS
 62
     3
100
AcDbCircle
 10
158.19073
 20
139.577195
 30
0.0
 40
44.45830159704676
100
AcDbArc
 50
186.557559
 51
199.812712
  0
LINE
  5
F5
330
1F
100
AcDbEntity
  8
GR1-1
  6
CONTINUOUS
 62
     3
100
AcDbLine
 10
156.323291
 20
82.4
 30
0.0
 11
156.323291
 21
106.644349
 31
0.0
  0
ARC
  5
F6
330
1F
100
AcDbEntity
  8
GR1-1
  6
CONTINUOUS
 62
     3
100
AcDbCircle
 10
228.19061
 20
105.330788
 30
0.0
 40
71.87932238530509
100
AcDbArc
 50
173.277141
 51
178.952888
  0
ARC
  5
F7
330
1F
100
AcDbEntity
  8
GR1-1
  6
CONTINUOUS
 62
     3
100
AcDbCircle
 10
214.743183
 20
104.024257
 30
0.0
 40
58.74754495780596
100
AcDbArc
 50
159.593555
 51
170.475195
  0
ARC
  5
F8
330
1F
100
AcDbEntity
  8
GR1-1
  6
CONTINUOUS
 62
     3
100
AcDbCircle
 10
117.855852
 20
139.577195
 30
0.0
 40
44.45830159704676
100
AcDbArc
 50
340.187288
 51
353.442441
  0
LINE
  5
F9
330
1F
100
AcDbEntity
  8
GR1-1
  6
CENTER
 62
     6
100
AcDbLine
 10
114.442625
 20
93.0
 30
0.0
 11
161.076383
 21
93.0
 31
0.0
  0
LINE
  5
FA
330
1F
100
AcDbEntity
  8
GR1-1
  6
CENTER
 62
     6
100
AcDbLine
 10
200.610688
 20
93.0
 30
0.0
 11
279.78203
 21
93.0
 31
0.0
  0
LINE
  5
FB
330
1F
100
AcDbEntity
  8
GR1-1
  6
CONTINUOUS
 62
     6
100
AcDbLine
 10
253.806962
 20
112.5
 30
0.0
 11
253.806962
 21
144.5
 31
0.0
  0
LINE
  5
FC
330
1F
100
AcDbEntity
  8
GR1-1
  6
CENTER
 62
     6
100
AcDbLine
 10
240.23227
 20
151.184498
 30
0.0
 11
240.23227
 21
51.579086
 31
0.0
  0
LINE
  5
FD
330
1F
100
AcDbEntity
  8
GR1-1
  6
CONTINUOUS
 62
     6
100
AcDbLine
 10
226.657577
 20
112.5
 30
0.0
 11
226.657577
 21
144.5
 31
0.0
  0
LINE
  5
FE
330
1F
100
AcDbEntity
  8
GR1-1
  6
CENTER
 62
     6
100
AcDbLine
 10
240.23227
 20
205.369797
 30
0.0
 11
240.23227
 21
252.651923
 31
0.0
  0
ARC
  5
FF
330
1F
100
AcDbEntity
  8
GR1-1
  6
CONTINUOUS
 62
     6
100
AcDbCircle
 10
248.23227
 20
228.5
 30
0.0
 40
26.5
100
AcDbArc
 50
137.731942
 51
222.268058
  0
ARC
  5
100
330
1F
100
AcDbEntity
  8
GR1-1
  6
CONTINUOUS
 62
     6
100
AcDbCircle
 10
229.23227
 20
202.9
 30
0.0
 40
7.8
100
AcDbArc
 50
94.48661
 51
109.274166
  0
LINE
  5
101
330
1F
100
AcDbEntity
  8
GR1-1
  6
CONTINUOUS
 62
     6
100
AcDbLine
 10
220.73227
 20
214.5
 30
0.0
 11
215.73227
 21
214.5
 31
0.0
  0
LINE
  5
102
330
1F
100
AcDbEntity
  8
GR1-1
  6
CONTINUOUS
 62
     6
100
AcDbLine
 10
214.23227
 20
214.5
 30
0.0
 11
211.23227
 21
214.5
 31
0.0
  0
LINE
  5
103
330
1F
100
AcDbEntity
  8
GR1-1
  6
CONTINUOUS
 62
     6
100
AcDbLine
 10
209.73227
 20
214.5
 30
0.0
 11
204.73227
 21
214.5
 31
0.0
  0
LINE
  5
104
330
1F
100
AcDbEntity
  8
GR1-1
  6
CONTINUOUS
 62
     6
100
AcDbLine
 10
212.73227
 20
216.0
 30
0.0
 11
212.73227
 21
213.0
 31
0.0
  0
LINE
  5
105
330
1F
100
AcDbEntity
  8
GR1-1
  6
CONTINUOUS
 62
     6
100
AcDbLine
 10
212.73227
 20
211.5
 30
0.0
 11
212.73227
 21
206.5
 31
0.0
  0
LINE
  5
106
330
1F
100
AcDbEntity
  8
GR1-1
  6
CONTINUOUS
 62
     6
100
AcDbLine
 10
212.73227
 20
217.5
 30
0.0
 11
212.73227
 21
222.5
 31
0.0
  0
LINE
  5
107
330
1F
100
AcDbEntity
  8
GR1-1
  6
CONTINUOUS
 62
     6
100
AcDbLine
 10
212.092228
 20
227.509854
 30
0.0
 11
216.332113
 21
226.910185
 31
0.0
  0
LINE
  5
108
330
1F
100
AcDbEntity
  8
GR1-1
  6
CONTINUOUS
 62
     6
100
AcDbLine
 10
216.332113
 20
230.089815
 30
0.0
 11
212.092228
 21
229.490146
 31
0.0
  0
ARC
  5
109
330
1F
100
AcDbEntity
  8
GR1-1
  6
CONTINUOUS
 62
     6
100
AcDbCircle
 10
212.23227
 20
228.5
 30
0.0
 40
1.0
100
AcDbArc
 50
98.050254
 51
261.949746
  0
ARC
  5
10A
330
1F
100
AcDbEntity
  8
GR1-1
  6
CONTINUOUS
 62
     6
100
AcDbCircle
 10
215.631905
 20
235.040543
 30
0.0
 40
5.0
100
AcDbArc
 50
278.050254
 51
348.655478
  0
LINE
  5
10B
330
1F
100
AcDbEntity
  8
GR1-1
  6
CONTINUOUS
 62
     6
100
AcDbLine
 10
212.73227
 20
234.5
 30
0.0
 11
212.73227
 21
239.5
 31
0.0
  0
LINE
  5
10C
330
1F
100
AcDbEntity
  8
GR1-1
  6
CONTINUOUS
 62
     6
100
AcDbLine
 10
212.73227
 20
241.0
 30
0.0
 11
212.73227
 21
244.0
 31
0.0
  0
LINE
  5
10D
330
1F
100
AcDbEntity
  8
GR1-1
  6
CONTINUOUS
 62
     6
100
AcDbLine
 10
212.73227
 20
245.5
 30
0.0
 11
212.73227
 21
250.5
 31
0.0
  0
LINE
  5
10E
330
1F
100
AcDbEntity
  8
GR1-1
  6
CONTINUOUS
 62
     6
100
AcDbLine
 10
214.23227
 20
242.5
 30
0.0
 11
211.23227
 21
242.5
 31
0.0
  0
LINE
  5
10F
330
1F
100
AcDbEntity
  8
GR1-1
  6
CONTINUOUS
 62
     6
100
AcDbLine
 10
209.73227
 20
242.5
 30
0.0
 11
204.73227
 21
242.5
 31
0.0
  0
LINE
  5
110
330
1F
100
AcDbEntity
  8
GR1-1
  6
CONTINUOUS
 62
     6
100
AcDbLine
 10
215.73227
 20
242.5
 30
0.0
 11
220.73227
 21
242.5
 31
0.0
  0
ARC
  5
111
330
1F
100
AcDbEntity
  8
GR1-1
  6
CONTINUOUS
 62
     6
100
AcDbCircle
 10
248.23227
 20
228.5
 30
0.0
 40
28.25
100
AcDbArc
 50
139.792003
 51
168.655478
  0
ARC
  5
112
330
1F
100
AcDbEntity
  8
GR1-1
  6
CONTINUOUS
 62
     6
100
AcDbCircle
 10
215.631905
 20
221.959457
 30
0.0
 40
5.0
100
AcDbArc
 50
11.344522
 51
81.949746
  0
ARC
  5
113
330
1F
100
AcDbEntity
  8
GR1-1
  6
CONTINUOUS
 62
     6
100
AcDbCircle
 10
248.23227
 20
228.5
 30
0.0
 40
28.25
100
AcDbArc
 50
191.344522
 51
220.207997
  0
ARC
  5
114
330
1F
100
AcDbEntity
  8
GR1-1
  6
CONTINUOUS
 62
     6
100
AcDbCircle
 10
232.23227
 20
228.5
 30
0.0
 40
26.5
100
AcDbArc
 50
-42.268058
 51
42.268058
  0
ARC
  5
115
330
1F
100
AcDbEntity
  8
GR1-1
  6
CONTINUOUS
 62
     6
100
AcDbCircle
 10
251.23227
 20
254.1
 30
0.0
 40
7.8
100
AcDbArc
 50
274.48661
 51
289.274166
  0
LINE
  5
116
330
1F
100
AcDbEntity
  8
GR1-1
  6
CONTINUOUS
 62
     6
100
AcDbLine
 10
259.73227
 20
242.5
 30
0.0
 11
264.73227
 21
242.5
 31
0.0
  0
LINE
  5
117
330
1F
100
AcDbEntity
  8
GR1-1
  6
CONTINUOUS
 62
     6
100
AcDbLine
 10
266.23227
 20
242.5
 30
0.0
 11
269.23227
 21
242.5
 31
0.0
  0
LINE
  5
118
330
1F
100
AcDbEntity
  8
GR1-1
  6
CONTINUOUS
 62
     6
100
AcDbLine
 10
270.73227
 20
242.5
 30
0.0
 11
275.73227
 21
242.5
 31
0.0
  0
LINE
  5
119
330
1F
100
AcDbEntity
  8
GR1-1
  6
CONTINUOUS
 62
     6
100
AcDbLine
 10
267.73227
 20
241.0
 30
0.0
 11
267.73227
 21
244.0
 31
0.0
  0
LINE
  5
11A
330
1F
100
AcDbEntity
  8
GR1-1
  6
CONTINUOUS
 62
     6
100
AcDbLine
 10
267.73227
 20
245.5
 30
0.0
 11
267.73227
 21
250.5
 31
0.0
  0
LINE
  5
11B
330
1F
100
AcDbEntity
  8
GR1-1
  6
CONTINUOUS
 62
     6
100
AcDbLine
 10
267.73227
 20
239.5
 30
0.0
 11
267.73227
 21
234.5
 31
0.0
  0
LINE
  5
11C
330
1F
100
AcDbEntity
  8
GR1-1
  6
CONTINUOUS
 62
     6
100
AcDbLine
 10
268.372311
 20
229.490146
 30
0.0
 11
264.132427
 21
230.089815
 31
0.0
  0
ARC
  5
11D
330
1F
100
AcDbEntity
  8
GR1-1
  6
CONTINUOUS
 62
     6
100
AcDbCircle
 10
264.832635
 20
221.959457
 30
0.0
 40
5.0
100
AcDbArc
 50
98.050254
 51
168.655478
  0
LINE
  5
11E
330
1F
100
AcDbEntity
  8
GR1-1
  6
CONTINUOUS
 62
     6
100
AcDbLine
 10
264.132427
 20
226.910185
 30
0.0
 11
268.372311
 21
227.509854
 31
0.0
  0
ARC
  5
11F
330
1F
100
AcDbEntity
  8
GR1-1
  6
CONTINUOUS
 62
     6
100
AcDbCircle
 10
268.23227
 20
228.5
 30
0.0
 40
1.0
100
AcDbArc
 50
-81.949746
 51
81.949746
  0
LINE
  5
120
330
1F
100
AcDbEntity
  8
GR1-1
  6
CONTINUOUS
 62
     6
100
AcDbLine
 10
267.73227
 20
222.5
 30
0.0
 11
267.73227
 21
217.5
 31
0.0
  0
LINE
  5
121
330
1F
100
AcDbEntity
  8
GR1-1
  6
CONTINUOUS
 62
     6
100
AcDbLine
 10
267.73227
 20
216.0
 30
0.0
 11
267.73227
 21
213.0
 31
0.0
  0
LINE
  5
122
330
1F
100
AcDbEntity
  8
GR1-1
  6
CONTINUOUS
 62
     6
100
AcDbLine
 10
267.73227
 20
211.5
 30
0.0
 11
267.73227
 21
206.5
 31
0.0
  0
LINE
  5
123
330
1F
100
AcDbEntity
  8
GR1-1
  6
CONTINUOUS
 62
     6
100
AcDbLine
 10
269.23227
 20
214.5
 30
0.0
 11
266.23227
 21
214.5
 31
0.0
  0
LINE
  5
124
330
1F
100
AcDbEntity
  8
GR1-1
  6
CONTINUOUS
 62
     6
100
AcDbLine
 10
264.73227
 20
214.5
 30
0.0
 11
259.73227
 21
214.5
 31
0.0
  0
ARC
  5
125
330
1F
100
AcDbEntity
  8
GR1-1
  6
CONTINUOUS
 62
     6
100
AcDbCircle
 10
251.23227
 20
202.9
 30
0.0
 40
7.8
100
AcDbArc
 50
70.725834
 51
85.51339
  0
ARC
  5
126
330
1F
100
AcDbEntity
  8
GR1-1
  6
CONTINUOUS
 62
     6
100
AcDbCircle
 10
232.23227
 20
228.5
 30
0.0
 40
28.25
100
AcDbArc
 50
319.792003
 51
348.655478
  0
ARC
  5
127
330
1F
100
AcDbEntity
  8
GR1-1
  6
CONTINUOUS
 62
     6
100
AcDbCircle
 10
264.832635
 20
235.040543
 30
0.0
 40
5.0
100
AcDbArc
 50
191.344522
 51
261.949746
  0
ARC
  5
128
330
1F
100
AcDbEntity
  8
GR1-1
  6
CONTINUOUS
 62
     6
100
AcDbCircle
 10
232.23227
 20
228.5
 30
0.0
 40
28.25
100
AcDbArc
 50
11.344522
 51
40.207997
  0
ARC
  5
129
330
1F
100
AcDbEntity
  8
GR1-1
  6
CONTINUOUS
 62
     6
100
AcDbCircle
 10
229.23227
 20
254.1
 30
0.0
 40
7.8
100
AcDbArc
 50
250.725834
 51
265.51339
  0
LINE
  5
12A
330
1F
100
AcDbEntity
  8
GR1-1
  6
CENTER
 62
     6
100
AcDbLine
 10
200.623793
 20
228.5
 30
0.0
 11
280.205846
 21
228.5
 31
0.0
  0
LINE
  5
12B
330
1F
100
AcDbEntity
  8
GR1-1
  6
CONTINUOUS
 62
     6
100
AcDbLine
 10
275.73227
 20
214.5
 30
0.0
 11
270.73227
 21
214.5
 31
0.0
  0
LINE
  5
12C
330
1F
100
AcDbEntity
  8
GR1-1
  6
CENTER
 62
     6
100
AcDbLine
 10
138.023291
 20
150.694135
 30
0.0
 11
138.023291
 21
53.775364
 31
0.0
  0
TEXT
  5
12D
330
1F
100
AcDbEntity
  8
GR1-1
  6
CONTINUOUS
 62
     7
100
AcDbText
 10
155.825577
 20
11.851581
 30
0.0
 40
6.0
  1
ＳＵＳ－ＳＫ－　７５　ＵＢ
 41
0.787879
  7
FX_VECTOR
 72
     5
 11
207.825577
 21
11.851581
 31
0.0
100
AcDbText
  0
ARC
  5
12E
330
1F
100
AcDbEntity
  8
GR1-1
  6
CONTINUOUS
 62
     3
100
AcDbCircle
 10
240.23227
 20
93.0
 30
0.0
 40
30.99999999999997
100
AcDbArc
 50
-235.231809
 51
55.231809
  0
TEXT
  5
12F
330
1F
100
AcDbEntity
  8
LAYERGROUP-1
  6
CONTINUOUS
 62
     7
100
AcDbText
 10
209.098755
 20
86.748161
 30
0.0
 40
3.909615
  1
D
 50
97.0
 41
1.476526
  7
FX_VECTOR
 72
     5
 11
208.495747
 21
91.659264
 31
0.0
100
AcDbText
  0
TEXT
  5
130
330
1F
100
AcDbEntity
  8
LAYERGROUP-1
  6
CONTINUOUS
 62
     7
100
AcDbText
 10
208.511108
 20
94.465752
 30
0.0
 40
3.909615
  1
C
 50
83.0
 41
1.476526
  7
FX_VECTOR
 72
     5
 11
209.114116
 21
99.376854
 31
0.0
100
AcDbText
  0
TEXT
  5
131
330
1F
100
AcDbEntity
  8
LAYERGROUP-1
  6
CONTINUOUS
 62
     7
100
AcDbText
 10
210.181122
 20
82.737907
 30
0.0
 40
3.909615
  1
L
 50
104.5
 41
1.661092
  7
FX_VECTOR
 72
     5
 11
208.942246
 21
87.528287
 31
0.0
100
AcDbText
  0
TEXT
  5
132
330
1F
100
AcDbEntity
  8
LAYERGROUP-1
  6
CONTINUOUS
 62
     7
100
AcDbText
 10
211.655762
 20
79.152092
 30
0.0
 40
3.909615
  1
O
 50
111.5
 41
1.398814
  7
FX_VECTOR
 72
     5
 11
209.842319
 21
83.755783
 31
0.0
100
AcDbText
  0
TEXT
  5
133
330
1F
100
AcDbEntity
  8
LAYERGROUP-1
  6
CONTINUOUS
 62
     7
100
AcDbText
 10
213.707764
 20
75.540581
 30
0.0
 40
3.909615
  1
G
 50
119.0
 41
1.476526
  7
FX_VECTOR
 72
     5
 11
211.308933
 21
79.868185
 31
0.0
100
AcDbText
  0
TEXT
  5
134
330
1F
100
AcDbEntity
  8
LAYERGROUP-1
  6
CONTINUOUS
 62
     7
100
AcDbText
 10
208.880951
 20
98.047264
 30
0.0
 40
3.909615
  1
A
 50
76.5
 41
1.563381
  7
FX_VECTOR
 72
     5
 11
210.036035
 21
102.858535
 31
0.0
100
AcDbText
  0
TEXT
  5
135
330
1F
100
AcDbEntity
  8
LAYERGROUP-1
  6
CONTINUOUS
 62
     7
100
AcDbText
 10
209.971344
 20
102.625847
 30
0.0
 40
3.909615
  1
S
 50
68.0
 41
1.563381
  7
FX_VECTOR
 72
     5
 11
211.824892
 21
107.213538
 31
0.0
100
AcDbText
  0
TEXT
  5
136
330
1F
100
AcDbEntity
  8
LAYERGROUP-1
  6
CONTINUOUS
 62
     7
100
AcDbText
 10
211.369995
 20
106.241997
 30
0.0
 40
3.909615
  1
T
 50
61.0
 41
1.771831
  7
FX_VECTOR
 72
     5
 11
213.768825
 21
110.569601
 31
0.0
100
AcDbText
  0
TEXT
  5
137
330
1F
100
AcDbEntity
  8
LAYERGROUP-1
  6
CONTINUOUS
 62
     7
100
AcDbText
 10
213.198914
 20
109.660698
 30
0.0
 40
3.909615
  1
E
 50
54.0
 41
1.563381
  7
FX_VECTOR
 72
     5
 11
216.107266
 21
113.663701
 31
0.0
100
AcDbText
  0
TEXT
  5
138
330
1F
100
AcDbEntity
  8
LAYERGROUP-1
  6
CONTINUOUS
 62
     7
100
AcDbText
 10
215.430847
 20
112.831047
 30
0.0
 40
3.909615
  1
R
 50
47.0
 41
1.476526
  7
FX_VECTOR
 72
     5
 11
218.805364
 21
116.449774
 31
0.0
100
AcDbText
  0
LINE
  5
139
330
1F
100
AcDbEntity
  8
GR1-1
  6
CONTINUOUS
 62
     3
100
AcDbLine
 10
218.203759
 20
69.798174
 30
0.0
 11
215.932189
 21
72.19191
 31
0.0
  0
LINE
  5
13A
330
1F
100
AcDbEntity
  8
GR1-1
  6
CONTINUOUS
 62
     3
100
AcDbLine
 10
215.932189
 20
72.19191
 30
0.0
 11
213.538453
 21
69.92034
 31
0.0
  0
LINE
  5
13B
330
1F
100
AcDbEntity
  8
GR1-1
  6
CONTINUOUS
 62
     3
100
AcDbLine
 10
213.538453
 20
69.92034
 30
0.0
 11
215.810023
 21
67.526604
 31
0.0
  0
LINE
  5
13C
330
1F
100
AcDbEntity
  8
GR1-1
  6
CONTINUOUS
 62
     3
100
AcDbLine
 10
215.810023
 20
67.526604
 30
0.0
 11
218.203759
 21
69.798174
 31
0.0
  0
LINE
  5
13D
330
1F
100
AcDbEntity
  8
GR1-1
  6
CONTINUOUS
 62
     3
100
AcDbLine
 10
216.941934
 20
68.730839
 30
0.0
 11
214.742688
 21
68.788429
 31
0.0
  0
LINE
  5
13E
330
1F
100
AcDbEntity
  8
GR1-1
  6
CONTINUOUS
 62
     3
100
AcDbLine
 10
214.742688
 20
68.788429
 30
0.0
 11
214.794169
 21
70.75441
 31
0.0
  0
LINE
  5
13F
330
1F
100
AcDbEntity
  8
GR1-1
  6
CONTINUOUS
 62
     3
100
AcDbLine
 10
214.794169
 20
70.75441
 30
0.0
 11
215.329583
 21
70.190201
 31
0.0
  0
LINE
  5
140
330
1F
100
AcDbEntity
  8
GR1-1
  6
CONTINUOUS
 62
     3
100
AcDbLine
 10
215.329583
 20
70.190201
 30
0.0
 11
215.306897
 21
69.323843
 31
0.0
  0
LINE
  5
141
330
1F
100
AcDbEntity
  8
GR1-1
  6
CONTINUOUS
 62
     3
100
AcDbLine
 10
215.306897
 20
69.323843
 30
0.0
 11
216.40652
 21
69.295048
 31
0.0
  0
LINE
  5
142
330
1F
100
AcDbEntity
  8
GR1-1
  6
CONTINUOUS
 62
     3
100
AcDbLine
 10
216.40652
 20
69.295048
 30
0.0
 11
216.435315
 21
70.394671
 31
0.0
  0
LINE
  5
143
330
1F
100
AcDbEntity
  8
GR1-1
  6
CONTINUOUS
 62
     3
100
AcDbLine
 10
216.435315
 20
70.394671
 30
0.0
 11
215.857203
 21
70.40981
 31
0.0
  0
ARC
  5
144
330
1F
100
AcDbEntity
  8
GR1-1
  6
CONTINUOUS
 62
     3
100
AcDbCircle
 10
215.855764
 20
70.354829
 30
0.0
 40
0.055
100
AcDbArc
 50
88.5
 51
223.5
  0
LINE
  5
145
330
1F
100
AcDbEntity
  8
GR1-1
  6
CONTINUOUS
 62
     3
100
AcDbLine
 10
215.815868
 20
70.316969
 30
0.0
 11
216.070584
 21
70.048555
 31
0.0
  0
LINE
  5
146
330
1F
100
AcDbEntity
  8
GR1-1
  6
CONTINUOUS
 62
     3
100
AcDbLine
 10
216.070584
 20
70.048555
 30
0.0
 11
215.871106
 21
69.859257
 31
0.0
  0
LINE
  5
147
330
1F
100
AcDbEntity
  8
GR1-1
  6
CONTINUOUS
 62
     3
100
AcDbLine
 10
215.871106
 20
69.859257
 30
0.0
 11
214.800278
 21
70.987675
 31
0.0
  0
LINE
  5
148
330
1F
100
AcDbEntity
  8
GR1-1
  6
CONTINUOUS
 62
     3
100
AcDbLine
 10
214.800278
 20
70.987675
 30
0.0
 11
215.607892
 21
71.754073
 31
0.0
  0
LINE
  5
149
330
1F
100
AcDbEntity
  8
GR1-1
  6
CONTINUOUS
 62
     3
100
AcDbLine
 10
215.607892
 20
71.754073
 30
0.0
 11
215.986487
 21
71.355117
 31
0.0
  0
LINE
  5
14A
330
1F
100
AcDbEntity
  8
GR1-1
  6
CONTINUOUS
 62
     3
100
AcDbLine
 10
215.986487
 20
71.355117
 30
0.0
 11
215.674145
 21
71.058715
 31
0.0
  0
ARC
  5
14B
330
1F
100
AcDbEntity
  8
GR1-1
  6
CONTINUOUS
 62
     3
100
AcDbCircle
 10
215.712004
 20
71.018819
 30
0.0
 40
0.055
100
AcDbArc
 50
133.5
 51
268.5
  0
LINE
  5
14C
330
1F
100
AcDbEntity
  8
GR1-1
  6
CONTINUOUS
 62
     3
100
AcDbLine
 10
215.710565
 20
70.963838
 30
0.0
 11
216.999524
 21
70.930086
 31
0.0
  0
LINE
  5
14D
330
1F
100
AcDbEntity
  8
GR1-1
  6
CONTINUOUS
 62
     3
100
AcDbLine
 10
216.999524
 20
70.930086
 30
0.0
 11
216.941934
 21
68.730839
 31
0.0
  0
TEXT
  5
14E
330
1F
100
AcDbEntity
  8
LAYERGROUP-1
  6
CONTINUOUS
 62
     7
100
AcDbText
 10
271.968811
 20
91.659264
 30
0.0
 40
3.909615
  1
2
 50
263.0
 41
1.563381
  7
FX_VECTOR
 72
     5
 11
271.365803
 21
86.748161
 31
0.0
100
AcDbText
  0
TEXT
  5
14F
330
1F
100
AcDbEntity
  8
LAYERGROUP-1
  6
CONTINUOUS
 62
     7
100
AcDbText
 10
271.350464
 20
99.376854
 30
0.0
 40
3.909615
  1
5
 50
277.0
 41
1.563381
  7
FX_VECTOR
 72
     5
 11
271.953471
 21
94.465751
 31
0.0
100
AcDbText
  0
TEXT
  5
150
330
1F
100
AcDbEntity
  8
LAYERGROUP-1
  6
CONTINUOUS
 62
     7
100
AcDbText
 10
270.513428
 20
102.594658
 30
0.0
 40
3.909615
  1
7
 50
283.0
 41
1.563381
  7
FX_VECTOR
 72
     5
 11
271.626482
 21
97.77349
 31
0.0
100
AcDbText
  0
TEXT
  5
151
330
1F
100
AcDbEntity
  8
LAYERGROUP-1
  6
CONTINUOUS
 62
     7
100
AcDbText
 10
271.522308
 20
87.528282
 30
0.0
 40
3.909615
  1
5
 50
255.5
 41
1.563381
  7
FX_VECTOR
 72
     5
 11
270.283432
 21
82.737903
 31
0.0
100
AcDbText
  0
TEXT
  5
152
330
1F
100
AcDbEntity
  8
LAYERGROUP-1
  6
CONTINUOUS
 62
     7
100
AcDbText
 10
271.89566
 20
95.53698
 30
0.0
 40
3.909615
  1
X
 50
270.0
 41
1.563381
  7
FX_VECTOR
 72
     5
 11
271.89566
 21
90.588995
 31
0.0
100
AcDbText
  0
ARC
  5
153
330
1F
100
AcDbEntity
  8
GR1-1
  6
CONTINUOUS
 62
     6
100
AcDbCircle
 10
240.23227
 20
93.0
 30
0.0
 40
25.99999999999997
100
AcDbArc
 50
-230.404344
 51
50.404344
  0
ARC
  5
154
330
1F
100
AcDbEntity
  8
LAYERGROUP-1
  6
CONTINUOUS
 62
     6
100
AcDbCircle
 10
240.23227
 20
93.0
 30
0.0
 40
14.50000000000003
100
AcDbArc
 50
-208.608581
 51
28.608581
  0
ARC
  5
155
330
1F
100
AcDbEntity
  8
GR1-1
  6
CONTINUOUS
 62
     3
100
AcDbCircle
 10
148.523291
 20
127.790038
 30
0.0
 40
2.0
100
AcDbArc
 50
0.0
 51
82.26362
  0
ARC
  5
156
330
1F
100
AcDbEntity
  8
GR1-1
  6
CONTINUOUS
 62
     3
100
AcDbCircle
 10
138.023291
 20
50.5
 30
0.0
 40
80.0
100
AcDbArc
 50
82.26362
 51
97.73638
  0
ARC
  5
157
330
1F
100
AcDbEntity
  8
GR1-1
  6
CONTINUOUS
 62
     3
100
AcDbCircle
 10
127.523291
 20
127.790038
 30
0.0
 40
2.0
100
AcDbArc
 50
97.73638
 51
180.0
  0
LINE
  5
158
330
1F
100
AcDbEntity
  8
GR1-1
  6
CONTINUOUS
 62
     3
100
AcDbLine
 10
125.523291
 20
127.790038
 30
0.0
 11
125.523291
 21
58.209962
 31
0.0
  0
LINE
  5
159
330
1F
100
AcDbEntity
  8
GR1-1
  6
CONTINUOUS
 62
     3
100
AcDbLine
 10
124.023291
 20
99.0
 30
0.0
 11
122.523291
 21
99.0
 31
0.0
  0
LINE
  5
15A
330
1F
100
AcDbEntity
  8
GR1-1
  6
CONTINUOUS
 62
     3
100
AcDbLine
 10
122.523291
 20
99.0
 30
0.0
 11
122.523291
 21
87.0
 31
0.0
  0
LINE
  5
15B
330
1F
100
AcDbEntity
  8
GR1-1
  6
CONTINUOUS
 62
     3
100
AcDbLine
 10
122.523291
 20
87.0
 30
0.0
 11
124.023291
 21
87.0
 31
0.0
  0
LINE
  5
15C
330
1F
100
AcDbEntity
  8
GR1-1
  6
CONTINUOUS
 62
     3
100
AcDbLine
 10
124.023291
 20
79.3391
 30
0.0
 11
124.023291
 21
106.6609
 31
0.0
  0
ARC
  5
15D
330
1F
100
AcDbEntity
  8
LAYERGROUP-1
  6
CONTINUOUS
 62
     3
100
AcDbCircle
 10
125.023291
 20
106.6609
 30
0.0
 40
1.0
100
AcDbArc
 50
100.0
 51
180.0
  0
LINE
  5
15E
330
1F
100
AcDbEntity
  8
LAYERGROUP-1
  6
CONTINUOUS
 62
     3
100
AcDbLine
 10
124.849643
 20
107.645708
 30
0.0
 11
125.523291
 21
107.76449
 31
0.0
  0
ARC
  5
15F
330
1F
100
AcDbEntity
  8
LAYERGROUP-1
  6
CONTINUOUS
 62
     3
100
AcDbCircle
 10
125.023291
 20
79.3391
 30
0.0
 40
1.0
100
AcDbArc
 50
180.0
 51
260.0
  0
LINE
  5
160
330
1F
100
AcDbEntity
  8
LAYERGROUP-1
  6
CONTINUOUS
 62
     3
100
AcDbLine
 10
124.849643
 20
78.354292
 30
0.0
 11
125.523291
 21
78.23551
 31
0.0
  0
LINE
  5
161
330
1F
100
AcDbEntity
  8
GR1-1
  6
CONTINUOUS
 62
     3
100
AcDbLine
 10
150.523291
 20
127.790038
 30
0.0
 11
150.523291
 21
58.209962
 31
0.0
  0
LINE
  5
162
330
1F
100
AcDbEntity
  8
GR1-1
  6
CONTINUOUS
 62
     3
100
AcDbLine
 10
152.023291
 20
99.0
 30
0.0
 11
153.523291
 21
99.0
 31
0.0
  0
LINE
  5
163
330
1F
100
AcDbEntity
  8
GR1-1
  6
CONTINUOUS
 62
     3
100
AcDbLine
 10
153.523291
 20
99.0
 30
0.0
 11
153.523291
 21
87.0
 31
0.0
  0
LINE
  5
164
330
1F
100
AcDbEntity
  8
GR1-1
  6
CONTINUOUS
 62
     3
100
AcDbLine
 10
153.523291
 20
87.0
 30
0.0
 11
152.023291
 21
87.0
 31
0.0
  0
LINE
  5
165
330
1F
100
AcDbEntity
  8
GR1-1
  6
CONTINUOUS
 62
     3
100
AcDbLine
 10
152.023291
 20
79.3391
 30
0.0
 11
152.023291
 21
106.6609
 31
0.0
  0
ARC
  5
166
330
1F
100
AcDbEntity
  8
LAYERGROUP-1
  6
CONTINUOUS
 62
     3
100
AcDbCircle
 10
151.023291
 20
106.6609
 30
0.0
 40
1.0
100
AcDbArc
 50
0.0
 51
80.0
  0
LINE
  5
167
330
1F
100
AcDbEntity
  8
LAYERGROUP-1
  6
CONTINUOUS
 62
     3
100
AcDbLine
 10
151.196939
 20
107.645708
 30
0.0
 11
150.523291
 21
107.76449
 31
0.0
  0
ARC
  5
168
330
1F
100
AcDbEntity
  8
LAYERGROUP-1
  6
CONTINUOUS
 62
     3
100
AcDbCircle
 10
151.023291
 20
79.3391
 30
0.0
 40
1.0
100
AcDbArc
 50
280.0
 51
360.0
  0
LINE
  5
169
330
1F
100
AcDbEntity
  8
LAYERGROUP-1
  6
CONTINUOUS
 62
     3
100
AcDbLine
 10
151.196939
 20
78.354292
 30
0.0
 11
150.523291
 21
78.23551
 31
0.0
  0
ARC
  5
16A
330
1F
100
AcDbEntity
  8
GR1-1
  6
CONTINUOUS
 62
     3
100
AcDbCircle
 10
148.523291
 20
58.209962
 30
0.0
 40
2.0
100
AcDbArc
 50
277.73638
 51
360.0
  0
ARC
  5
16B
330
1F
100
AcDbEntity
  8
GR1-1
  6
CONTINUOUS
 62
     3
100
AcDbCircle
 10
138.023291
 20
135.5
 30
0.0
 40
80.0
100
AcDbArc
 50
262.26362
 51
277.73638
  0
ARC
  5
16C
330
1F
100
AcDbEntity
  8
GR1-1
  6
CONTINUOUS
 62
     3
100
AcDbCircle
 10
127.523291
 20
58.209962
 30
0.0
 40
2.0
100
AcDbArc
 50
180.0
 51
262.26362
  0
LINE
  5
16D
330
1F
100
AcDbEntity
  8
GR1-1
  6
CONTINUOUS
 62
     3
100
AcDbLine
 10
159.823291
 20
89.0
 30
0.0
 11
159.823291
 21
97.0
 31
0.0
  0
ARC
  5
16E
330
1F
100
AcDbEntity
  8
GR1-1
  6
CONTINUOUS
 62
     3
100
AcDbCircle
 10
157.823291
 20
97.0
 30
0.0
 40
2.0
100
AcDbArc
 50
0.0
 51
90.0
  0
LINE
  5
16F
330
1F
100
AcDbEntity
  8
GR1-1
  6
CONTINUOUS
 62
     3
100
AcDbLine
 10
157.823291
 20
99.0
 30
0.0
 11
156.323291
 21
99.0
 31
0.0
  0
LINE
  5
170
330
1F
100
AcDbEntity
  8
GR1-1
  6
CONTINUOUS
 62
     3
100
AcDbLine
 10
156.323291
 20
87.0
 30
0.0
 11
157.823291
 21
87.0
 31
0.0
  0
ARC
  5
171
330
1F
100
AcDbEntity
  8
GR1-1
  6
CONTINUOUS
 62
     3
100
AcDbCircle
 10
157.823291
 20
89.0
 30
0.0
 40
2.0
100
AcDbArc
 50
270.0
 51
360.0
  0
LINE
  5
172
330
1F
100
AcDbEntity
  8
GR1-1
  6
CONTINUOUS
 62
     3
100
AcDbLine
 10
118.223291
 20
90.936492
 30
0.0
 11
118.223291
 21
95.063508
 31
0.0
  0
ARC
  5
173
330
1F
100
AcDbEntity
  8
GR1-1
  6
CONTINUOUS
 62
     3
100
AcDbCircle
 10
120.223291
 20
95.063508
 30
0.0
 40
2.0
100
AcDbArc
 50
104.477512
 51
180.0
  0
ARC
  5
174
330
1F
100
AcDbEntity
  8
GR1-1
  6
CONTINUOUS
 62
     3
100
AcDbCircle
 10
120.223291
 20
90.936492
 30
0.0
 40
2.0
100
AcDbArc
 50
180.0
 51
255.522488
  0
CIRCLE
  5
175
330
1F
100
AcDbEntity
  8
GR1-1
  6
CONTINUOUS
 62
     3
100
AcDbCircle
 10
240.23227
 20
93.0
 30
0.0
 40
6.0
  0
LINE
  5
176
330
1F
100
AcDbEntity
  8
GR1-1
  6
CONTINUOUS
 62
     3
100
AcDbLine
 10
238.168761
 20
248.6
 30
0.0
 11
242.295778
 21
248.6
 31
0.0
  0
ARC
  5
177
330
1F
100
AcDbEntity
  8
GR1-1
  6
CONTINUOUS
 62
     3
100
AcDbCircle
 10
242.295778
 20
246.6
 30
0.0
 40
2.0
100
AcDbArc
 50
14.477512
 51
90.0
  0
ARC
  5
178
330
1F
100
AcDbEntity
  8
GR1-1
  6
CONTINUOUS
 62
     3
100
AcDbCircle
 10
238.168761
 20
246.6
 30
0.0
 40
2.0
100
AcDbArc
 50
90.0
 51
165.522488
  0
LINE
  5
179
330
1F
100
AcDbEntity
  8
GR1-1
  6
CONTINUOUS
 62
     3
100
AcDbLine
 10
246.23227
 20
209.9
 30
0.0
 11
246.23227
 21
208.4
 31
0.0
  0
LINE
  5
17A
330
1F
100
AcDbEntity
  8
GR1-1
  6
CONTINUOUS
 62
     3
100
AcDbLine
 10
244.23227
 20
206.4
 30
0.0
 11
236.23227
 21
206.4
 31
0.0
  0
LINE
  5
17B
330
1F
100
AcDbEntity
  8
GR1-1
  6
CONTINUOUS
 62
     3
100
AcDbLine
 10
234.23227
 20
208.4
 30
0.0
 11
234.23227
 21
209.9
 31
0.0
  0
ARC
  5
17C
330
1F
100
AcDbEntity
  8
GR1-1
  6
CONTINUOUS
 62
     3
100
AcDbCircle
 10
236.23227
 20
208.4
 30
0.0
 40
2.0
100
AcDbArc
 50
180.0
 51
270.0
  0
ARC
  5
17D
330
1F
100
AcDbEntity
  8
GR1-1
  6
CONTINUOUS
 62
     3
100
AcDbCircle
 10
244.23227
 20
208.4
 30
0.0
 40
2.0
100
AcDbArc
 50
270.0
 51
360.0
  0
CIRCLE
  5
17E
330
1F
100
AcDbEntity
  8
LAYERGROUP-1
  6
CONTINUOUS
 62
     6
100
AcDbCircle
 10
240.23227
 20
93.0
 30
0.0
 40
4.0
  0
LINE
  5
17F
330
1F
100
AcDbEntity
  8
LAYERGROUP-1
  6
CONTINUOUS
 62
     3
100
AcDbLine
 10
158.023291
 20
146.5
 30
0.0
 11
118.023291
 21
146.5
 31
0.0
  0
ARC
  5
180
330
1F
100
AcDbEntity
  8
LAYERGROUP-1
  6
CONTINUOUS
 62
     3
100
AcDbCircle
 10
158.023291
 20
144.5
 30
0.0
 40
2.0
100
AcDbArc
 50
0.0
 51
90.0
  0
LINE
  5
181
330
1F
100
AcDbEntity
  8
LAYERGROUP-1
  6
CONTINUOUS
 62
     3
100
AcDbLine
 10
160.023291
 20
144.5
 30
0.0
 11
160.023291
 21
134.615899
 31
0.0
  0
ARC
  5
182
330
1F
100
AcDbEntity
  8
LAYERGROUP-1
  6
CONTINUOUS
 62
     3
100
AcDbCircle
 10
117.855852
 20
139.577195
 30
0.0
 40
42.45830159704676
100
AcDbArc
 50
340.200994
 51
353.289599
  0
ARC
  5
183
330
1F
100
AcDbEntity
  8
LAYERGROUP-1
  6
CONTINUOUS
 62
     3
100
AcDbCircle
 10
214.743183
 20
104.024257
 30
0.0
 40
60.74754495780596
100
AcDbArc
 50
159.603523
 51
170.521398
  0
ARC
  5
184
330
1F
100
AcDbEntity
  8
LAYERGROUP-1
  6
CONTINUOUS
 62
     3
100
AcDbCircle
 10
228.19061
 20
105.330788
 30
0.0
 40
73.87932238530509
100
AcDbArc
 50
173.239265
 51
178.967159
  0
LINE
  5
185
330
1F
100
AcDbEntity
  8
LAYERGROUP-1
  6
CONTINUOUS
 62
     3
100
AcDbLine
 10
154.323291
 20
106.6625
 30
0.0
 11
154.323291
 21
82.4
 31
0.0
  0
LINE
  5
186
330
1F
100
AcDbEntity
  8
LAYERGROUP-1
  6
CONTINUOUS
 62
     3
100
AcDbLine
 10
154.323291
 20
97.0
 30
0.0
 11
153.523291
 21
97.0
 31
0.0
  0
LINE
  5
187
330
1F
100
AcDbEntity
  8
LAYERGROUP-1
  6
CONTINUOUS
 62
     3
100
AcDbLine
 10
154.323291
 20
89.0
 30
0.0
 11
153.523291
 21
89.0
 31
0.0
  0
LINE
  5
188
330
1F
100
AcDbEntity
  8
LAYERGROUP-1
  6
CONTINUOUS
 62
     3
100
AcDbLine
 10
121.723291
 20
97.0
 30
0.0
 11
122.523291
 21
97.0
 31
0.0
  0
LINE
  5
189
330
1F
100
AcDbEntity
  8
LAYERGROUP-1
  6
CONTINUOUS
 62
     3
100
AcDbLine
 10
121.723291
 20
89.0
 30
0.0
 11
122.523291
 21
89.0
 31
0.0
  0
LINE
  5
18A
330
1F
100
AcDbEntity
  8
GR1-1
  6
CONTINUOUS
 62
     3
100
AcDbLine
 10
119.723291
 20
82.4
 30
0.0
 11
121.723291
 21
82.4
 31
0.0
  0
LINE
  5
18B
330
1F
100
AcDbEntity
  8
GR1-1
  6
CONTINUOUS
 62
     3
100
AcDbLine
 10
121.723291
 20
82.4
 30
0.0
 11
121.723291
 21
143.7
 31
0.0
  0
ARC
  5
18C
330
1F
100
AcDbEntity
  8
GR1-1
  6
CONTINUOUS
 62
     3
100
AcDbCircle
 10
122.723291
 20
143.7
 30
0.0
 40
1.0
100
AcDbArc
 50
90.0
 51
180.0
  0
ARC
  5
18D
330
1F
100
AcDbEntity
  8
LAYERGROUP-1
  6
CONTINUOUS
 62
     3
100
AcDbCircle
 10
118.023291
 20
144.5
 30
0.0
 40
2.0
100
AcDbArc
 50
90.0
 51
180.0
  0
LINE
  5
18E
330
1F
100
AcDbEntity
  8
LAYERGROUP-1
  6
CONTINUOUS
 62
     3
100
AcDbLine
 10
116.023291
 20
144.5
 30
0.0
 11
116.023291
 21
134.615899
 31
0.0
  0
ARC
  5
18F
330
1F
100
AcDbEntity
  8
LAYERGROUP-1
  6
CONTINUOUS
 62
     3
100
AcDbCircle
 10
158.19073
 20
139.577195
 30
0.0
 40
42.45830159704676
100
AcDbArc
 50
186.710401
 51
199.799006
  0
ARC
  5
190
330
1F
100
AcDbEntity
  8
LAYERGROUP-1
  6
CONTINUOUS
 62
     3
100
AcDbCircle
 10
61.303399
 20
104.024257
 30
0.0
 40
60.74754495780596
100
AcDbArc
 50
9.478602
 51
20.396477
  0
ARC
  5
191
330
1F
100
AcDbEntity
  8
LAYERGROUP-1
  6
CONTINUOUS
 62
     3
100
AcDbCircle
 10
47.855972
 20
105.330788
 30
0.0
 40
73.87932238530509
100
AcDbArc
 50
1.032841
 51
6.760735
  0
LINE
  5
192
330
1F
100
AcDbEntity
  8
LAYERGROUP-1
  6
CONTINUOUS
 62
     3
100
AcDbLine
 10
121.723291
 20
106.6625
 30
0.0
 11
121.723291
 21
82.4
 31
0.0
  0
ARC
  5
193
330
1F
100
AcDbEntity
  8
LAYERGROUP-1
  6
CONTINUOUS
 62
     3
100
AcDbCircle
 10
270.745583
 20
143.5
 30
0.0
 40
3.0
100
AcDbArc
 50
90.0
 51
133.515579
  0
LINE
  5
194
330
1F
100
AcDbEntity
  8
GR1-1
  6
CONTINUOUS
 62
     3
100
AcDbLine
 10
205.23227
 20
148.5
 30
0.0
 11
205.23227
 21
146.5
 31
0.0
  0
LINE
  5
195
330
1F
100
AcDbEntity
  8
GR1-1
  6
CONTINUOUS
 62
     3
100
AcDbLine
 10
205.23227
 20
146.5
 30
0.0
 11
209.718956
 21
146.5
 31
0.0
  0
LINE
  5
196
330
1F
100
AcDbEntity
  8
GR1-1
  6
CONTINUOUS
 62
     3
100
AcDbLine
 10
211.784612
 20
145.675562
 30
0.0
 11
214.287412
 21
143.299198
 31
0.0
  0
ARC
  5
197
330
1F
100
AcDbEntity
  8
GR1-1
  6
CONTINUOUS
 62
     3
100
AcDbCircle
 10
209.609172
 20
145.5
 30
0.0
 40
3.0
100
AcDbArc
 50
33.170344
 51
90.0
  0
ARC
  5
198
330
1F
100
AcDbEntity
  8
LAYERGROUP-1
  6
CONTINUOUS
 62
     3
100
AcDbCircle
 10
209.718956
 20
143.5
 30
0.0
 40
3.0
100
AcDbArc
 50
46.484421
 51
90.0
  0
TEXT
  5
199
330
1F
100
AcDbEntity
  8
}}ﾊﾊGG血CCТ
  6
CONTINUOUS
 62
     7
100
AcDbText
 10
255.0
 20
12.0
 30
0.0
 40
6.0
  1
S25H0FBA-C01
 41
0.708861
  7
FX_VECTOR
 72
     5
 11
303.0
 21
12.0
 31
0.0
100
AcDbText
  0
TEXT
  5
19A
330
1F
100
AcDbEntity
  8
GR1-1
  6
CONTINUOUS
 62
     7
100
AcDbText
 10
294.105591
 20
225.5
 30
0.0
 40
4.0
  1
47
 50
90.0
 41
0.851351
  7
FX_VECTOR
 72
     5
 11
294.105591
 21
231.5
 31
0.0
100
AcDbText
  0
LINE
  5
19B
330
1F
100
AcDbEntity
  8
GR1-1
  6
CONTINUOUS
 62
     7
100
AcDbLine
 10
271.73227
 20
252.1
 30
0.0
 11
296.105603
 21
252.1
 31
0.0
  0
LINE
  5
19C
330
1F
100
AcDbEntity
  8
GR1-1
  6
CONTINUOUS
 62
     7
100
AcDbLine
 10
271.73227
 20
204.9
 30
0.0
 11
296.105603
 21
204.9
 31
0.0
  0
LINE
  5
19D
330
1F
100
AcDbEntity
  8
GR1-1
  6
CONTINUOUS
 62
     7
100
AcDbLine
 10
295.105603
 20
252.1
 30
0.0
 11
295.105603
 21
204.9
 31
0.0
  0
INSERT
  5
19E
330
1F
100
AcDbEntity
  8
GR1-1
  6
CONTINUOUS
 62
     7
100
AcDbBlockReference
  2
FXTIP_ARROW_S
 10
295.105603
 20
252.1
 30
0.0
 41
4.0
 42
4.0
 50
90.0
  0
INSERT
  5
19F
330
1F
100
AcDbEntity
  8
GR1-1
  6
CONTINUOUS
 62
     7
100
AcDbBlockReference
  2
FXTIP_ARROW_E
 10
295.105603
 20
204.9
 30
0.0
 41
4.0
 42
4.0
 50
270.0
  0
TEXT
  5
1A0
330
1F
100
AcDbEntity
  8
GR1-1
  6
CONTINUOUS
 62
     7
100
AcDbText
 10
284.105591
 20
225.5
 30
0.0
 40
4.0
  1
28
 50
90.0
 41
0.851351
  7
FX_VECTOR
 72
     5
 11
284.105591
 21
231.5
 31
0.0
100
AcDbText
  0
LINE
  5
1A1
330
1F
100
AcDbEntity
  8
GR1-1
  6
CONTINUOUS
 62
     7
100
AcDbLine
 10
276.73227
 20
242.5
 30
0.0
 11
286.105603
 21
242.5
 31
0.0
  0
LINE
  5
1A2
330
1F
100
AcDbEntity
  8
GR1-1
  6
CONTINUOUS
 62
     7
100
AcDbLine
 10
276.73227
 20
214.5
 30
0.0
 11
286.105603
 21
214.5
 31
0.0
  0
LINE
  5
1A3
330
1F
100
AcDbEntity
  8
GR1-1
  6
CONTINUOUS
 62
     7
100
AcDbLine
 10
285.105603
 20
242.5
 30
0.0
 11
285.105603
 21
214.5
 31
0.0
  0
INSERT
  5
1A4
330
1F
100
AcDbEntity
  8
GR1-1
  6
CONTINUOUS
 62
     7
100
AcDbBlockReference
  2
FXTIP_ARROW_S
 10
285.105603
 20
242.5
 30
0.0
 41
4.0
 42
4.0
 50
90.0
  0
INSERT
  5
1A5
330
1F
100
AcDbEntity
  8
GR1-1
  6
CONTINUOUS
 62
     7
100
AcDbBlockReference
  2
FXTIP_ARROW_E
 10
285.105603
 20
214.5
 30
0.0
 41
4.0
 42
4.0
 50
270.0
  0
TEXT
  5
1A6
330
1F
100
AcDbEntity
  8
GR1-1
  6
CONTINUOUS
 62
     7
100
AcDbText
 10
237.232269
 20
185.321503
 30
0.0
 40
4.0
  1
70
 41
0.851351
  7
FX_VECTOR
 72
     5
 11
243.232269
 21
185.321503
 31
0.0
100
AcDbText
  0
LINE
  5
1A7
330
1F
100
AcDbEntity
  8
GR1-1
  6
CONTINUOUS
 62
     7
100
AcDbLine
 10
205.23227
 20
208.4
 30
0.0
 11
205.23227
 21
183.321507
 31
0.0
  0
LINE
  5
1A8
330
1F
100
AcDbEntity
  8
GR1-1
  6
CONTINUOUS
 62
     7
100
AcDbLine
 10
275.23227
 20
208.4
 30
0.0
 11
275.23227
 21
183.321507
 31
0.0
  0
LINE
  5
1A9
330
1F
100
AcDbEntity
  8
GR1-1
  6
CONTINUOUS
 62
     7
100
AcDbLine
 10
205.23227
 20
184.321507
 30
0.0
 11
275.23227
 21
184.321507
 31
0.0
  0
INSERT
  5
1AA
330
1F
100
AcDbEntity
  8
GR1-1
  6
CONTINUOUS
 62
     7
100
AcDbBlockReference
  2
FXTIP_ARROW_S
 10
205.23227
 20
184.321507
 30
0.0
 41
4.0
 42
4.0
 50
180.0
  0
INSERT
  5
1AB
330
1F
100
AcDbEntity
  8
GR1-1
  6
CONTINUOUS
 62
     7
100
AcDbBlockReference
  2
FXTIP_ARROW_E
 10
275.23227
 20
184.321507
 30
0.0
 41
4.0
 42
4.0
 50
360.0
  0
TEXT
  5
1AC
330
1F
100
AcDbEntity
  8
GR1-1
  6
CONTINUOUS
 62
     7
100
AcDbText
 10
237.232269
 20
195.321503
 30
0.0
 40
4.0
  1
55
 41
0.851351
  7
FX_VECTOR
 72
     5
 11
243.232269
 21
195.321503
 31
0.0
100
AcDbText
  0
LINE
  5
1AD
330
1F
100
AcDbEntity
  8
GR1-1
  6
CONTINUOUS
 62
     7
100
AcDbLine
 10
267.73227
 20
205.5
 30
0.0
 11
267.73227
 21
193.321507
 31
0.0
  0
LINE
  5
1AE
330
1F
100
AcDbEntity
  8
GR1-1
  6
CONTINUOUS
 62
     7
100
AcDbLine
 10
212.73227
 20
205.5
 30
0.0
 11
212.73227
 21
193.321507
 31
0.0
  0
LINE
  5
1AF
330
1F
100
AcDbEntity
  8
GR1-1
  6
CONTINUOUS
 62
     7
100
AcDbLine
 10
267.73227
 20
194.321507
 30
0.0
 11
212.73227
 21
194.321507
 31
0.0
  0
INSERT
  5
1B0
330
1F
100
AcDbEntity
  8
GR1-1
  6
CONTINUOUS
 62
     7
100
AcDbBlockReference
  2
FXTIP_ARROW_S
 10
267.73227
 20
194.321507
 30
0.0
 41
4.0
 42
4.0
  0
INSERT
  5
1B1
330
1F
100
AcDbEntity
  8
GR1-1
  6
CONTINUOUS
 62
     7
100
AcDbBlockReference
  2
FXTIP_ARROW_E
 10
212.73227
 20
194.321507
 30
0.0
 41
4.0
 42
4.0
 50
180.0
  0
TEXT
  5
1B2
330
1F
100
AcDbEntity
  8
GR1-1
  6
CONTINUOUS
 62
     7
100
AcDbText
 10
190.623857
 20
264.965462
 30
0.0
 40
4.0
  1
4-%%c8.8
 50
316.359161
 41
0.84375
  7
FX_VECTOR
 72
     5
 11
203.650099
 21
252.543022
 31
0.0
100
AcDbText
  0
LINE
  5
1B3
330
1F
100
AcDbEntity
  8
GR1-1
  6
CONTINUOUS
 62
     7
100
AcDbLine
 10
209.548077
 20
245.536597
 30
0.0
 11
215.916462
 21
239.463403
 31
0.0
  0
LINE
  5
1B4
330
1F
100
AcDbEntity
  8
GR1-1
  6
CONTINUOUS
 62
     7
100
AcDbLine
 10
215.916462
 20
239.463403
 30
0.0
 11
220.258543
 21
235.32259
 31
0.0
  0
INSERT
  5
1B5
330
1F
100
AcDbEntity
  8
GR1-1
  6
CONTINUOUS
 62
     7
100
AcDbBlockReference
  2
FXTIP_ARROW_S
 10
215.916462
 20
239.463403
 30
0.0
 41
4.0
 42
4.0
 50
136.359159
  0
LINE
  5
1B6
330
1F
100
AcDbEntity
  8
GR1-1
  6
CONTINUOUS
 62
     7
100
AcDbLine
 10
209.548077
 20
245.536597
 30
0.0
 11
183.345615
 21
270.524504
 31
0.0
  0
INSERT
  5
1B7
330
1F
100
AcDbEntity
  8
GR1-1
  6
CONTINUOUS
 62
     7
100
AcDbBlockReference
  2
FXTIP_ARROW_S
 10
209.548077
 20
245.536597
 30
0.0
 41
4.0
 42
4.0
 50
316.359159
  0
TEXT
  5
1B8
330
1F
100
AcDbEntity
  8
GR1-1
  6
CONTINUOUS
 62
     7
100
AcDbText
 10
296.802917
 20
99.0
 30
0.0
 40
4.0
  1
93
 50
90.0
 41
0.851351
  7
FX_VECTOR
 72
     5
 11
296.802917
 21
105.0
 31
0.0
100
AcDbText
  0
LINE
  5
1B9
330
1F
100
AcDbEntity
  8
GR1-1
  6
CONTINUOUS
 62
     7
100
AcDbLine
 10
241.23227
 20
55.5
 30
0.0
 11
298.802912
 21
55.5
 31
0.0
  0
LINE
  5
1BA
330
1F
100
AcDbEntity
  8
GR1-1
  6
CONTINUOUS
 62
     7
100
AcDbLine
 10
276.23227
 20
148.5
 30
0.0
 11
298.802912
 21
148.5
 31
0.0
  0
LINE
  5
1BB
330
1F
100
AcDbEntity
  8
GR1-1
  6
CONTINUOUS
 62
     7
100
AcDbLine
 10
297.802912
 20
55.5
 30
0.0
 11
297.802912
 21
148.5
 31
0.0
  0
INSERT
  5
1BC
330
1F
100
AcDbEntity
  8
GR1-1
  6
CONTINUOUS
 62
     7
100
AcDbBlockReference
  2
FXTIP_ARROW_S
 10
297.802912
 20
55.5
 30
0.0
 41
4.0
 42
4.0
 50
270.0
  0
INSERT
  5
1BD
330
1F
100
AcDbEntity
  8
GR1-1
  6
CONTINUOUS
 62
     7
100
AcDbBlockReference
  2
FXTIP_ARROW_E
 10
297.802912
 20
148.5
 30
0.0
 41
4.0
 42
4.0
 50
90.0
  0
TEXT
  5
1BE
330
1F
100
AcDbEntity
  8
GR1-1
  6
CONTINUOUS
 62
     7
100
AcDbText
 10
286.802917
 20
114.75
 30
0.0
 40
4.0
  1
55.5
 50
90.0
 41
0.940299
  7
FX_VECTOR
 72
     5
 11
286.802917
 21
126.75
 31
0.0
100
AcDbText
  0
LINE
  5
1BF
330
1F
100
AcDbEntity
  8
GR1-1
  6
CONTINUOUS
 62
     7
100
AcDbLine
 10
280.78203
 20
93.0
 30
0.0
 11
288.802912
 21
93.0
 31
0.0
  0
LINE
  5
1C0
330
1F
100
AcDbEntity
  8
GR1-1
  6
CONTINUOUS
 62
     7
100
AcDbLine
 10
287.802912
 20
93.0
 30
0.0
 11
287.802912
 21
148.5
 31
0.0
  0
INSERT
  5
1C1
330
1F
100
AcDbEntity
  8
GR1-1
  6
CONTINUOUS
 62
     7
100
AcDbBlockReference
  2
FXTIP_ARROW_S
 10
287.802912
 20
93.0
 30
0.0
 41
4.0
 42
4.0
 50
270.0
  0
INSERT
  5
1C2
330
1F
100
AcDbEntity
  8
GR1-1
  6
CONTINUOUS
 62
     7
100
AcDbBlockReference
  2
FXTIP_ARROW_E
 10
287.802912
 20
148.5
 30
0.0
 41
4.0
 42
4.0
 50
90.0
  0
TEXT
  5
1C3
330
1F
100
AcDbEntity
  8
GR1-1
  6
CONTINUOUS
 62
     7
100
AcDbText
 10
170.389359
 20
88.5
 30
0.0
 40
4.0
  1
%%c75
 50
90.0
 41
0.84375
  7
FX_VECTOR
 72
     5
 11
170.389359
 21
97.5
 31
0.0
100
AcDbText
  0
LINE
  5
1C4
330
1F
100
AcDbEntity
  8
GR1-1
  6
CONTINUOUS
 62
     7
100
AcDbLine
 10
139.023291
 20
55.5
 30
0.0
 11
172.389354
 21
55.5
 31
0.0
  0
LINE
  5
1C5
330
1F
100
AcDbEntity
  8
GR1-1
  6
CONTINUOUS
 62
     7
100
AcDbLine
 10
139.023291
 20
130.5
 30
0.0
 11
172.389354
 21
130.5
 31
0.0
  0
LINE
  5
1C6
330
1F
100
AcDbEntity
  8
GR1-1
  6
CONTINUOUS
 62
     7
100
AcDbLine
 10
171.389354
 20
55.5
 30
0.0
 11
171.389354
 21
130.5
 31
0.0
  0
INSERT
  5
1C7
330
1F
100
AcDbEntity
  8
GR1-1
  6
CONTINUOUS
 62
     7
100
AcDbBlockReference
  2
FXTIP_ARROW_S
 10
171.389354
 20
55.5
 30
0.0
 41
4.0
 42
4.0
 50
270.0
  0
INSERT
  5
1C8
330
1F
100
AcDbEntity
  8
GR1-1
  6
CONTINUOUS
 62
     7
100
AcDbBlockReference
  2
FXTIP_ARROW_E
 10
171.389354
 20
130.5
 30
0.0
 41
4.0
 42
4.0
 50
90.0
  0
LINE
  5
1C9
330
1F
100
AcDbEntity
  8
GR1-1
  6
CONTINUOUS
 62
     7
100
AcDbLine
 10
216.039271
 20
72.079068
 30
0.0
 11
215.819347
 21
72.084827
 31
0.0
  0
LINE
  5
1CA
330
1F
100
AcDbEntity
  8
GR1-1
  6
CONTINUOUS
 62
     7
100
AcDbLine
 10
216.146354
 20
71.966226
 30
0.0
 11
215.706505
 21
71.977744
 31
0.0
  0
LINE
  5
1CB
330
1F
100
AcDbEntity
  8
GR1-1
  6
CONTINUOUS
 62
     7
100
AcDbLine
 10
216.253437
 20
71.853385
 30
0.0
 11
215.593663
 21
71.870661
 31
0.0
  0
LINE
  5
1CC
330
1F
100
AcDbEntity
  8
GR1-1
  6
CONTINUOUS
 62
     7
100
AcDbLine
 10
216.36052
 20
71.740543
 30
0.0
 11
215.480822
 21
71.763579
 31
0.0
  0
LINE
  5
1CD
330
1F
100
AcDbEntity
  8
GR1-1
  6
CONTINUOUS
 62
     7
100
AcDbLine
 10
216.467603
 20
71.627701
 30
0.0
 11
215.708962
 21
71.647567
 31
0.0
  0
LINE
  5
1CE
330
1F
100
AcDbEntity
  8
GR1-1
  6
CONTINUOUS
 62
     7
100
AcDbLine
 10
215.501386
 20
71.653002
 30
0.0
 11
215.36798
 21
71.656496
 31
0.0
  0
LINE
  5
1CF
330
1F
100
AcDbEntity
  8
GR1-1
  6
CONTINUOUS
 62
     7
100
AcDbLine
 10
216.574686
 20
71.514859
 30
0.0
 11
215.816045
 21
71.534725
 31
0.0
  0
LINE
  5
1D0
330
1F
100
AcDbEntity
  8
GR1-1
  6
CONTINUOUS
 62
     7
100
AcDbLine
 10
215.388545
 20
71.545919
 30
0.0
 11
215.255138
 21
71.549413
 31
0.0
  0
LINE
  5
1D1
330
1F
100
AcDbEntity
  8
GR1-1
  6
CONTINUOUS
 62
     7
100
AcDbLine
 10
216.681769
 20
71.402018
 30
0.0
 11
215.923128
 21
71.421883
 31
0.0
  0
LINE
  5
1D2
330
1F
100
AcDbEntity
  8
GR1-1
  6
CONTINUOUS
 62
     7
100
AcDbLine
 10
215.275703
 20
71.438837
 30
0.0
 11
215.142296
 21
71.44233
 31
0.0
  0
LINE
  5
1D3
330
1F
100
AcDbEntity
  8
GR1-1
  6
CONTINUOUS
 62
     7
100
AcDbLine
 10
216.788851
 20
71.289176
 30
0.0
 11
215.940412
 21
71.311393
 31
0.0
  0
LINE
  5
1D4
330
1F
100
AcDbEntity
  8
GR1-1
  6
CONTINUOUS
 62
     7
100
AcDbLine
 10
215.162861
 20
71.331754
 30
0.0
 11
215.029454
 21
71.335247
 31
0.0
  0
LINE
  5
1D5
330
1F
100
AcDbEntity
  8
GR1-1
  6
CONTINUOUS
 62
     7
100
AcDbLine
 10
216.895934
 20
71.176334
 30
0.0
 11
215.82757
 21
71.20431
 31
0.0
  0
LINE
  5
1D6
330
1F
100
AcDbEntity
  8
GR1-1
  6
CONTINUOUS
 62
     7
100
AcDbLine
 10
215.050019
 20
71.224671
 30
0.0
 11
214.916613
 21
71.228164
 31
0.0
  0
LINE
  5
1D7
330
1F
100
AcDbEntity
  8
GR1-1
  6
CONTINUOUS
 62
     7
100
AcDbLine
 10
217.003017
 20
71.063492
 30
0.0
 11
215.714729
 21
71.097227
 31
0.0
  0
LINE
  5
1D8
330
1F
100
AcDbEntity
  8
GR1-1
  6
CONTINUOUS
 62
     7
100
AcDbLine
 10
214.937178
 20
71.117588
 30
0.0
 11
214.803771
 21
71.121081
 31
0.0
  0
LINE
  5
1D9
330
1F
100
AcDbEntity
  8
GR1-1
  6
CONTINUOUS
 62
     7
100
AcDbLine
 10
217.1101
 20
70.95065
 30
0.0
 11
215.666141
 21
70.988462
 31
0.0
  0
LINE
  5
1DA
330
1F
100
AcDbEntity
  8
GR1-1
  6
CONTINUOUS
 62
     7
100
AcDbLine
 10
214.824336
 20
71.010505
 30
0.0
 11
214.690929
 21
71.013999
 31
0.0
  0
LINE
  5
1DB
330
1F
100
AcDbEntity
  8
GR1-1
  6
CONTINUOUS
 62
     7
100
AcDbLine
 10
217.217183
 20
70.837809
 30
0.0
 11
216.997258
 21
70.843568
 31
0.0
  0
LINE
  5
1DC
330
1F
100
AcDbEntity
  8
GR1-1
  6
CONTINUOUS
 62
     7
100
AcDbLine
 10
214.88453
 20
70.898891
 30
0.0
 11
214.578087
 21
70.906916
 31
0.0
  0
LINE
  5
1DD
330
1F
100
AcDbEntity
  8
GR1-1
  6
CONTINUOUS
 62
     7
100
AcDbLine
 10
217.324266
 20
70.724967
 30
0.0
 11
216.994379
 21
70.733605
 31
0.0
  0
LINE
  5
1DE
330
1F
100
AcDbEntity
  8
GR1-1
  6
CONTINUOUS
 62
     7
100
AcDbLine
 10
214.991613
 20
70.78605
 30
0.0
 11
214.465246
 21
70.799833
 31
0.0
  0
LINE
  5
1DF
330
1F
100
AcDbEntity
  8
GR1-1
  6
CONTINUOUS
 62
     7
100
AcDbLine
 10
217.431348
 20
70.612125
 30
0.0
 11
216.991499
 21
70.623643
 31
0.0
  0
LINE
  5
1E0
330
1F
100
AcDbEntity
  8
GR1-1
  6
CONTINUOUS
 62
     7
100
AcDbLine
 10
215.098696
 20
70.673208
 30
0.0
 11
214.86543
 21
70.679316
 31
0.0
  0
LINE
  5
1E1
330
1F
100
AcDbEntity
  8
GR1-1
  6
CONTINUOUS
 62
     7
100
AcDbLine
 10
214.792253
 20
70.681232
 30
0.0
 11
214.352404
 21
70.69275
 31
0.0
  0
LINE
  5
1E2
330
1F
100
AcDbEntity
  8
GR1-1
  6
CONTINUOUS
 62
     7
100
AcDbLine
 10
217.538431
 20
70.499283
 30
0.0
 11
216.98862
 21
70.513681
 31
0.0
  0
LINE
  5
1E3
330
1F
100
AcDbEntity
  8
GR1-1
  6
CONTINUOUS
 62
     7
100
AcDbLine
 10
215.205778
 20
70.560366
 30
0.0
 11
214.972513
 21
70.566474
 31
0.0
  0
LINE
  5
1E4
330
1F
100
AcDbEntity
  8
GR1-1
  6
CONTINUOUS
 62
     7
100
AcDbLine
 10
214.789374
 20
70.57127
 30
0.0
 11
214.239562
 21
70.585667
 31
0.0
  0
LINE
  5
1E5
330
1F
100
AcDbEntity
  8
GR1-1
  6
CONTINUOUS
 62
     7
100
AcDbLine
 10
217.645514
 20
70.386442
 30
0.0
 11
216.98574
 21
70.403718
 31
0.0
  0
LINE
  5
1E6
330
1F
100
AcDbEntity
  8
GR1-1
  6
CONTINUOUS
 62
     7
100
AcDbLine
 10
215.312861
 20
70.447524
 30
0.0
 11
215.079596
 21
70.453632
 31
0.0
  0
LINE
  5
1E7
330
1F
100
AcDbEntity
  8
GR1-1
  6
CONTINUOUS
 62
     7
100
AcDbLine
 10
214.786494
 20
70.461308
 30
0.0
 11
214.12672
 21
70.478584
 31
0.0
  0
LINE
  5
1E8
330
1F
100
AcDbEntity
  8
GR1-1
  6
CONTINUOUS
 62
     7
100
AcDbLine
 10
217.752597
 20
70.2736
 30
0.0
 11
216.982861
 21
70.293756
 31
0.0
  0
LINE
  5
1E9
330
1F
100
AcDbEntity
  8
GR1-1
  6
CONTINUOUS
 62
     7
100
AcDbLine
 10
216.433049
 20
70.308153
 30
0.0
 11
215.809901
 21
70.324471
 31
0.0
  0
LINE
  5
1EA
330
1F
100
AcDbEntity
  8
GR1-1
  6
CONTINUOUS
 62
     7
100
AcDbLine
 10
215.419944
 20
70.334682
 30
0.0
 11
215.186679
 21
70.340791
 31
0.0
  0
LINE
  5
1EB
330
1F
100
AcDbEntity
  8
GR1-1
  6
CONTINUOUS
 62
     7
100
AcDbLine
 10
214.783615
 20
70.351345
 30
0.0
 11
214.013879
 21
70.371502
 31
0.0
  0
LINE
  5
1EC
330
1F
100
AcDbEntity
  8
GR1-1
  6
CONTINUOUS
 62
     7
100
AcDbLine
 10
217.85968
 20
70.160758
 30
0.0
 11
216.979981
 21
70.183794
 31
0.0
  0
LINE
  5
1ED
330
1F
100
AcDbEntity
  8
GR1-1
  6
CONTINUOUS
 62
     7
100
AcDbLine
 10
216.43017
 20
70.198191
 30
0.0
 11
215.915802
 21
70.21166
 31
0.0
  0
LINE
  5
1EE
330
1F
100
AcDbEntity
  8
GR1-1
  6
CONTINUOUS
 62
     7
100
AcDbLine
 10
215.527027
 20
70.221841
 30
0.0
 11
215.293762
 21
70.227949
 31
0.0
  0
LINE
  5
1EF
330
1F
100
AcDbEntity
  8
GR1-1
  6
CONTINUOUS
 62
     7
100
AcDbLine
 10
214.780735
 20
70.241383
 30
0.0
 11
213.901037
 21
70.264419
 31
0.0
  0
LINE
  5
1F0
330
1F
100
AcDbEntity
  8
GR1-1
  6
CONTINUOUS
 62
     7
100
AcDbLine
 10
217.966763
 20
70.047916
 30
0.0
 11
216.977102
 21
70.073831
 31
0.0
  0
LINE
  5
1F1
330
1F
100
AcDbEntity
  8
GR1-1
  6
CONTINUOUS
 62
     7
100
AcDbLine
 10
216.42729
 20
70.088229
 30
0.0
 11
216.022885
 21
70.098818
 31
0.0
  0
LINE
  5
1F2
330
1F
100
AcDbEntity
  8
GR1-1
  6
CONTINUOUS
 62
     7
100
AcDbLine
 10
215.63411
 20
70.108999
 30
0.0
 11
215.327667
 21
70.117023
 31
0.0
  0
LINE
  5
1F3
330
1F
100
AcDbEntity
  8
GR1-1
  6
CONTINUOUS
 62
     7
100
AcDbLine
 10
214.777856
 20
70.131421
 30
0.0
 11
213.788195
 21
70.157336
 31
0.0
  0
LINE
  5
1F4
330
1F
100
AcDbEntity
  8
GR1-1
  6
CONTINUOUS
 62
     7
100
AcDbLine
 10
218.073845
 20
69.935074
 30
0.0
 11
216.974222
 21
69.963869
 31
0.0
  0
LINE
  5
1F5
330
1F
100
AcDbEntity
  8
GR1-1
  6
CONTINUOUS
 62
     7
100
AcDbLine
 10
216.424411
 20
69.978266
 30
0.0
 11
216.008006
 21
69.98917
 31
0.0
  0
LINE
  5
1F6
330
1F
100
AcDbEntity
  8
GR1-1
  6
CONTINUOUS
 62
     7
100
AcDbLine
 10
215.741193
 20
69.996157
 30
0.0
 11
215.324788
 21
70.007061
 31
0.0
  0
LINE
  5
1F7
330
1F
100
AcDbEntity
  8
GR1-1
  6
CONTINUOUS
 62
     7
100
AcDbLine
 10
214.774976
 20
70.021458
 30
0.0
 11
213.675353
 21
70.050253
 31
0.0
  0
LINE
  5
1F8
330
1F
100
AcDbEntity
  8
GR1-1
  6
CONTINUOUS
 62
     7
100
AcDbLine
 10
218.180928
 20
69.822233
 30
0.0
 11
216.971343
 21
69.853907
 31
0.0
  0
LINE
  5
1F9
330
1F
100
AcDbEntity
  8
GR1-1
  6
CONTINUOUS
 62
     7
100
AcDbLine
 10
216.421531
 20
69.868304
 30
0.0
 11
215.895164
 21
69.882088
 31
0.0
  0
LINE
  5
1FA
330
1F
100
AcDbEntity
  8
GR1-1
  6
CONTINUOUS
 62
     7
100
AcDbLine
 10
215.848276
 20
69.883315
 30
0.0
 11
215.321908
 21
69.897099
 31
0.0
  0
LINE
  5
1FB
330
1F
100
AcDbEntity
  8
GR1-1
  6
CONTINUOUS
 62
     7
100
AcDbLine
 10
214.772097
 20
69.911496
 30
0.0
 11
213.562511
 21
69.94317
 31
0.0
  0
LINE
  5
1FC
330
1F
100
AcDbEntity
  8
GR1-1
  6
CONTINUOUS
 62
     7
100
AcDbLine
 10
218.114975
 20
69.713922
 30
0.0
 11
216.968463
 21
69.743945
 31
0.0
  0
LINE
  5
1FD
330
1F
100
AcDbEntity
  8
GR1-1
  6
CONTINUOUS
 62
     7
100
AcDbLine
 10
216.418652
 20
69.758342
 30
0.0
 11
215.319029
 21
69.787136
 31
0.0
  0
LINE
  5
1FE
330
1F
100
AcDbEntity
  8
GR1-1
  6
CONTINUOUS
 62
     7
100
AcDbLine
 10
214.769217
 20
69.801534
 30
0.0
 11
213.622706
 21
69.831556
 31
0.0
  0
LINE
  5
1FF
330
1F
100
AcDbEntity
  8
GR1-1
  6
CONTINUOUS
 62
     7
100
AcDbLine
 10
218.002133
 20
69.606839
 30
0.0
 11
216.965584
 21
69.633982
 31
0.0
  0
LINE
  5
200
330
1F
100
AcDbEntity
  8
GR1-1
  6
CONTINUOUS
 62
     7
100
AcDbLine
 10
216.415772
 20
69.64838
 30
0.0
 11
215.316149
 21
69.677174
 31
0.0
  0
LINE
  5
201
330
1F
100
AcDbEntity
  8
GR1-1
  6
CONTINUOUS
 62
     7
100
AcDbLine
 10
214.766338
 20
69.691572
 30
0.0
 11
213.729788
 21
69.718715
 31
0.0
  0
LINE
  5
202
330
1F
100
AcDbEntity
  8
GR1-1
  6
CONTINUOUS
 62
     7
100
AcDbLine
 10
217.889292
 20
69.499756
 30
0.0
 11
216.962705
 21
69.52402
 31
0.0
  0
LINE
  5
203
330
1F
100
AcDbEntity
  8
GR1-1
  6
CONTINUOUS
 62
     7
100
AcDbLine
 10
216.412893
 20
69.538417
 30
0.0
 11
215.31327
 21
69.567212
 31
0.0
  0
LINE
  5
204
330
1F
100
AcDbEntity
  8
GR1-1
  6
CONTINUOUS
 62
     7
100
AcDbLine
 10
214.763458
 20
69.581609
 30
0.0
 11
213.836871
 21
69.605873
 31
0.0
  0
LINE
  5
205
330
1F
100
AcDbEntity
  8
GR1-1
  6
CONTINUOUS
 62
     7
100
AcDbLine
 10
217.77645
 20
69.392674
 30
0.0
 11
216.959825
 21
69.414058
 31
0.0
  0
LINE
  5
206
330
1F
100
AcDbEntity
  8
GR1-1
  6
CONTINUOUS
 62
     7
100
AcDbLine
 10
216.410014
 20
69.428455
 30
0.0
 11
215.31039
 21
69.45725
 31
0.0
  0
LINE
  5
207
330
1F
100
AcDbEntity
  8
GR1-1
  6
CONTINUOUS
 62
     7
100
AcDbLine
 10
214.760579
 20
69.471647
 30
0.0
 11
213.943954
 21
69.493031
 31
0.0
  0
LINE
  5
208
330
1F
100
AcDbEntity
  8
GR1-1
  6
CONTINUOUS
 62
     7
100
AcDbLine
 10
217.663608
 20
69.285591
 30
0.0
 11
216.956946
 21
69.304095
 31
0.0
  0
LINE
  5
209
330
1F
100
AcDbEntity
  8
GR1-1
  6
CONTINUOUS
 62
     7
100
AcDbLine
 10
216.407134
 20
69.318493
 30
0.0
 11
215.307511
 21
69.347287
 31
0.0
  0
LINE
  5
20A
330
1F
100
AcDbEntity
  8
GR1-1
  6
CONTINUOUS
 62
     7
100
AcDbLine
 10
214.7577
 20
69.361685
 30
0.0
 11
214.051037
 21
69.380189
 31
0.0
  0
LINE
  5
20B
330
1F
100
AcDbEntity
  8
GR1-1
  6
CONTINUOUS
 62
     7
100
AcDbLine
 10
217.550766
 20
69.178508
 30
0.0
 11
216.954066
 21
69.194133
 31
0.0
  0
LINE
  5
20C
330
1F
100
AcDbEntity
  8
GR1-1
  6
CONTINUOUS
 62
     7
100
AcDbLine
 10
214.75482
 20
69.251722
 30
0.0
 11
214.15812
 21
69.267347
 31
0.0
  0
LINE
  5
20D
330
1F
100
AcDbEntity
  8
GR1-1
  6
CONTINUOUS
 62
     7
100
AcDbLine
 10
217.437925
 20
69.071425
 30
0.0
 11
216.951187
 21
69.084171
 31
0.0
  0
LINE
  5
20E
330
1F
100
AcDbEntity
  8
GR1-1
  6
CONTINUOUS
 62
     7
100
AcDbLine
 10
214.751941
 20
69.14176
 30
0.0
 11
214.265203
 21
69.154506
 31
0.0
  0
LINE
  5
20F
330
1F
100
AcDbEntity
  8
GR1-1
  6
CONTINUOUS
 62
     7
100
AcDbLine
 10
217.325083
 20
68.964342
 30
0.0
 11
216.948307
 21
68.974208
 31
0.0
  0
LINE
  5
210
330
1F
100
AcDbEntity
  8
GR1-1
  6
CONTINUOUS
 62
     7
100
AcDbLine
 10
214.749061
 20
69.031798
 30
0.0
 11
214.372286
 21
69.041664
 31
0.0
  0
LINE
  5
211
330
1F
100
AcDbEntity
  8
GR1-1
  6
CONTINUOUS
 62
     7
100
AcDbLine
 10
217.212241
 20
68.857259
 30
0.0
 11
216.945428
 21
68.864246
 31
0.0
  0
LINE
  5
212
330
1F
100
AcDbEntity
  8
GR1-1
  6
CONTINUOUS
 62
     7
100
AcDbLine
 10
214.746182
 20
68.921835
 30
0.0
 11
214.479368
 21
68.928822
 31
0.0
  0
LINE
  5
213
330
1F
100
AcDbEntity
  8
GR1-1
  6
CONTINUOUS
 62
     7
100
AcDbLine
 10
217.099399
 20
68.750176
 30
0.0
 11
216.942548
 21
68.754284
 31
0.0
  0
LINE
  5
214
330
1F
100
AcDbEntity
  8
GR1-1
  6
CONTINUOUS
 62
     7
100
AcDbLine
 10
214.743302
 20
68.811873
 30
0.0
 11
214.586451
 21
68.81598
 31
0.0
  0
LINE
  5
215
330
1F
100
AcDbEntity
  8
GR1-1
  6
CONTINUOUS
 62
     7
100
AcDbLine
 10
216.986558
 20
68.643094
 30
0.0
 11
214.693534
 21
68.703139
 31
0.0
  0
LINE
  5
216
330
1F
100
AcDbEntity
  8
GR1-1
  6
CONTINUOUS
 62
     7
100
AcDbLine
 10
216.873716
 20
68.536011
 30
0.0
 11
214.800617
 21
68.590297
 31
0.0
  0
LINE
  5
217
330
1F
100
AcDbEntity
  8
GR1-1
  6
CONTINUOUS
 62
     7
100
AcDbLine
 10
216.760874
 20
68.428928
 30
0.0
 11
214.9077
 21
68.477455
 31
0.0
  0
LINE
  5
218
330
1F
100
AcDbEntity
  8
GR1-1
  6
CONTINUOUS
 62
     7
100
AcDbLine
 10
216.648032
 20
68.321845
 30
0.0
 11
215.014783
 21
68.364613
 31
0.0
  0
LINE
  5
219
330
1F
100
AcDbEntity
  8
GR1-1
  6
CONTINUOUS
 62
     7
100
AcDbLine
 10
216.53519
 20
68.214762
 30
0.0
 11
215.121865
 21
68.251771
 31
0.0
  0
LINE
  5
21A
330
1F
100
AcDbEntity
  8
GR1-1
  6
CONTINUOUS
 62
     7
100
AcDbLine
 10
216.422349
 20
68.107679
 30
0.0
 11
215.228948
 21
68.13893
 31
0.0
  0
LINE
  5
21B
330
1F
100
AcDbEntity
  8
GR1-1
  6
CONTINUOUS
 62
     7
100
AcDbLine
 10
216.309507
 20
68.000597
 30
0.0
 11
215.336031
 21
68.026088
 31
0.0
  0
LINE
  5
21C
330
1F
100
AcDbEntity
  8
GR1-1
  6
CONTINUOUS
 62
     7
100
AcDbLine
 10
216.196665
 20
67.893514
 30
0.0
 11
215.443114
 21
67.913246
 31
0.0
  0
LINE
  5
21D
330
1F
100
AcDbEntity
  8
GR1-1
  6
CONTINUOUS
 62
     7
100
AcDbLine
 10
216.083823
 20
67.786431
 30
0.0
 11
215.550197
 21
67.800404
 31
0.0
  0
LINE
  5
21E
330
1F
100
AcDbEntity
  8
GR1-1
  6
CONTINUOUS
 62
     7
100
AcDbLine
 10
215.970982
 20
67.679348
 30
0.0
 11
215.65728
 21
67.687563
 31
0.0
  0
LINE
  5
21F
330
1F
100
AcDbEntity
  8
GR1-1
  6
CONTINUOUS
 62
     7
100
AcDbLine
 10
215.85814
 20
67.572265
 30
0.0
 11
215.764362
 21
67.574721
 31
0.0
  0
TEXT
  5
220
330
1F
100
AcDbEntity
  8
LAYERGROUP-1
  6
CONTINUOUS
 62
     7
100
AcDbText
 10
135.0233
 20
37.004204
 30
0.0
 40
4.0
  1
31
 41
1.016129
  7
FX_VECTOR
 72
     5
 11
141.0233
 21
37.004204
 31
0.0
100
AcDbText
  0
LINE
  5
221
330
1F
100
AcDbEntity
  8
LAYERGROUP-1
  6
CONTINUOUS
 62
     7
100
AcDbLine
 10
122.523291
 20
36.004203
 30
0.0
 11
153.523291
 21
36.004203
 31
0.0
  0
INSERT
  5
222
330
1F
100
AcDbEntity
  8
LAYERGROUP-1
  6
CONTINUOUS
 62
     7
100
AcDbBlockReference
  2
FXTIP_ARROW_S
 10
122.523291
 20
36.004203
 30
0.0
 41
4.0
 42
4.0
 50
180.0
  0
INSERT
  5
223
330
1F
100
AcDbEntity
  8
LAYERGROUP-1
  6
CONTINUOUS
 62
     7
100
AcDbBlockReference
  2
FXTIP_ARROW_E
 10
153.523291
 20
36.004203
 30
0.0
 41
4.0
 42
4.0
 50
360.0
  0
LINE
  5
224
330
1F
100
AcDbEntity
  8
LAYERGROUP-1
  6
CONTINUOUS
 62
     7
100
AcDbLine
 10
122.523291
 20
86.0
 30
0.0
 11
122.523291
 21
35.004203
 31
0.0
  0
LINE
  5
225
330
1F
100
AcDbEntity
  8
LAYERGROUP-1
  6
CONTINUOUS
 62
     7
100
AcDbLine
 10
153.523291
 20
86.0
 30
0.0
 11
153.523291
 21
35.004203
 31
0.0
  0
TEXT
  5
226
330
1F
100
AcDbEntity
  8
LAYERGROUP-1
  6
CONTINUOUS
 62
     7
100
AcDbText
 10
135.0233
 20
47.004204
 30
0.0
 40
4.0
  1
25
 41
0.851351
  7
FX_VECTOR
 72
     5
 11
141.0233
 21
47.004204
 31
0.0
100
AcDbText
  0
LINE
  5
227
330
1F
100
AcDbEntity
  8
LAYERGROUP-1
  6
CONTINUOUS
 62
     7
100
AcDbLine
 10
125.523291
 20
46.004203
 30
0.0
 11
150.523291
 21
46.004203
 31
0.0
  0
INSERT
  5
228
330
1F
100
AcDbEntity
  8
LAYERGROUP-1
  6
CONTINUOUS
 62
     7
100
AcDbBlockReference
  2
FXTIP_ARROW_S
 10
125.523291
 20
46.004203
 30
0.0
 41
4.0
 42
4.0
 50
180.0
  0
INSERT
  5
229
330
1F
100
AcDbEntity
  8
LAYERGROUP-1
  6
CONTINUOUS
 62
     7
100
AcDbBlockReference
  2
FXTIP_ARROW_E
 10
150.523291
 20
46.004203
 30
0.0
 41
4.0
 42
4.0
 50
360.0
  0
LINE
  5
22A
330
1F
100
AcDbEntity
  8
LAYERGROUP-1
  6
CONTINUOUS
 62
     7
100
AcDbLine
 10
125.523291
 20
57.209962
 30
0.0
 11
125.523291
 21
45.004203
 31
0.0
  0
LINE
  5
22B
330
1F
100
AcDbEntity
  8
LAYERGROUP-1
  6
CONTINUOUS
 62
     7
100
AcDbLine
 10
150.523291
 20
57.209962
 30
0.0
 11
150.523291
 21
45.004203
 31
0.0
  0
LINE
  5
22C
330
1F
100
AcDbEntity
  8
}}ﾊﾊGG血CCТ
  6
CONTINUOUS
 62
     7
100
AcDbLine
 10
10.0
 20
10.0
 30
0.0
 11
410.0
 21
10.0
 31
0.0
  0
LINE
  5
22D
330
1F
100
AcDbEntity
  8
}}ﾊﾊGG血CCТ
  6
CONTINUOUS
 62
     7
100
AcDbLine
 10
10.0
 20
10.0
 30
0.0
 11
10.0
 21
287.0
 31
0.0
  0
LINE
  5
22E
330
1F
100
AcDbEntity
  8
}}ﾊﾊGG血CCТ
  6
CONTINUOUS
 62
     7
100
AcDbLine
 10
10.0
 20
287.0
 30
0.0
 11
410.0
 21
287.0
 31
0.0
  0
LINE
  5
22F
330
1F
100
AcDbEntity
  8
}}ﾊﾊGG血CCТ
  6
CONTINUOUS
 62
     7
100
AcDbLine
 10
410.0
 20
287.0
 30
0.0
 11
410.0
 21
10.0
 31
0.0
  0
LINE
  5
230
330
1F
100
AcDbEntity
  8
}}ﾊﾊGG血CCТ
  6
CONTINUOUS
 62
     7
100
AcDbLine
 10
153.0
 20
10.0
 30
0.0
 11
153.0
 21
20.0
 31
0.0
  0
TEXT
  5
231
330
1F
100
AcDbEntity
  8
}}ﾊﾊGG血CCТ
  6
CONTINUOUS
 62
     7
100
AcDbText
 10
137.738815
 20
11.596879
 30
0.0
 40
6.648749
  1
品名
 41
1.083413
  7
FX_VECTOR
 72
     5
 11
149.058355
 21
11.596879
 31
0.0
100
AcDbText
  0
LINE
  5
232
330
1F
100
AcDbEntity
  8
}}ﾊﾊGG血CCТ
  6
CONTINUOUS
 62
     7
100
AcDbLine
 10
233.0
 20
20.0
 30
0.0
 11
233.0
 21
10.0
 31
0.0
  0
LINE
  5
233
330
1F
100
AcDbEntity
  8
}}ﾊﾊGG血CCТ
  6
CONTINUOUS
 62
     7
100
AcDbLine
 10
133.0
 20
20.0
 30
0.0
 11
410.0
 21
20.0
 31
0.0
  0
TEXT
  5
234
330
1F
100
AcDbEntity
  8
}}ﾊﾊGG血CCТ
  6
CONTINUOUS
 62
     7
100
AcDbText
 10
349.225769
 20
11.461285
 30
0.0
 40
6.0
  1
GOLD CASTER
 41
0.719626
  7
FX_VECTOR
 72
     5
 11
393.225769
 21
11.461285
 31
0.0
100
AcDbText
  0
LINE
  5
235
330
1F
100
AcDbEntity
  8
}}ﾊﾊGG血CCТ
  6
CONTINUOUS
 62
     7
100
AcDbLine
 10
253.0
 20
10.0
 30
0.0
 11
253.0
 21
20.0
 31
0.0
  0
TEXT
  5
236
330
1F
100
AcDbEntity
  8
}}ﾊﾊGG血CCТ
  6
CONTINUOUS
 62
     7
100
AcDbText
 10
237.738815
 20
11.596879
 30
0.0
 40
6.648749
  1
図番
 41
1.083413
  7
FX_VECTOR
 72
     5
 11
249.058355
 21
11.596879
 31
0.0
100
AcDbText
  0
LINE
  5
237
330
1F
100
AcDbEntity
  8
}}ﾊﾊGG血CCТ
  6
CONTINUOUS
 62
     7
100
AcDbLine
 10
333.0
 20
20.0
 30
0.0
 11
333.0
 21
10.0
 31
0.0
  0
LINE
  5
238
330
1F
100
AcDbEntity
  8
}}ﾊﾊGG血CCТ
  6
CONTINUOUS
 62
     7
100
AcDbLine
 10
133.0
 20
20.0
 30
0.0
 11
133.0
 21
10.0
 31
0.0
  0
LINE
  5
23A
330
1F
100
AcDbEntity
  8
0-1
  6
CONTINUOUS
 62
     7
100
AcDbLine
 10
344.8019
 20
17.913462
 30
0.0
 11
338.8019
 21
17.913462
 31
0.0
  0
LINE
  5
23B
330
1F
100
AcDbEntity
  8
0-1
  6
CONTINUOUS
 62
     7
100
AcDbLine
 10
338.8019
 20
17.913462
 30
0.0
 11
338.8019
 21
11.913462
 31
0.0
  0
LINE
  5
23C
330
1F
100
AcDbEntity
  8
0-1
  6
CONTINUOUS
 62
     7
100
AcDbLine
 10
338.8019
 20
11.913462
 30
0.0
 11
344.8019
 21
11.913462
 31
0.0
  0
LINE
  5
23D
330
1F
100
AcDbEntity
  8
0-1
  6
CONTINUOUS
 62
     7
100
AcDbLine
 10
344.8019
 20
11.913462
 30
0.0
 11
344.8019
 21
17.913462
 31
0.0
  0
LINE
  5
23E
330
1F
100
AcDbEntity
  8
0-1
  6
CONTINUOUS
 62
     7
100
AcDbLine
 10
344.224977
 20
15.346154
 30
0.0
 11
341.8019
 21
17.769231
 31
0.0
  0
LINE
  5
23F
330
1F
100
AcDbEntity
  8
0-1
  6
CONTINUOUS
 62
     7
100
AcDbLine
 10
341.8019
 20
17.769231
 30
0.0
 11
338.946131
 21
14.913462
 31
0.0
  0
LINE
  5
240
330
1F
100
AcDbEntity
  8
0-1
  6
CONTINUOUS
 62
     7
100
AcDbLine
 10
338.946131
 20
14.913462
 30
0.0
 11
341.8019
 21
12.057692
 31
0.0
  0
LINE
  5
241
330
1F
100
AcDbEntity
  8
0-1
  6
CONTINUOUS
 62
     7
100
AcDbLine
 10
341.8019
 20
12.057692
 30
0.0
 11
343.359592
 21
13.615385
 31
0.0
  0
LINE
  5
242
330
1F
100
AcDbEntity
  8
0-1
  6
CONTINUOUS
 62
     7
100
AcDbLine
 10
343.359592
 20
13.615385
 30
0.0
 11
343.359592
 21
12.980769
 31
0.0
  0
LINE
  5
243
330
1F
100
AcDbEntity
  8
0-1
  6
CONTINUOUS
 62
     7
100
AcDbLine
 10
343.359592
 20
12.980769
 30
0.0
 11
344.224977
 21
12.980769
 31
0.0
  0
LINE
  5
244
330
1F
100
AcDbEntity
  8
0-1
  6
CONTINUOUS
 62
     7
100
AcDbLine
 10
344.224977
 20
12.980769
 30
0.0
 11
344.224977
 21
15.0
 31
0.0
  0
LINE
  5
245
330
1F
100
AcDbEntity
  8
0-1
  6
CONTINUOUS
 62
     7
100
AcDbLine
 10
344.224977
 20
15.0
 30
0.0
 11
341.8019
 21
15.0
 31
0.0
  0
LINE
  5
246
330
1F
100
AcDbEntity
  8
0-1
  6
CONTINUOUS
 62
     7
100
AcDbLine
 10
341.8019
 20
15.0
 30
0.0
 11
341.8019
 21
14.134615
 31
0.0
  0
LINE
  5
247
330
1F
100
AcDbEntity
  8
0-1
  6
CONTINUOUS
 62
     7
100
AcDbLine
 10
341.8019
 20
14.134615
 30
0.0
 11
342.246131
 21
14.134615
 31
0.0
  0
LINE
  5
248
330
1F
100
AcDbEntity
  8
0-1
  6
CONTINUOUS
 62
     7
100
AcDbLine
 10
342.246131
 20
14.134615
 30
0.0
 11
341.8019
 21
13.690385
 31
0.0
  0
LINE
  5
249
330
1F
100
AcDbEntity
  8
0-1
  6
CONTINUOUS
 62
     7
100
AcDbLine
 10
341.8019
 20
13.690385
 30
0.0
 11
340.578823
 21
14.913462
 31
0.0
  0
LINE
  5
24A
330
1F
100
AcDbEntity
  8
0-1
  6
CONTINUOUS
 62
     7
100
AcDbLine
 10
340.578823
 20
14.913462
 30
0.0
 11
341.8019
 21
16.136538
 31
0.0
  0
LINE
  5
24B
330
1F
100
AcDbEntity
  8
0-1
  6
CONTINUOUS
 62
     7
100
AcDbLine
 10
341.8019
 20
16.136538
 30
0.0
 11
342.592284
 21
15.346154
 31
0.0
  0
LINE
  5
24C
330
1F
100
AcDbEntity
  8
0-1
  6
CONTINUOUS
 62
     7
100
AcDbLine
 10
342.592284
 20
15.346154
 30
0.0
 11
344.224977
 21
15.346154
 31
0.0
  0
LINE
  5
24D
330
1F
100
AcDbEntity
  8
GR1-1
  6
CONTINUOUS
 62
     7
100
AcDbLine
 10
339.72238
 20
11.913462
 30
0.0
 11
340.834255
 21
13.025337
 31
0.0
  0
LINE
  5
24E
330
1F
100
AcDbEntity
  8
GR1-1
  6
CONTINUOUS
 62
     7
100
AcDbLine
 10
341.650601
 20
13.841683
 30
0.0
 11
341.943534
 21
14.134615
 31
0.0
  0
LINE
  5
24F
330
1F
100
AcDbEntity
  8
GR1-1
  6
CONTINUOUS
 62
     7
100
AcDbLine
 10
342.808918
 20
15.0
 30
0.0
 11
343.155072
 21
15.346154
 31
0.0
  0
LINE
  5
250
330
1F
100
AcDbEntity
  8
GR1-1
  6
CONTINUOUS
 62
     7
100
AcDbLine
 10
343.690024
 20
15.881106
 30
0.0
 11
344.8019
 21
16.992981
 31
0.0
  0
LINE
  5
251
330
1F
100
AcDbEntity
  8
GR1-1
  6
CONTINUOUS
 62
     7
100
AcDbLine
 10
339.651669
 20
11.913462
 30
0.0
 11
340.7989
 21
13.060692
 31
0.0
  0
LINE
  5
252
330
1F
100
AcDbEntity
  8
GR1-1
  6
CONTINUOUS
 62
     7
100
AcDbLine
 10
341.615246
 20
13.877038
 30
0.0
 11
341.872823
 21
14.134615
 31
0.0
  0
LINE
  5
253
330
1F
100
AcDbEntity
  8
GR1-1
  6
CONTINUOUS
 62
     7
100
AcDbLine
 10
342.738208
 20
15.0
 30
0.0
 11
343.084362
 21
15.346154
 31
0.0
  0
LINE
  5
254
330
1F
100
AcDbEntity
  8
GR1-1
  6
CONTINUOUS
 62
     7
100
AcDbLine
 10
343.654669
 20
15.916461
 30
0.0
 11
344.8019
 21
17.063692
 31
0.0
  0
LINE
  5
255
330
1F
100
AcDbEntity
  8
GR1-1
  6
CONTINUOUS
 62
     7
100
AcDbLine
 10
339.580959
 20
11.913462
 30
0.0
 11
340.763545
 21
13.096047
 31
0.0
  0
LINE
  5
256
330
1F
100
AcDbEntity
  8
GR1-1
  6
CONTINUOUS
 62
     7
100
AcDbLine
 10
341.579891
 20
13.912394
 30
0.0
 11
341.802112
 21
14.134615
 31
0.0
  0
LINE
  5
257
330
1F
100
AcDbEntity
  8
GR1-1
  6
CONTINUOUS
 62
     7
100
AcDbLine
 10
342.667497
 20
15.0
 30
0.0
 11
343.013651
 21
15.346154
 31
0.0
  0
LINE
  5
258
330
1F
100
AcDbEntity
  8
GR1-1
  6
CONTINUOUS
 62
     7
100
AcDbLine
 10
343.619314
 20
15.951817
 30
0.0
 11
344.8019
 21
17.134403
 31
0.0
  0
LINE
  5
259
330
1F
100
AcDbEntity
  8
GR1-1
  6
CONTINUOUS
 62
     7
100
AcDbLine
 10
339.510248
 20
11.913462
 30
0.0
 11
340.728189
 21
13.131403
 31
0.0
  0
LINE
  5
25A
330
1F
100
AcDbEntity
  8
GR1-1
  6
CONTINUOUS
 62
     7
100
AcDbLine
 10
341.544535
 20
13.947749
 30
0.0
 11
341.8019
 21
14.205113
 31
0.0
  0
LINE
  5
25B
330
1F
100
AcDbEntity
  8
GR1-1
  6
CONTINUOUS
 62
     7
100
AcDbLine
 10
342.596786
 20
15.0
 30
0.0
 11
342.94294
 21
15.346154
 31
0.0
  0
LINE
  5
25C
330
1F
100
AcDbEntity
  8
GR1-1
  6
CONTINUOUS
 62
     7
100
AcDbLine
 10
343.583958
 20
15.987172
 30
0.0
 11
344.8019
 21
17.205113
 31
0.0
  0
LINE
  5
25D
330
1F
100
AcDbEntity
  8
GR1-1
  6
CONTINUOUS
 62
     7
100
AcDbLine
 10
339.439537
 20
11.913462
 30
0.0
 11
340.692834
 21
13.166758
 31
0.0
  0
LINE
  5
25E
330
1F
100
AcDbEntity
  8
GR1-1
  6
CONTINUOUS
 62
     7
100
AcDbLine
 10
341.50918
 20
13.983104
 30
0.0
 11
341.8019
 21
14.275824
 31
0.0
  0
LINE
  5
25F
330
1F
100
AcDbEntity
  8
GR1-1
  6
CONTINUOUS
 62
     7
100
AcDbLine
 10
342.526076
 20
15.0
 30
0.0
 11
342.87223
 21
15.346154
 31
0.0
  0
LINE
  5
260
330
1F
100
AcDbEntity
  8
GR1-1
  6
CONTINUOUS
 62
     7
100
AcDbLine
 10
343.548603
 20
16.022527
 30
0.0
 11
344.8019
 21
17.275824
 31
0.0
  0
LINE
  5
261
330
1F
100
AcDbEntity
  8
GR1-1
  6
CONTINUOUS
 62
     7
100
AcDbLine
 10
339.368827
 20
11.913462
 30
0.0
 11
340.657479
 21
13.202114
 31
0.0
  0
LINE
  5
262
330
1F
100
AcDbEntity
  8
GR1-1
  6
CONTINUOUS
 62
     7
100
AcDbLine
 10
341.473825
 20
14.01846
 30
0.0
 11
341.8019
 21
14.346535
 31
0.0
  0
LINE
  5
263
330
1F
100
AcDbEntity
  8
GR1-1
  6
CONTINUOUS
 62
     7
100
AcDbLine
 10
342.455365
 20
15.0
 30
0.0
 11
342.801519
 21
15.346154
 31
0.0
  0
LINE
  5
264
330
1F
100
AcDbEntity
  8
GR1-1
  6
CONTINUOUS
 62
     7
100
AcDbLine
 10
343.513248
 20
16.057883
 30
0.0
 11
344.8019
 21
17.346535
 31
0.0
  0
LINE
  5
265
330
1F
100
AcDbEntity
  8
GR1-1
  6
CONTINUOUS
 62
     7
100
AcDbLine
 10
339.298116
 20
11.913462
 30
0.0
 11
340.622123
 21
13.237469
 31
0.0
  0
LINE
  5
266
330
1F
100
AcDbEntity
  8
GR1-1
  6
CONTINUOUS
 62
     7
100
AcDbLine
 10
341.438469
 20
14.053815
 30
0.0
 11
341.8019
 21
14.417245
 31
0.0
  0
LINE
  5
267
330
1F
100
AcDbEntity
  8
GR1-1
  6
CONTINUOUS
 62
     7
100
AcDbLine
 10
342.384654
 20
15.0
 30
0.0
 11
342.730808
 21
15.346154
 31
0.0
  0
LINE
  5
268
330
1F
100
AcDbEntity
  8
GR1-1
  6
CONTINUOUS
 62
     7
100
AcDbLine
 10
343.477892
 20
16.093238
 30
0.0
 11
344.8019
 21
17.417245
 31
0.0
  0
LINE
  5
269
330
1F
100
AcDbEntity
  8
GR1-1
  6
CONTINUOUS
 62
     7
100
AcDbLine
 10
339.227405
 20
11.913462
 30
0.0
 11
340.586768
 21
13.272824
 31
0.0
  0
LINE
  5
26A
330
1F
100
AcDbEntity
  8
GR1-1
  6
CONTINUOUS
 62
     7
100
AcDbLine
 10
341.403114
 20
14.08917
 30
0.0
 11
341.8019
 21
14.487956
 31
0.0
  0
LINE
  5
26B
330
1F
100
AcDbEntity
  8
GR1-1
  6
CONTINUOUS
 62
     7
100
AcDbLine
 10
342.313944
 20
15.0
 30
0.0
 11
342.660097
 21
15.346154
 31
0.0
  0
LINE
  5
26C
330
1F
100
AcDbEntity
  8
GR1-1
  6
CONTINUOUS
 62
     7
100
AcDbLine
 10
343.442537
 20
16.128593
 30
0.0
 11
344.8019
 21
17.487956
 31
0.0
  0
LINE
  5
26D
330
1F
100
AcDbEntity
  8
GR1-1
  6
CONTINUOUS
 62
     7
100
AcDbLine
 10
339.156695
 20
11.913462
 30
0.0
 11
340.551413
 21
13.30818
 31
0.0
  0
LINE
  5
26E
330
1F
100
AcDbEntity
  8
GR1-1
  6
CONTINUOUS
 62
     7
100
AcDbLine
 10
341.367759
 20
14.124526
 30
0.0
 11
341.8019
 21
14.558667
 31
0.0
  0
LINE
  5
26F
330
1F
100
AcDbEntity
  8
GR1-1
  6
CONTINUOUS
 62
     7
100
AcDbLine
 10
342.243233
 20
15.0
 30
0.0
 11
342.590836
 21
15.347603
 31
0.0
  0
LINE
  5
270
330
1F
100
AcDbEntity
  8
GR1-1
  6
CONTINUOUS
 62
     7
100
AcDbLine
 10
343.407182
 20
16.163949
 30
0.0
 11
344.8019
 21
17.558667
 31
0.0
  0
LINE
  5
271
330
1F
100
AcDbEntity
  8
GR1-1
  6
CONTINUOUS
 62
     7
100
AcDbLine
 10
339.085984
 20
11.913462
 30
0.0
 11
340.516057
 21
13.343535
 31
0.0
  0
LINE
  5
272
330
1F
100
AcDbEntity
  8
GR1-1
  6
CONTINUOUS
 62
     7
100
AcDbLine
 10
341.332403
 20
14.159881
 30
0.0
 11
341.8019
 21
14.629377
 31
0.0
  0
LINE
  5
273
330
1F
100
AcDbEntity
  8
GR1-1
  6
CONTINUOUS
 62
     7
100
AcDbLine
 10
342.172522
 20
15.0
 30
0.0
 11
342.55548
 21
15.382958
 31
0.0
  0
LINE
  5
274
330
1F
100
AcDbEntity
  8
GR1-1
  6
CONTINUOUS
 62
     7
100
AcDbLine
 10
343.371826
 20
16.199304
 30
0.0
 11
344.8019
 21
17.629377
 31
0.0
  0
LINE
  5
275
330
1F
100
AcDbEntity
  8
GR1-1
  6
CONTINUOUS
 62
     7
100
AcDbLine
 10
339.015273
 20
11.913462
 30
0.0
 11
340.480702
 21
13.37889
 31
0.0
  0
LINE
  5
276
330
1F
100
AcDbEntity
  8
GR1-1
  6
CONTINUOUS
 62
     7
100
AcDbLine
 10
341.297048
 20
14.195236
 30
0.0
 11
341.8019
 21
14.700088
 31
0.0
  0
LINE
  5
277
330
1F
100
AcDbEntity
  8
GR1-1
  6
CONTINUOUS
 62
     7
100
AcDbLine
 10
342.101812
 20
15.0
 30
0.0
 11
342.520125
 21
15.418313
 31
0.0
  0
LINE
  5
278
330
1F
100
AcDbEntity
  8
GR1-1
  6
CONTINUOUS
 62
     7
100
AcDbLine
 10
343.336471
 20
16.234659
 30
0.0
 11
344.8019
 21
17.700088
 31
0.0
  0
LINE
  5
279
330
1F
100
AcDbEntity
  8
GR1-1
  6
CONTINUOUS
 62
     7
100
AcDbLine
 10
338.944563
 20
11.913462
 30
0.0
 11
340.445347
 21
13.414246
 31
0.0
  0
LINE
  5
27A
330
1F
100
AcDbEntity
  8
GR1-1
  6
CONTINUOUS
 62
     7
100
AcDbLine
 10
341.261693
 20
14.230592
 30
0.0
 11
341.8019
 21
14.770799
 31
0.0
  0
LINE
  5
27B
330
1F
100
AcDbEntity
  8
GR1-1
  6
CONTINUOUS
 62
     7
100
AcDbLine
 10
342.031101
 20
15.0
 30
0.0
 11
342.48477
 21
15.453669
 31
0.0
  0
LINE
  5
27C
330
1F
100
AcDbEntity
  8
GR1-1
  6
CONTINUOUS
 62
     7
100
AcDbLine
 10
343.301116
 20
16.270015
 30
0.0
 11
344.8019
 21
17.770799
 31
0.0
  0
LINE
  5
27D
330
1F
100
AcDbEntity
  8
GR1-1
  6
CONTINUOUS
 62
     7
100
AcDbLine
 10
338.873852
 20
11.913462
 30
0.0
 11
340.409991
 21
13.449601
 31
0.0
  0
LINE
  5
27E
330
1F
100
AcDbEntity
  8
GR1-1
  6
CONTINUOUS
 62
     7
100
AcDbLine
 10
341.226337
 20
14.265947
 30
0.0
 11
341.8019
 21
14.841509
 31
0.0
  0
LINE
  5
27F
330
1F
100
AcDbEntity
  8
GR1-1
  6
CONTINUOUS
 62
     7
100
AcDbLine
 10
341.96039
 20
15.0
 30
0.0
 11
342.449414
 21
15.489024
 31
0.0
  0
LINE
  5
280
330
1F
100
AcDbEntity
  8
GR1-1
  6
CONTINUOUS
 62
     7
100
AcDbLine
 10
343.26576
 20
16.30537
 30
0.0
 11
344.8019
 21
17.841509
 31
0.0
  0
LINE
  5
281
330
1F
100
AcDbEntity
  8
GR1-1
  6
CONTINUOUS
 62
     7
100
AcDbLine
 10
338.803141
 20
11.913462
 30
0.0
 11
340.374636
 21
13.484956
 31
0.0
  0
LINE
  5
282
330
1F
100
AcDbEntity
  8
GR1-1
  6
CONTINUOUS
 62
     7
100
AcDbLine
 10
341.190982
 20
14.301302
 30
0.0
 11
341.8019
 21
14.91222
 31
0.0
  0
LINE
  5
283
330
1F
100
AcDbEntity
  8
GR1-1
  6
CONTINUOUS
 62
     7
100
AcDbLine
 10
341.88968
 20
15.0
 30
0.0
 11
342.414059
 21
15.524379
 31
0.0
  0
LINE
  5
284
330
1F
100
AcDbEntity
  8
GR1-1
  6
CONTINUOUS
 62
     7
100
AcDbLine
 10
343.230405
 20
16.340725
 30
0.0
 11
344.8019
 21
17.91222
 31
0.0
  0
LINE
  5
285
330
1F
100
AcDbEntity
  8
GR1-1
  6
CONTINUOUS
 62
     7
100
AcDbLine
 10
338.8019
 20
11.982931
 30
0.0
 11
340.339281
 21
13.520312
 31
0.0
  0
LINE
  5
286
330
1F
100
AcDbEntity
  8
GR1-1
  6
CONTINUOUS
 62
     7
100
AcDbLine
 10
341.155627
 20
14.336658
 30
0.0
 11
341.8019
 21
14.982931
 31
0.0
  0
LINE
  5
287
330
1F
100
AcDbEntity
  8
GR1-1
  6
CONTINUOUS
 62
     7
100
AcDbLine
 10
341.818969
 20
15.0
 30
0.0
 11
342.378704
 21
15.559735
 31
0.0
  0
LINE
  5
288
330
1F
100
AcDbEntity
  8
GR1-1
  6
CONTINUOUS
 62
     7
100
AcDbLine
 10
343.19505
 20
16.376081
 30
0.0
 11
344.73243
 21
17.913462
 31
0.0
  0
LINE
  5
289
330
1F
100
AcDbEntity
  8
GR1-1
  6
CONTINUOUS
 62
     7
100
AcDbLine
 10
338.8019
 20
12.053642
 30
0.0
 11
340.303925
 21
13.555667
 31
0.0
  0
LINE
  5
28A
330
1F
100
AcDbEntity
  8
GR1-1
  6
CONTINUOUS
 62
     7
100
AcDbLine
 10
341.120271
 20
14.372013
 30
0.0
 11
342.343348
 21
15.59509
 31
0.0
  0
LINE
  5
28B
330
1F
100
AcDbEntity
  8
GR1-1
  6
CONTINUOUS
 62
     7
100
AcDbLine
 10
343.159694
 20
16.411436
 30
0.0
 11
344.66172
 21
17.913462
 31
0.0
  0
LINE
  5
28C
330
1F
100
AcDbEntity
  8
GR1-1
  6
CONTINUOUS
 62
     7
100
AcDbLine
 10
338.8019
 20
12.124352
 30
0.0
 11
340.26857
 21
13.591022
 31
0.0
  0
LINE
  5
28D
330
1F
100
AcDbEntity
  8
GR1-1
  6
CONTINUOUS
 62
     7
100
AcDbLine
 10
341.084916
 20
14.407368
 30
0.0
 11
342.307993
 21
15.630445
 31
0.0
  0
LINE
  5
28E
330
1F
100
AcDbEntity
  8
GR1-1
  6
CONTINUOUS
 62
     7
100
AcDbLine
 10
343.124339
 20
16.446791
 30
0.0
 11
344.591009
 21
17.913462
 31
0.0
  0
LINE
  5
28F
330
1F
100
AcDbEntity
  8
GR1-1
  6
CONTINUOUS
 62
     7
100
AcDbLine
 10
338.8019
 20
12.195063
 30
0.0
 11
340.233214
 21
13.626378
 31
0.0
  0
LINE
  5
290
330
1F
100
AcDbEntity
  8
GR1-1
  6
CONTINUOUS
 62
     7
100
AcDbLine
 10
341.049561
 20
14.442724
 30
0.0
 11
342.272638
 21
15.665801
 31
0.0
  0
LINE
  5
291
330
1F
100
AcDbEntity
  8
GR1-1
  6
CONTINUOUS
 62
     7
100
AcDbLine
 10
343.088984
 20
16.482147
 30
0.0
 11
344.520298
 21
17.913462
 31
0.0
  0
LINE
  5
292
330
1F
100
AcDbEntity
  8
GR1-1
  6
CONTINUOUS
 62
     7
100
AcDbLine
 10
338.8019
 20
12.265774
 30
0.0
 11
340.197859
 21
13.661733
 31
0.0
  0
LINE
  5
293
330
1F
100
AcDbEntity
  8
GR1-1
  6
CONTINUOUS
 62
     7
100
AcDbLine
 10
341.014205
 20
14.478079
 30
0.0
 11
342.237282
 21
15.701156
 31
0.0
  0
LINE
  5
294
330
1F
100
AcDbEntity
  8
GR1-1
  6
CONTINUOUS
 62
     7
100
AcDbLine
 10
343.053628
 20
16.517502
 30
0.0
 11
344.449588
 21
17.913462
 31
0.0
  0
LINE
  5
295
330
1F
100
AcDbEntity
  8
GR1-1
  6
CONTINUOUS
 62
     7
100
AcDbLine
 10
338.8019
 20
12.336484
 30
0.0
 11
340.162504
 21
13.697088
 31
0.0
  0
LINE
  5
296
330
1F
100
AcDbEntity
  8
GR1-1
  6
CONTINUOUS
 62
     7
100
AcDbLine
 10
340.97885
 20
14.513434
 30
0.0
 11
342.201927
 21
15.736511
 31
0.0
  0
LINE
  5
297
330
1F
100
AcDbEntity
  8
GR1-1
  6
CONTINUOUS
 62
     7
100
AcDbLine
 10
343.018273
 20
16.552857
 30
0.0
 11
344.378877
 21
17.913462
 31
0.0
  0
LINE
  5
298
330
1F
100
AcDbEntity
  8
GR1-1
  6
CONTINUOUS
 62
     7
100
AcDbLine
 10
338.8019
 20
12.407195
 30
0.0
 11
340.127148
 21
13.732444
 31
0.0
  0
LINE
  5
299
330
1F
100
AcDbEntity
  8
GR1-1
  6
CONTINUOUS
 62
     7
100
AcDbLine
 10
340.943495
 20
14.54879
 30
0.0
 11
342.166572
 21
15.771867
 31
0.0
  0
LINE
  5
29A
330
1F
100
AcDbEntity
  8
GR1-1
  6
CONTINUOUS
 62
     7
100
AcDbLine
 10
342.982918
 20
16.588213
 30
0.0
 11
344.308166
 21
17.913462
 31
0.0
  0
LINE
  5
29B
330
1F
100
AcDbEntity
  8
GR1-1
  6
CONTINUOUS
 62
     7
100
AcDbLine
 10
338.8019
 20
12.477906
 30
0.0
 11
340.091793
 21
13.767799
 31
0.0
  0
LINE
  5
29C
330
1F
100
AcDbEntity
  8
GR1-1
  6
CONTINUOUS
 62
     7
100
AcDbLine
 10
340.908139
 20
14.584145
 30
0.0
 11
342.131216
 21
15.807222
 31
0.0
  0
LINE
  5
29D
330
1F
100
AcDbEntity
  8
GR1-1
  6
CONTINUOUS
 62
     7
100
AcDbLine
 10
342.947562
 20
16.623568
 30
0.0
 11
344.237456
 21
17.913462
 31
0.0
  0
LINE
  5
29E
330
1F
100
AcDbEntity
  8
GR1-1
  6
CONTINUOUS
 62
     7
100
AcDbLine
 10
338.8019
 20
12.548616
 30
0.0
 11
340.056438
 21
13.803154
 31
0.0
  0
LINE
  5
29F
330
1F
100
AcDbEntity
  8
GR1-1
  6
CONTINUOUS
 62
     7
100
AcDbLine
 10
340.872784
 20
14.6195
 30
0.0
 11
342.095861
 21
15.842577
 31
0.0
  0
LINE
  5
2A0
330
1F
100
AcDbEntity
  8
GR1-1
  6
CONTINUOUS
 62
     7
100
AcDbLine
 10
342.912207
 20
16.658923
 30
0.0
 11
344.166745
 21
17.913462
 31
0.0
  0
LINE
  5
2A1
330
1F
100
AcDbEntity
  8
GR1-1
  6
CONTINUOUS
 62
     7
100
AcDbLine
 10
338.8019
 20
12.619327
 30
0.0
 11
340.021082
 21
13.83851
 31
0.0
  0
LINE
  5
2A2
330
1F
100
AcDbEntity
  8
GR1-1
  6
CONTINUOUS
 62
     7
100
AcDbLine
 10
340.837429
 20
14.654856
 30
0.0
 11
342.060506
 21
15.877933
 31
0.0
  0
LINE
  5
2A3
330
1F
100
AcDbEntity
  8
GR1-1
  6
CONTINUOUS
 62
     7
100
AcDbLine
 10
342.876852
 20
16.694279
 30
0.0
 11
344.096034
 21
17.913462
 31
0.0
  0
LINE
  5
2A4
330
1F
100
AcDbEntity
  8
GR1-1
  6
CONTINUOUS
 62
     7
100
AcDbLine
 10
338.8019
 20
12.690038
 30
0.0
 11
339.985727
 21
13.873865
 31
0.0
  0
LINE
  5
2A5
330
1F
100
AcDbEntity
  8
GR1-1
  6
CONTINUOUS
 62
     7
100
AcDbLine
 10
340.802073
 20
14.690211
 30
0.0
 11
342.02515
 21
15.913288
 31
0.0
  0
LINE
  5
2A6
330
1F
100
AcDbEntity
  8
GR1-1
  6
CONTINUOUS
 62
     7
100
AcDbLine
 10
342.841496
 20
16.729634
 30
0.0
 11
344.025324
 21
17.913462
 31
0.0
  0
LINE
  5
2A7
330
1F
100
AcDbEntity
  8
GR1-1
  6
CONTINUOUS
 62
     7
100
AcDbLine
 10
338.8019
 20
12.760748
 30
0.0
 11
339.950372
 21
13.90922
 31
0.0
  0
LINE
  5
2A8
330
1F
100
AcDbEntity
  8
GR1-1
  6
CONTINUOUS
 62
     7
100
AcDbLine
 10
340.766718
 20
14.725566
 30
0.0
 11
341.989795
 21
15.948643
 31
0.0
  0
LINE
  5
2A9
330
1F
100
AcDbEntity
  8
GR1-1
  6
CONTINUOUS
 62
     7
100
AcDbLine
 10
342.806141
 20
16.76499
 30
0.0
 11
343.954613
 21
17.913462
 31
0.0
  0
LINE
  5
2AA
330
1F
100
AcDbEntity
  8
GR1-1
  6
CONTINUOUS
 62
     7
100
AcDbLine
 10
338.8019
 20
12.831459
 30
0.0
 11
339.915016
 21
13.944576
 31
0.0
  0
LINE
  5
2AB
330
1F
100
AcDbEntity
  8
GR1-1
  6
CONTINUOUS
 62
     7
100
AcDbLine
 10
340.731363
 20
14.760922
 30
0.0
 11
341.95444
 21
15.983999
 31
0.0
  0
LINE
  5
2AC
330
1F
100
AcDbEntity
  8
GR1-1
  6
CONTINUOUS
 62
     7
100
AcDbLine
 10
342.770786
 20
16.800345
 30
0.0
 11
343.883902
 21
17.913462
 31
0.0
  0
LINE
  5
2AD
330
1F
100
AcDbEntity
  8
GR1-1
  6
CONTINUOUS
 62
     7
100
AcDbLine
 10
338.8019
 20
12.90217
 30
0.0
 11
339.879661
 21
13.979931
 31
0.0
  0
LINE
  5
2AE
330
1F
100
AcDbEntity
  8
GR1-1
  6
CONTINUOUS
 62
     7
100
AcDbLine
 10
340.696007
 20
14.796277
 30
0.0
 11
341.919084
 21
16.019354
 31
0.0
  0
LINE
  5
2AF
330
1F
100
AcDbEntity
  8
GR1-1
  6
CONTINUOUS
 62
     7
100
AcDbLine
 10
342.73543
 20
16.8357
 30
0.0
 11
343.813192
 21
17.913462
 31
0.0
  0
LINE
  5
2B0
330
1F
100
AcDbEntity
  8
GR1-1
  6
CONTINUOUS
 62
     7
100
AcDbLine
 10
338.8019
 20
12.97288
 30
0.0
 11
339.844306
 21
14.015286
 31
0.0
  0
LINE
  5
2B1
330
1F
100
AcDbEntity
  8
GR1-1
  6
CONTINUOUS
 62
     7
100
AcDbLine
 10
340.660652
 20
14.831632
 30
0.0
 11
341.883729
 21
16.054709
 31
0.0
  0
LINE
  5
2B2
330
1F
100
AcDbEntity
  8
GR1-1
  6
CONTINUOUS
 62
     7
100
AcDbLine
 10
342.700075
 20
16.871056
 30
0.0
 11
343.742481
 21
17.913462
 31
0.0
  0
LINE
  5
2B3
330
1F
100
AcDbEntity
  8
GR1-1
  6
CONTINUOUS
 62
     7
100
AcDbLine
 10
338.8019
 20
13.043591
 30
0.0
 11
339.80895
 21
14.050642
 31
0.0
  0
LINE
  5
2B4
330
1F
100
AcDbEntity
  8
GR1-1
  6
CONTINUOUS
 62
     7
100
AcDbLine
 10
340.625297
 20
14.866988
 30
0.0
 11
341.848373
 21
16.090065
 31
0.0
  0
LINE
  5
2B5
330
1F
100
AcDbEntity
  8
GR1-1
  6
CONTINUOUS
 62
     7
100
AcDbLine
 10
342.66472
 20
16.906411
 30
0.0
 11
343.67177
 21
17.913462
 31
0.0
  0
LINE
  5
2B6
330
1F
100
AcDbEntity
  8
GR1-1
  6
CONTINUOUS
 62
     7
100
AcDbLine
 10
338.8019
 20
13.114302
 30
0.0
 11
339.773595
 21
14.085997
 31
0.0
  0
LINE
  5
2B7
330
1F
100
AcDbEntity
  8
GR1-1
  6
CONTINUOUS
 62
     7
100
AcDbLine
 10
340.589941
 20
14.902343
 30
0.0
 11
341.813018
 21
16.12542
 31
0.0
  0
LINE
  5
2B8
330
1F
100
AcDbEntity
  8
GR1-1
  6
CONTINUOUS
 62
     7
100
AcDbLine
 10
342.629364
 20
16.941766
 30
0.0
 11
343.60106
 21
17.913462
 31
0.0
  0
LINE
  5
2B9
330
1F
100
AcDbEntity
  8
GR1-1
  6
CONTINUOUS
 62
     7
100
AcDbLine
 10
338.8019
 20
13.185012
 30
0.0
 11
339.73824
 21
14.121352
 31
0.0
  0
LINE
  5
2BA
330
1F
100
AcDbEntity
  8
GR1-1
  6
CONTINUOUS
 62
     7
100
AcDbLine
 10
342.594009
 20
16.977122
 30
0.0
 11
343.530349
 21
17.913462
 31
0.0
  0
LINE
  5
2BB
330
1F
100
AcDbEntity
  8
GR1-1
  6
CONTINUOUS
 62
     7
100
AcDbLine
 10
338.8019
 20
13.255723
 30
0.0
 11
339.702884
 21
14.156708
 31
0.0
  0
LINE
  5
2BC
330
1F
100
AcDbEntity
  8
GR1-1
  6
CONTINUOUS
 62
     7
100
AcDbLine
 10
342.558654
 20
17.012477
 30
0.0
 11
343.459638
 21
17.913462
 31
0.0
  0
LINE
  5
2BD
330
1F
100
AcDbEntity
  8
GR1-1
  6
CONTINUOUS
 62
     7
100
AcDbLine
 10
338.8019
 20
13.326434
 30
0.0
 11
339.667529
 21
14.192063
 31
0.0
  0
LINE
  5
2BE
330
1F
100
AcDbEntity
  8
GR1-1
  6
CONTINUOUS
 62
     7
100
AcDbLine
 10
342.523298
 20
17.047832
 30
0.0
 11
343.388928
 21
17.913462
 31
0.0
  0
LINE
  5
2BF
330
1F
100
AcDbEntity
  8
GR1-1
  6
CONTINUOUS
 62
     7
100
AcDbLine
 10
338.8019
 20
13.397144
 30
0.0
 11
339.632174
 21
14.227418
 31
0.0
  0
LINE
  5
2C0
330
1F
100
AcDbEntity
  8
GR1-1
  6
CONTINUOUS
 62
     7
100
AcDbLine
 10
342.487943
 20
17.083188
 30
0.0
 11
343.318217
 21
17.913462
 31
0.0
  0
LINE
  5
2C1
330
1F
100
AcDbEntity
  8
GR1-1
  6
CONTINUOUS
 62
     7
100
AcDbLine
 10
338.8019
 20
13.467855
 30
0.0
 11
339.596818
 21
14.262774
 31
0.0
  0
LINE
  5
2C2
330
1F
100
AcDbEntity
  8
GR1-1
  6
CONTINUOUS
 62
     7
100
AcDbLine
 10
342.452588
 20
17.118543
 30
0.0
 11
343.247506
 21
17.913462
 31
0.0
  0
LINE
  5
2C3
330
1F
100
AcDbEntity
  8
GR1-1
  6
CONTINUOUS
 62
     7
100
AcDbLine
 10
338.8019
 20
13.538566
 30
0.0
 11
339.561463
 21
14.298129
 31
0.0
  0
LINE
  5
2C4
330
1F
100
AcDbEntity
  8
GR1-1
  6
CONTINUOUS
 62
     7
100
AcDbLine
 10
342.417232
 20
17.153898
 30
0.0
 11
343.176796
 21
17.913462
 31
0.0
  0
LINE
  5
2C5
330
1F
100
AcDbEntity
  8
GR1-1
  6
CONTINUOUS
 62
     7
100
AcDbLine
 10
338.8019
 20
13.609276
 30
0.0
 11
339.526108
 21
14.333484
 31
0.0
  0
LINE
  5
2C6
330
1F
100
AcDbEntity
  8
GR1-1
  6
CONTINUOUS
 62
     7
100
AcDbLine
 10
342.381877
 20
17.189254
 30
0.0
 11
343.106085
 21
17.913462
 31
0.0
  0
LINE
  5
2C7
330
1F
100
AcDbEntity
  8
GR1-1
  6
CONTINUOUS
 62
     7
100
AcDbLine
 10
338.8019
 20
13.679987
 30
0.0
 11
339.490752
 21
14.36884
 31
0.0
  0
LINE
  5
2C8
330
1F
100
AcDbEntity
  8
GR1-1
  6
CONTINUOUS
 62
     7
100
AcDbLine
 10
342.346522
 20
17.224609
 30
0.0
 11
343.035374
 21
17.913462
 31
0.0
  0
LINE
  5
2C9
330
1F
100
AcDbEntity
  8
GR1-1
  6
CONTINUOUS
 62
     7
100
AcDbLine
 10
338.8019
 20
13.750698
 30
0.0
 11
339.455397
 21
14.404195
 31
0.0
  0
LINE
  5
2CA
330
1F
100
AcDbEntity
  8
GR1-1
  6
CONTINUOUS
 62
     7
100
AcDbLine
 10
342.311166
 20
17.259964
 30
0.0
 11
342.964664
 21
17.913462
 31
0.0
  0
LINE
  5
2CB
330
1F
100
AcDbEntity
  8
GR1-1
  6
CONTINUOUS
 62
     7
100
AcDbLine
 10
338.8019
 20
13.821408
 30
0.0
 11
339.420042
 21
14.43955
 31
0.0
  0
LINE
  5
2CC
330
1F
100
AcDbEntity
  8
GR1-1
  6
CONTINUOUS
 62
     7
100
AcDbLine
 10
342.275811
 20
17.29532
 30
0.0
 11
342.893953
 21
17.913462
 31
0.0
  0
LINE
  5
2CD
330
1F
100
AcDbEntity
  8
GR1-1
  6
CONTINUOUS
 62
     7
100
AcDbLine
 10
338.8019
 20
13.892119
 30
0.0
 11
339.384686
 21
14.474906
 31
0.0
  0
LINE
  5
2CE
330
1F
100
AcDbEntity
  8
GR1-1
  6
CONTINUOUS
 62
     7
100
AcDbLine
 10
342.240456
 20
17.330675
 30
0.0
 11
342.823242
 21
17.913462
 31
0.0
  0
LINE
  5
2CF
330
1F
100
AcDbEntity
  8
GR1-1
  6
CONTINUOUS
 62
     7
100
AcDbLine
 10
338.8019
 20
13.96283
 30
0.0
 11
339.349331
 21
14.510261
 31
0.0
  0
LINE
  5
2D0
330
1F
100
AcDbEntity
  8
GR1-1
  6
CONTINUOUS
 62
     7
100
AcDbLine
 10
342.2051
 20
17.36603
 30
0.0
 11
342.752531
 21
17.913462
 31
0.0
  0
LINE
  5
2D1
330
1F
100
AcDbEntity
  8
GR1-1
  6
CONTINUOUS
 62
     7
100
AcDbLine
 10
338.8019
 20
14.033541
 30
0.0
 11
339.313976
 21
14.545616
 31
0.0
  0
LINE
  5
2D2
330
1F
100
AcDbEntity
  8
GR1-1
  6
CONTINUOUS
 62
     7
100
AcDbLine
 10
342.169745
 20
17.401386
 30
0.0
 11
342.681821
 21
17.913462
 31
0.0
  0
LINE
  5
2D3
330
1F
100
AcDbEntity
  8
GR1-1
  6
CONTINUOUS
 62
     7
100
AcDbLine
 10
338.8019
 20
14.104251
 30
0.0
 11
339.27862
 21
14.580972
 31
0.0
  0
LINE
  5
2D4
330
1F
100
AcDbEntity
  8
GR1-1
  6
CONTINUOUS
 62
     7
100
AcDbLine
 10
342.13439
 20
17.436741
 30
0.0
 11
342.61111
 21
17.913462
 31
0.0
  0
LINE
  5
2D5
330
1F
100
AcDbEntity
  8
GR1-1
  6
CONTINUOUS
 62
     7
100
AcDbLine
 10
338.8019
 20
14.174962
 30
0.0
 11
339.243265
 21
14.616327
 31
0.0
  0
LINE
  5
2D6
330
1F
100
AcDbEntity
  8
GR1-1
  6
CONTINUOUS
 62
     7
100
AcDbLine
 10
342.099034
 20
17.472096
 30
0.0
 11
342.540399
 21
17.913462
 31
0.0
  0
LINE
  5
2D7
330
1F
100
AcDbEntity
  8
GR1-1
  6
CONTINUOUS
 62
     7
100
AcDbLine
 10
338.8019
 20
14.245673
 30
0.0
 11
339.20791
 21
14.651682
 31
0.0
  0
LINE
  5
2D8
330
1F
100
AcDbEntity
  8
GR1-1
  6
CONTINUOUS
 62
     7
100
AcDbLine
 10
342.063679
 20
17.507452
 30
0.0
 11
342.469689
 21
17.913462
 31
0.0
  0
LINE
  5
2D9
330
1F
100
AcDbEntity
  8
GR1-1
  6
CONTINUOUS
 62
     7
100
AcDbLine
 10
338.8019
 20
14.316383
 30
0.0
 11
339.172554
 21
14.687038
 31
0.0
  0
LINE
  5
2DA
330
1F
100
AcDbEntity
  8
GR1-1
  6
CONTINUOUS
 62
     7
100
AcDbLine
 10
342.028324
 20
17.542807
 30
0.0
 11
342.398978
 21
17.913462
 31
0.0
  0
LINE
  5
2DB
330
1F
100
AcDbEntity
  8
GR1-1
  6
CONTINUOUS
 62
     7
100
AcDbLine
 10
338.8019
 20
14.387094
 30
0.0
 11
339.137199
 21
14.722393
 31
0.0
  0
LINE
  5
2DC
330
1F
100
AcDbEntity
  8
GR1-1
  6
CONTINUOUS
 62
     7
100
AcDbLine
 10
341.992968
 20
17.578162
 30
0.0
 11
342.328267
 21
17.913462
 31
0.0
  0
LINE
  5
2DD
330
1F
100
AcDbEntity
  8
GR1-1
  6
CONTINUOUS
 62
     7
100
AcDbLine
 10
338.8019
 20
14.457805
 30
0.0
 11
339.101844
 21
14.757748
 31
0.0
  0
LINE
  5
2DE
330
1F
100
AcDbEntity
  8
GR1-1
  6
CONTINUOUS
 62
     7
100
AcDbLine
 10
341.957613
 20
17.613518
 30
0.0
 11
342.257557
 21
17.913462
 31
0.0
  0
LINE
  5
2DF
330
1F
100
AcDbEntity
  8
GR1-1
  6
CONTINUOUS
 62
     7
100
AcDbLine
 10
338.8019
 20
14.528515
 30
0.0
 11
339.066488
 21
14.793104
 31
0.0
  0
LINE
  5
2E0
330
1F
100
AcDbEntity
  8
GR1-1
  6
CONTINUOUS
 62
     7
100
AcDbLine
 10
341.922258
 20
17.648873
 30
0.0
 11
342.186846
 21
17.913462
 31
0.0
  0
LINE
  5
2E1
330
1F
100
AcDbEntity
  8
GR1-1
  6
CONTINUOUS
 62
     7
100
AcDbLine
 10
338.8019
 20
14.599226
 30
0.0
 11
339.031133
 21
14.828459
 31
0.0
  0
LINE
  5
2E2
330
1F
100
AcDbEntity
  8
GR1-1
  6
CONTINUOUS
 62
     7
100
AcDbLine
 10
341.886902
 20
17.684228
 30
0.0
 11
342.116135
 21
17.913462
 31
0.0
  0
LINE
  5
2E3
330
1F
100
AcDbEntity
  8
GR1-1
  6
CONTINUOUS
 62
     7
100
AcDbLine
 10
338.8019
 20
14.669937
 30
0.0
 11
338.995778
 21
14.863814
 31
0.0
  0
LINE
  5
2E4
330
1F
100
AcDbEntity
  8
GR1-1
  6
CONTINUOUS
 62
     7
100
AcDbLine
 10
341.851547
 20
17.719584
 30
0.0
 11
342.045425
 21
17.913462
 31
0.0
  0
LINE
  5
2E5
330
1F
100
AcDbEntity
  8
GR1-1
  6
CONTINUOUS
 62
     7
100
AcDbLine
 10
338.8019
 20
14.740647
 30
0.0
 11
338.960422
 21
14.89917
 31
0.0
  0
LINE
  5
2E6
330
1F
100
AcDbEntity
  8
GR1-1
  6
CONTINUOUS
 62
     7
100
AcDbLine
 10
341.816192
 20
17.754939
 30
0.0
 11
341.974714
 21
17.913462
 31
0.0
  0
LINE
  5
2E7
330
1F
100
AcDbEntity
  8
GR1-1
  6
CONTINUOUS
 62
     7
100
AcDbLine
 10
338.8019
 20
14.811358
 30
0.0
 11
341.904003
 21
17.913462
 31
0.0
  0
LINE
  5
2E8
330
1F
100
AcDbEntity
  8
GR1-1
  6
CONTINUOUS
 62
     7
100
AcDbLine
 10
338.8019
 20
14.882069
 30
0.0
 11
341.833293
 21
17.913462
 31
0.0
  0
LINE
  5
2E9
330
1F
100
AcDbEntity
  8
GR1-1
  6
CONTINUOUS
 62
     7
100
AcDbLine
 10
338.8019
 20
14.952779
 30
0.0
 11
341.762582
 21
17.913462
 31
0.0
  0
LINE
  5
2EA
330
1F
100
AcDbEntity
  8
GR1-1
  6
CONTINUOUS
 62
     7
100
AcDbLine
 10
338.8019
 20
15.02349
 30
0.0
 11
341.691871
 21
17.913462
 31
0.0
  0
LINE
  5
2EB
330
1F
100
AcDbEntity
  8
GR1-1
  6
CONTINUOUS
 62
     7
100
AcDbLine
 10
338.8019
 20
15.094201
 30
0.0
 11
341.621161
 21
17.913462
 31
0.0
  0
LINE
  5
2EC
330
1F
100
AcDbEntity
  8
GR1-1
  6
CONTINUOUS
 62
     7
100
AcDbLine
 10
338.8019
 20
15.164911
 30
0.0
 11
341.55045
 21
17.913462
 31
0.0
  0
LINE
  5
2ED
330
1F
100
AcDbEntity
  8
GR1-1
  6
CONTINUOUS
 62
     7
100
AcDbLine
 10
338.8019
 20
15.235622
 30
0.0
 11
341.479739
 21
17.913462
 31
0.0
  0
LINE
  5
2EE
330
1F
100
AcDbEntity
  8
GR1-1
  6
CONTINUOUS
 62
     7
100
AcDbLine
 10
338.8019
 20
15.306333
 30
0.0
 11
341.409029
 21
17.913462
 31
0.0
  0
LINE
  5
2EF
330
1F
100
AcDbEntity
  8
GR1-1
  6
CONTINUOUS
 62
     7
100
AcDbLine
 10
338.8019
 20
15.377043
 30
0.0
 11
341.338318
 21
17.913462
 31
0.0
  0
LINE
  5
2F0
330
1F
100
AcDbEntity
  8
GR1-1
  6
CONTINUOUS
 62
     7
100
AcDbLine
 10
338.8019
 20
15.447754
 30
0.0
 11
341.267607
 21
17.913462
 31
0.0
  0
LINE
  5
2F1
330
1F
100
AcDbEntity
  8
GR1-1
  6
CONTINUOUS
 62
     7
100
AcDbLine
 10
338.8019
 20
15.518465
 30
0.0
 11
341.196897
 21
17.913462
 31
0.0
  0
LINE
  5
2F2
330
1F
100
AcDbEntity
  8
GR1-1
  6
CONTINUOUS
 62
     7
100
AcDbLine
 10
338.8019
 20
15.589175
 30
0.0
 11
341.126186
 21
17.913462
 31
0.0
  0
LINE
  5
2F3
330
1F
100
AcDbEntity
  8
GR1-1
  6
CONTINUOUS
 62
     7
100
AcDbLine
 10
338.8019
 20
15.659886
 30
0.0
 11
341.055475
 21
17.913462
 31
0.0
  0
LINE
  5
2F4
330
1F
100
AcDbEntity
  8
GR1-1
  6
CONTINUOUS
 62
     7
100
AcDbLine
 10
338.8019
 20
15.730597
 30
0.0
 11
340.984765
 21
17.913462
 31
0.0
  0
LINE
  5
2F5
330
1F
100
AcDbEntity
  8
GR1-1
  6
CONTINUOUS
 62
     7
100
AcDbLine
 10
338.8019
 20
15.801307
 30
0.0
 11
340.914054
 21
17.913462
 31
0.0
  0
LINE
  5
2F6
330
1F
100
AcDbEntity
  8
GR1-1
  6
CONTINUOUS
 62
     7
100
AcDbLine
 10
338.8019
 20
15.872018
 30
0.0
 11
340.843343
 21
17.913462
 31
0.0
  0
LINE
  5
2F7
330
1F
100
AcDbEntity
  8
GR1-1
  6
CONTINUOUS
 62
     7
100
AcDbLine
 10
338.8019
 20
15.942729
 30
0.0
 11
340.772632
 21
17.913462
 31
0.0
  0
LINE
  5
2F8
330
1F
100
AcDbEntity
  8
GR1-1
  6
CONTINUOUS
 62
     7
100
AcDbLine
 10
338.8019
 20
16.013439
 30
0.0
 11
340.701922
 21
17.913462
 31
0.0
  0
LINE
  5
2F9
330
1F
100
AcDbEntity
  8
GR1-1
  6
CONTINUOUS
 62
     7
100
AcDbLine
 10
338.8019
 20
16.08415
 30
0.0
 11
340.631211
 21
17.913462
 31
0.0
  0
LINE
  5
2FA
330
1F
100
AcDbEntity
  8
GR1-1
  6
CONTINUOUS
 62
     7
100
AcDbLine
 10
338.8019
 20
16.154861
 30
0.0
 11
340.5605
 21
17.913462
 31
0.0
  0
LINE
  5
2FB
330
1F
100
AcDbEntity
  8
GR1-1
  6
CONTINUOUS
 62
     7
100
AcDbLine
 10
338.8019
 20
16.225572
 30
0.0
 11
340.48979
 21
17.913462
 31
0.0
  0
LINE
  5
2FC
330
1F
100
AcDbEntity
  8
GR1-1
  6
CONTINUOUS
 62
     7
100
AcDbLine
 10
338.8019
 20
16.296282
 30
0.0
 11
340.419079
 21
17.913462
 31
0.0
  0
LINE
  5
2FD
330
1F
100
AcDbEntity
  8
GR1-1
  6
CONTINUOUS
 62
     7
100
AcDbLine
 10
338.8019
 20
16.366993
 30
0.0
 11
340.348368
 21
17.913462
 31
0.0
  0
LINE
  5
2FE
330
1F
100
AcDbEntity
  8
GR1-1
  6
CONTINUOUS
 62
     7
100
AcDbLine
 10
338.8019
 20
16.437704
 30
0.0
 11
340.277658
 21
17.913462
 31
0.0
  0
LINE
  5
2FF
330
1F
100
AcDbEntity
  8
GR1-1
  6
CONTINUOUS
 62
     7
100
AcDbLine
 10
338.8019
 20
16.508414
 30
0.0
 11
340.206947
 21
17.913462
 31
0.0
  0
LINE
  5
300
330
1F
100
AcDbEntity
  8
GR1-1
  6
CONTINUOUS
 62
     7
100
AcDbLine
 10
338.8019
 20
16.579125
 30
0.0
 11
340.136236
 21
17.913462
 31
0.0
  0
LINE
  5
301
330
1F
100
AcDbEntity
  8
GR1-1
  6
CONTINUOUS
 62
     7
100
AcDbLine
 10
338.8019
 20
16.649836
 30
0.0
 11
340.065526
 21
17.913462
 31
0.0
  0
LINE
  5
302
330
1F
100
AcDbEntity
  8
GR1-1
  6
CONTINUOUS
 62
     7
100
AcDbLine
 10
338.8019
 20
16.720546
 30
0.0
 11
339.994815
 21
17.913462
 31
0.0
  0
LINE
  5
303
330
1F
100
AcDbEntity
  8
GR1-1
  6
CONTINUOUS
 62
     7
100
AcDbLine
 10
338.8019
 20
16.791257
 30
0.0
 11
339.924104
 21
17.913462
 31
0.0
  0
LINE
  5
304
330
1F
100
AcDbEntity
  8
GR1-1
  6
CONTINUOUS
 62
     7
100
AcDbLine
 10
338.8019
 20
16.861968
 30
0.0
 11
339.853394
 21
17.913462
 31
0.0
  0
LINE
  5
305
330
1F
100
AcDbEntity
  8
GR1-1
  6
CONTINUOUS
 62
     7
100
AcDbLine
 10
338.8019
 20
16.932678
 30
0.0
 11
339.782683
 21
17.913462
 31
0.0
  0
LINE
  5
306
330
1F
100
AcDbEntity
  8
GR1-1
  6
CONTINUOUS
 62
     7
100
AcDbLine
 10
338.8019
 20
17.003389
 30
0.0
 11
339.711972
 21
17.913462
 31
0.0
  0
LINE
  5
307
330
1F
100
AcDbEntity
  8
GR1-1
  6
CONTINUOUS
 62
     7
100
AcDbLine
 10
338.8019
 20
17.0741
 30
0.0
 11
339.641262
 21
17.913462
 31
0.0
  0
LINE
  5
308
330
1F
100
AcDbEntity
  8
GR1-1
  6
CONTINUOUS
 62
     7
100
AcDbLine
 10
338.8019
 20
17.14481
 30
0.0
 11
339.570551
 21
17.913462
 31
0.0
  0
LINE
  5
309
330
1F
100
AcDbEntity
  8
GR1-1
  6
CONTINUOUS
 62
     7
100
AcDbLine
 10
338.8019
 20
17.215521
 30
0.0
 11
339.49984
 21
17.913462
 31
0.0
  0
LINE
  5
30A
330
1F
100
AcDbEntity
  8
GR1-1
  6
CONTINUOUS
 62
     7
100
AcDbLine
 10
338.8019
 20
17.286232
 30
0.0
 11
339.42913
 21
17.913462
 31
0.0
  0
LINE
  5
30B
330
1F
100
AcDbEntity
  8
GR1-1
  6
CONTINUOUS
 62
     7
100
AcDbLine
 10
338.8019
 20
17.356942
 30
0.0
 11
339.358419
 21
17.913462
 31
0.0
  0
LINE
  5
30C
330
1F
100
AcDbEntity
  8
GR1-1
  6
CONTINUOUS
 62
     7
100
AcDbLine
 10
338.8019
 20
17.427653
 30
0.0
 11
339.287708
 21
17.913462
 31
0.0
  0
LINE
  5
30D
330
1F
100
AcDbEntity
  8
GR1-1
  6
CONTINUOUS
 62
     7
100
AcDbLine
 10
338.8019
 20
17.498364
 30
0.0
 11
339.216998
 21
17.913462
 31
0.0
  0
LINE
  5
30E
330
1F
100
AcDbEntity
  8
GR1-1
  6
CONTINUOUS
 62
     7
100
AcDbLine
 10
338.8019
 20
17.569074
 30
0.0
 11
339.146287
 21
17.913462
 31
0.0
  0
LINE
  5
30F
330
1F
100
AcDbEntity
  8
GR1-1
  6
CONTINUOUS
 62
     7
100
AcDbLine
 10
338.8019
 20
17.639785
 30
0.0
 11
339.075576
 21
17.913462
 31
0.0
  0
LINE
  5
310
330
1F
100
AcDbEntity
  8
GR1-1
  6
CONTINUOUS
 62
     7
100
AcDbLine
 10
338.8019
 20
17.710496
 30
0.0
 11
339.004866
 21
17.913462
 31
0.0
  0
LINE
  5
311
330
1F
100
AcDbEntity
  8
GR1-1
  6
CONTINUOUS
 62
     7
100
AcDbLine
 10
338.8019
 20
17.781206
 30
0.0
 11
338.934155
 21
17.913462
 31
0.0
  0
LINE
  5
312
330
1F
100
AcDbEntity
  8
GR1-1
  6
CONTINUOUS
 62
     7
100
AcDbLine
 10
338.8019
 20
17.851917
 30
0.0
 11
338.863444
 21
17.913462
 31
0.0
  0
LINE
  5
313
330
1F
100
AcDbEntity
  8
GR1-1
  6
CONTINUOUS
 62
     7
100
AcDbLine
 10
339.793091
 20
11.913462
 30
0.0
 11
340.869611
 21
12.989981
 31
0.0
  0
LINE
  5
314
330
1F
100
AcDbEntity
  8
GR1-1
  6
CONTINUOUS
 62
     7
100
AcDbLine
 10
341.685957
 20
13.806328
 30
0.0
 11
342.014245
 21
14.134615
 31
0.0
  0
LINE
  5
315
330
1F
100
AcDbEntity
  8
GR1-1
  6
CONTINUOUS
 62
     7
100
AcDbLine
 10
342.879629
 20
15.0
 30
0.0
 11
343.225783
 21
15.346154
 31
0.0
  0
LINE
  5
316
330
1F
100
AcDbEntity
  8
GR1-1
  6
CONTINUOUS
 62
     7
100
AcDbLine
 10
343.72538
 20
15.845751
 30
0.0
 11
344.8019
 21
16.922271
 31
0.0
  0
LINE
  5
317
330
1F
100
AcDbEntity
  8
GR1-1
  6
CONTINUOUS
 62
     7
100
AcDbLine
 10
339.863801
 20
11.913462
 30
0.0
 11
340.904966
 21
12.954626
 31
0.0
  0
LINE
  5
318
330
1F
100
AcDbEntity
  8
GR1-1
  6
CONTINUOUS
 62
     7
100
AcDbLine
 10
341.721312
 20
13.770972
 30
0.0
 11
342.084955
 21
14.134615
 31
0.0
  0
LINE
  5
319
330
1F
100
AcDbEntity
  8
GR1-1
  6
CONTINUOUS
 62
     7
100
AcDbLine
 10
342.95034
 20
15.0
 30
0.0
 11
343.296494
 21
15.346154
 31
0.0
  0
LINE
  5
31A
330
1F
100
AcDbEntity
  8
GR1-1
  6
CONTINUOUS
 62
     7
100
AcDbLine
 10
343.760735
 20
15.810395
 30
0.0
 11
344.8019
 21
16.85156
 31
0.0
  0
LINE
  5
31B
330
1F
100
AcDbEntity
  8
GR1-1
  6
CONTINUOUS
 62
     7
100
AcDbLine
 10
339.934512
 20
11.913462
 30
0.0
 11
340.940321
 21
12.919271
 31
0.0
  0
LINE
  5
31C
330
1F
100
AcDbEntity
  8
GR1-1
  6
CONTINUOUS
 62
     7
100
AcDbLine
 10
341.756667
 20
13.735617
 30
0.0
 11
342.155666
 21
14.134615
 31
0.0
  0
LINE
  5
31D
330
1F
100
AcDbEntity
  8
GR1-1
  6
CONTINUOUS
 62
     7
100
AcDbLine
 10
343.02105
 20
15.0
 30
0.0
 11
343.367204
 21
15.346154
 31
0.0
  0
LINE
  5
31E
330
1F
100
AcDbEntity
  8
GR1-1
  6
CONTINUOUS
 62
     7
100
AcDbLine
 10
343.79609
 20
15.77504
 30
0.0
 11
344.8019
 21
16.780849
 31
0.0
  0
LINE
  5
31F
330
1F
100
AcDbEntity
  8
GR1-1
  6
CONTINUOUS
 62
     7
100
AcDbLine
 10
340.005223
 20
11.913462
 30
0.0
 11
340.975677
 21
12.883915
 31
0.0
  0
LINE
  5
320
330
1F
100
AcDbEntity
  8
GR1-1
  6
CONTINUOUS
 62
     7
100
AcDbLine
 10
341.792023
 20
13.700262
 30
0.0
 11
342.226377
 21
14.134615
 31
0.0
  0
LINE
  5
321
330
1F
100
AcDbEntity
  8
GR1-1
  6
CONTINUOUS
 62
     7
100
AcDbLine
 10
343.091761
 20
15.0
 30
0.0
 11
343.437915
 21
15.346154
 31
0.0
  0
LINE
  5
322
330
1F
100
AcDbEntity
  8
GR1-1
  6
CONTINUOUS
 62
     7
100
AcDbLine
 10
343.831446
 20
15.739685
 30
0.0
 11
344.8019
 21
16.710139
 31
0.0
  0
LINE
  5
323
330
1F
100
AcDbEntity
  8
GR1-1
  6
CONTINUOUS
 62
     7
100
AcDbLine
 10
340.075933
 20
11.913462
 30
0.0
 11
341.011032
 21
12.84856
 31
0.0
  0
LINE
  5
324
330
1F
100
AcDbEntity
  8
GR1-1
  6
CONTINUOUS
 62
     7
100
AcDbLine
 10
343.162472
 20
15.0
 30
0.0
 11
343.508626
 21
15.346154
 31
0.0
  0
LINE
  5
325
330
1F
100
AcDbEntity
  8
GR1-1
  6
CONTINUOUS
 62
     7
100
AcDbLine
 10
343.866801
 20
15.704329
 30
0.0
 11
344.8019
 21
16.639428
 31
0.0
  0
LINE
  5
326
330
1F
100
AcDbEntity
  8
GR1-1
  6
CONTINUOUS
 62
     7
100
AcDbLine
 10
340.146644
 20
11.913462
 30
0.0
 11
341.046387
 21
12.813205
 31
0.0
  0
LINE
  5
327
330
1F
100
AcDbEntity
  8
GR1-1
  6
CONTINUOUS
 62
     7
100
AcDbLine
 10
343.233183
 20
15.0
 30
0.0
 11
343.579336
 21
15.346154
 31
0.0
  0
LINE
  5
328
330
1F
100
AcDbEntity
  8
GR1-1
  6
CONTINUOUS
 62
     7
100
AcDbLine
 10
343.902157
 20
15.668974
 30
0.0
 11
344.8019
 21
16.568717
 31
0.0
  0
LINE
  5
329
330
1F
100
AcDbEntity
  8
GR1-1
  6
CONTINUOUS
 62
     7
100
AcDbLine
 10
340.217355
 20
11.913462
 30
0.0
 11
341.081743
 21
12.777849
 31
0.0
  0
LINE
  5
32A
330
1F
100
AcDbEntity
  8
GR1-1
  6
CONTINUOUS
 62
     7
100
AcDbLine
 10
343.303893
 20
15.0
 30
0.0
 11
343.650047
 21
15.346154
 31
0.0
  0
LINE
  5
32B
330
1F
100
AcDbEntity
  8
GR1-1
  6
CONTINUOUS
 62
     7
100
AcDbLine
 10
343.937512
 20
15.633619
 30
0.0
 11
344.8019
 21
16.498007
 31
0.0
  0
LINE
  5
32C
330
1F
100
AcDbEntity
  8
GR1-1
  6
CONTINUOUS
 62
     7
100
AcDbLine
 10
340.288065
 20
11.913462
 30
0.0
 11
341.117098
 21
12.742494
 31
0.0
  0
LINE
  5
32D
330
1F
100
AcDbEntity
  8
GR1-1
  6
CONTINUOUS
 62
     7
100
AcDbLine
 10
343.374604
 20
15.0
 30
0.0
 11
343.720758
 21
15.346154
 31
0.0
  0
LINE
  5
32E
330
1F
100
AcDbEntity
  8
GR1-1
  6
CONTINUOUS
 62
     7
100
AcDbLine
 10
343.972867
 20
15.598263
 30
0.0
 11
344.8019
 21
16.427296
 31
0.0
  0
LINE
  5
32F
330
1F
100
AcDbEntity
  8
GR1-1
  6
CONTINUOUS
 62
     7
100
AcDbLine
 10
340.358776
 20
11.913462
 30
0.0
 11
341.152453
 21
12.707139
 31
0.0
  0
LINE
  5
330
330
1F
100
AcDbEntity
  8
GR1-1
  6
CONTINUOUS
 62
     7
100
AcDbLine
 10
343.445315
 20
15.0
 30
0.0
 11
343.791468
 21
15.346154
 31
0.0
  0
LINE
  5
331
330
1F
100
AcDbEntity
  8
GR1-1
  6
CONTINUOUS
 62
     7
100
AcDbLine
 10
344.008223
 20
15.562908
 30
0.0
 11
344.8019
 21
16.356585
 31
0.0
  0
LINE
  5
332
330
1F
100
AcDbEntity
  8
GR1-1
  6
CONTINUOUS
 62
     7
100
AcDbLine
 10
340.429487
 20
11.913462
 30
0.0
 11
341.187809
 21
12.671783
 31
0.0
  0
LINE
  5
333
330
1F
100
AcDbEntity
  8
GR1-1
  6
CONTINUOUS
 62
     7
100
AcDbLine
 10
343.516025
 20
15.0
 30
0.0
 11
343.862179
 21
15.346154
 31
0.0
  0
LINE
  5
334
330
1F
100
AcDbEntity
  8
GR1-1
  6
CONTINUOUS
 62
     7
100
AcDbLine
 10
344.043578
 20
15.527553
 30
0.0
 11
344.8019
 21
16.285875
 31
0.0
  0
LINE
  5
335
330
1F
100
AcDbEntity
  8
GR1-1
  6
CONTINUOUS
 62
     7
100
AcDbLine
 10
340.500197
 20
11.913462
 30
0.0
 11
341.223164
 21
12.636428
 31
0.0
  0
LINE
  5
336
330
1F
100
AcDbEntity
  8
GR1-1
  6
CONTINUOUS
 62
     7
100
AcDbLine
 10
343.586736
 20
15.0
 30
0.0
 11
343.93289
 21
15.346154
 31
0.0
  0
LINE
  5
337
330
1F
100
AcDbEntity
  8
GR1-1
  6
CONTINUOUS
 62
     7
100
AcDbLine
 10
344.078933
 20
15.492197
 30
0.0
 11
344.8019
 21
16.215164
 31
0.0
  0
LINE
  5
338
330
1F
100
AcDbEntity
  8
GR1-1
  6
CONTINUOUS
 62
     7
100
AcDbLine
 10
340.570908
 20
11.913462
 30
0.0
 11
341.258519
 21
12.601073
 31
0.0
  0
LINE
  5
339
330
1F
100
AcDbEntity
  8
GR1-1
  6
CONTINUOUS
 62
     7
100
AcDbLine
 10
343.657447
 20
15.0
 30
0.0
 11
344.0036
 21
15.346154
 31
0.0
  0
LINE
  5
33A
330
1F
100
AcDbEntity
  8
GR1-1
  6
CONTINUOUS
 62
     7
100
AcDbLine
 10
344.114289
 20
15.456842
 30
0.0
 11
344.8019
 21
16.144453
 31
0.0
  0
LINE
  5
33B
330
1F
100
AcDbEntity
  8
GR1-1
  6
CONTINUOUS
 62
     7
100
AcDbLine
 10
340.641619
 20
11.913462
 30
0.0
 11
341.293875
 21
12.565717
 31
0.0
  0
LINE
  5
33C
330
1F
100
AcDbEntity
  8
GR1-1
  6
CONTINUOUS
 62
     7
100
AcDbLine
 10
343.728157
 20
15.0
 30
0.0
 11
344.074311
 21
15.346154
 31
0.0
  0
LINE
  5
33D
330
1F
100
AcDbEntity
  8
GR1-1
  6
CONTINUOUS
 62
     7
100
AcDbLine
 10
344.149644
 20
15.421487
 30
0.0
 11
344.8019
 21
16.073743
 31
0.0
  0
LINE
  5
33E
330
1F
100
AcDbEntity
  8
GR1-1
  6
CONTINUOUS
 62
     7
100
AcDbLine
 10
340.712329
 20
11.913462
 30
0.0
 11
341.32923
 21
12.530362
 31
0.0
  0
LINE
  5
33F
330
1F
100
AcDbEntity
  8
GR1-1
  6
CONTINUOUS
 62
     7
100
AcDbLine
 10
343.798868
 20
15.0
 30
0.0
 11
344.145022
 21
15.346154
 31
0.0
  0
LINE
  5
340
330
1F
100
AcDbEntity
  8
GR1-1
  6
CONTINUOUS
 62
     7
100
AcDbLine
 10
344.184999
 20
15.386131
 30
0.0
 11
344.8019
 21
16.003032
 31
0.0
  0
LINE
  5
341
330
1F
100
AcDbEntity
  8
GR1-1
  6
CONTINUOUS
 62
     7
100
AcDbLine
 10
340.78304
 20
11.913462
 30
0.0
 11
341.364585
 21
12.495007
 31
0.0
  0
LINE
  5
342
330
1F
100
AcDbEntity
  8
GR1-1
  6
CONTINUOUS
 62
     7
100
AcDbLine
 10
343.869579
 20
15.0
 30
0.0
 11
344.215732
 21
15.346154
 31
0.0
  0
LINE
  5
343
330
1F
100
AcDbEntity
  8
GR1-1
  6
CONTINUOUS
 62
     7
100
AcDbLine
 10
344.220355
 20
15.350776
 30
0.0
 11
344.8019
 21
15.932321
 31
0.0
  0
LINE
  5
344
330
1F
100
AcDbEntity
  8
GR1-1
  6
CONTINUOUS
 62
     7
100
AcDbLine
 10
340.853751
 20
11.913462
 30
0.0
 11
341.399941
 21
12.459651
 31
0.0
  0
LINE
  5
345
330
1F
100
AcDbEntity
  8
GR1-1
  6
CONTINUOUS
 62
     7
100
AcDbLine
 10
343.940289
 20
15.0
 30
0.0
 11
344.8019
 21
15.86161
 31
0.0
  0
LINE
  5
346
330
1F
100
AcDbEntity
  8
GR1-1
  6
CONTINUOUS
 62
     7
100
AcDbLine
 10
340.924461
 20
11.913462
 30
0.0
 11
341.435296
 21
12.424296
 31
0.0
  0
LINE
  5
347
330
1F
100
AcDbEntity
  8
GR1-1
  6
CONTINUOUS
 62
     7
100
AcDbLine
 10
344.011
 20
15.0
 30
0.0
 11
344.8019
 21
15.7909
 31
0.0
  0
LINE
  5
348
330
1F
100
AcDbEntity
  8
GR1-1
  6
CONTINUOUS
 62
     7
100
AcDbLine
 10
340.995172
 20
11.913462
 30
0.0
 11
341.470651
 21
12.388941
 31
0.0
  0
LINE
  5
349
330
1F
100
AcDbEntity
  8
GR1-1
  6
CONTINUOUS
 62
     7
100
AcDbLine
 10
344.081711
 20
15.0
 30
0.0
 11
344.8019
 21
15.720189
 31
0.0
  0
LINE
  5
34A
330
1F
100
AcDbEntity
  8
GR1-1
  6
CONTINUOUS
 62
     7
100
AcDbLine
 10
341.065883
 20
11.913462
 30
0.0
 11
341.506007
 21
12.353585
 31
0.0
  0
LINE
  5
34B
330
1F
100
AcDbEntity
  8
GR1-1
  6
CONTINUOUS
 62
     7
100
AcDbLine
 10
344.152421
 20
15.0
 30
0.0
 11
344.8019
 21
15.649478
 31
0.0
  0
LINE
  5
34C
330
1F
100
AcDbEntity
  8
GR1-1
  6
CONTINUOUS
 62
     7
100
AcDbLine
 10
341.136594
 20
11.913462
 30
0.0
 11
341.541362
 21
12.31823
 31
0.0
  0
LINE
  5
34D
330
1F
100
AcDbEntity
  8
GR1-1
  6
CONTINUOUS
 62
     7
100
AcDbLine
 10
344.223132
 20
15.0
 30
0.0
 11
344.8019
 21
15.578768
 31
0.0
  0
LINE
  5
34E
330
1F
100
AcDbEntity
  8
GR1-1
  6
CONTINUOUS
 62
     7
100
AcDbLine
 10
341.207304
 20
11.913462
 30
0.0
 11
341.576717
 21
12.282875
 31
0.0
  0
LINE
  5
34F
330
1F
100
AcDbEntity
  8
GR1-1
  6
CONTINUOUS
 62
     7
100
AcDbLine
 10
344.224977
 20
14.931134
 30
0.0
 11
344.8019
 21
15.508057
 31
0.0
  0
LINE
  5
350
330
1F
100
AcDbEntity
  8
GR1-1
  6
CONTINUOUS
 62
     7
100
AcDbLine
 10
341.278015
 20
11.913462
 30
0.0
 11
341.612073
 21
12.247519
 31
0.0
  0
LINE
  5
351
330
1F
100
AcDbEntity
  8
GR1-1
  6
CONTINUOUS
 62
     7
100
AcDbLine
 10
344.224977
 20
14.860423
 30
0.0
 11
344.8019
 21
15.437346
 31
0.0
  0
LINE
  5
352
330
1F
100
AcDbEntity
  8
GR1-1
  6
CONTINUOUS
 62
     7
100
AcDbLine
 10
341.348726
 20
11.913462
 30
0.0
 11
341.647428
 21
12.212164
 31
0.0
  0
LINE
  5
353
330
1F
100
AcDbEntity
  8
GR1-1
  6
CONTINUOUS
 62
     7
100
AcDbLine
 10
344.224977
 20
14.789713
 30
0.0
 11
344.8019
 21
15.366636
 31
0.0
  0
LINE
  5
354
330
1F
100
AcDbEntity
  8
GR1-1
  6
CONTINUOUS
 62
     7
100
AcDbLine
 10
341.419436
 20
11.913462
 30
0.0
 11
341.682783
 21
12.176809
 31
0.0
  0
LINE
  5
355
330
1F
100
AcDbEntity
  8
GR1-1
  6
CONTINUOUS
 62
     7
100
AcDbLine
 10
344.224977
 20
14.719002
 30
0.0
 11
344.8019
 21
15.295925
 31
0.0
  0
LINE
  5
356
330
1F
100
AcDbEntity
  8
GR1-1
  6
CONTINUOUS
 62
     7
100
AcDbLine
 10
341.490147
 20
11.913462
 30
0.0
 11
341.718139
 21
12.141453
 31
0.0
  0
LINE
  5
357
330
1F
100
AcDbEntity
  8
GR1-1
  6
CONTINUOUS
 62
     7
100
AcDbLine
 10
344.224977
 20
14.648291
 30
0.0
 11
344.8019
 21
15.225214
 31
0.0
  0
LINE
  5
358
330
1F
100
AcDbEntity
  8
GR1-1
  6
CONTINUOUS
 62
     7
100
AcDbLine
 10
341.560858
 20
11.913462
 30
0.0
 11
341.753494
 21
12.106098
 31
0.0
  0
LINE
  5
359
330
1F
100
AcDbEntity
  8
GR1-1
  6
CONTINUOUS
 62
     7
100
AcDbLine
 10
344.224977
 20
14.577581
 30
0.0
 11
344.8019
 21
15.154504
 31
0.0
  0
LINE
  5
35A
330
1F
100
AcDbEntity
  8
GR1-1
  6
CONTINUOUS
 62
     7
100
AcDbLine
 10
341.631568
 20
11.913462
 30
0.0
 11
341.788849
 21
12.070743
 31
0.0
  0
LINE
  5
35B
330
1F
100
AcDbEntity
  8
GR1-1
  6
CONTINUOUS
 62
     7
100
AcDbLine
 10
344.224977
 20
14.50687
 30
0.0
 11
344.8019
 21
15.083793
 31
0.0
  0
LINE
  5
35C
330
1F
100
AcDbEntity
  8
GR1-1
  6
CONTINUOUS
 62
     7
100
AcDbLine
 10
341.702279
 20
11.913462
 30
0.0
 11
343.359592
 21
13.570775
 31
0.0
  0
LINE
  5
35D
330
1F
100
AcDbEntity
  8
GR1-1
  6
CONTINUOUS
 62
     7
100
AcDbLine
 10
344.224977
 20
14.436159
 30
0.0
 11
344.8019
 21
15.013082
 31
0.0
  0
LINE
  5
35E
330
1F
100
AcDbEntity
  8
GR1-1
  6
CONTINUOUS
 62
     7
100
AcDbLine
 10
341.77299
 20
11.913462
 30
0.0
 11
343.359592
 21
13.500064
 31
0.0
  0
LINE
  5
35F
330
1F
100
AcDbEntity
  8
GR1-1
  6
CONTINUOUS
 62
     7
100
AcDbLine
 10
344.224977
 20
14.365449
 30
0.0
 11
344.8019
 21
14.942372
 31
0.0
  0
LINE
  5
360
330
1F
100
AcDbEntity
  8
GR1-1
  6
CONTINUOUS
 62
     7
100
AcDbLine
 10
341.8437
 20
11.913462
 30
0.0
 11
343.359592
 21
13.429353
 31
0.0
  0
LINE
  5
361
330
1F
100
AcDbEntity
  8
GR1-1
  6
CONTINUOUS
 62
     7
100
AcDbLine
 10
344.224977
 20
14.294738
 30
0.0
 11
344.8019
 21
14.871661
 31
0.0
  0
LINE
  5
362
330
1F
100
AcDbEntity
  8
GR1-1
  6
CONTINUOUS
 62
     7
100
AcDbLine
 10
341.914411
 20
11.913462
 30
0.0
 11
343.359592
 21
13.358643
 31
0.0
  0
LINE
  5
363
330
1F
100
AcDbEntity
  8
GR1-1
  6
CONTINUOUS
 62
     7
100
AcDbLine
 10
344.224977
 20
14.224027
 30
0.0
 11
344.8019
 21
14.80095
 31
0.0
  0
LINE
  5
364
330
1F
100
AcDbEntity
  8
GR1-1
  6
CONTINUOUS
 62
     7
100
AcDbLine
 10
341.985122
 20
11.913462
 30
0.0
 11
343.359592
 21
13.287932
 31
0.0
  0
LINE
  5
365
330
1F
100
AcDbEntity
  8
GR1-1
  6
CONTINUOUS
 62
     7
100
AcDbLine
 10
344.224977
 20
14.153317
 30
0.0
 11
344.8019
 21
14.73024
 31
0.0
  0
LINE
  5
366
330
1F
100
AcDbEntity
  8
GR1-1
  6
CONTINUOUS
 62
     7
100
AcDbLine
 10
342.055832
 20
11.913462
 30
0.0
 11
343.359592
 21
13.217221
 31
0.0
  0
LINE
  5
367
330
1F
100
AcDbEntity
  8
GR1-1
  6
CONTINUOUS
 62
     7
100
AcDbLine
 10
344.224977
 20
14.082606
 30
0.0
 11
344.8019
 21
14.659529
 31
0.0
  0
LINE
  5
368
330
1F
100
AcDbEntity
  8
GR1-1
  6
CONTINUOUS
 62
     7
100
AcDbLine
 10
342.126543
 20
11.913462
 30
0.0
 11
343.359592
 21
13.146511
 31
0.0
  0
LINE
  5
369
330
1F
100
AcDbEntity
  8
GR1-1
  6
CONTINUOUS
 62
     7
100
AcDbLine
 10
344.224977
 20
14.011895
 30
0.0
 11
344.8019
 21
14.588818
 31
0.0
  0
LINE
  5
36A
330
1F
100
AcDbEntity
  8
GR1-1
  6
CONTINUOUS
 62
     7
100
AcDbLine
 10
342.197254
 20
11.913462
 30
0.0
 11
343.359592
 21
13.0758
 31
0.0
  0
LINE
  5
36B
330
1F
100
AcDbEntity
  8
GR1-1
  6
CONTINUOUS
 62
     7
100
AcDbLine
 10
344.224977
 20
13.941185
 30
0.0
 11
344.8019
 21
14.518108
 31
0.0
  0
LINE
  5
36C
330
1F
100
AcDbEntity
  8
GR1-1
  6
CONTINUOUS
 62
     7
100
AcDbLine
 10
342.267964
 20
11.913462
 30
0.0
 11
343.359592
 21
13.005089
 31
0.0
  0
LINE
  5
36D
330
1F
100
AcDbEntity
  8
GR1-1
  6
CONTINUOUS
 62
     7
100
AcDbLine
 10
344.224977
 20
13.870474
 30
0.0
 11
344.8019
 21
14.447397
 31
0.0
  0
LINE
  5
36E
330
1F
100
AcDbEntity
  8
GR1-1
  6
CONTINUOUS
 62
     7
100
AcDbLine
 10
342.338675
 20
11.913462
 30
0.0
 11
343.405983
 21
12.980769
 31
0.0
  0
LINE
  5
36F
330
1F
100
AcDbEntity
  8
GR1-1
  6
CONTINUOUS
 62
     7
100
AcDbLine
 10
344.224977
 20
13.799763
 30
0.0
 11
344.8019
 21
14.376686
 31
0.0
  0
LINE
  5
370
330
1F
100
AcDbEntity
  8
GR1-1
  6
CONTINUOUS
 62
     7
100
AcDbLine
 10
342.409386
 20
11.913462
 30
0.0
 11
343.476693
 21
12.980769
 31
0.0
  0
LINE
  5
371
330
1F
100
AcDbEntity
  8
GR1-1
  6
CONTINUOUS
 62
     7
100
AcDbLine
 10
344.224977
 20
13.729052
 30
0.0
 11
344.8019
 21
14.305976
 31
0.0
  0
LINE
  5
372
330
1F
100
AcDbEntity
  8
GR1-1
  6
CONTINUOUS
 62
     7
100
AcDbLine
 10
342.480096
 20
11.913462
 30
0.0
 11
343.547404
 21
12.980769
 31
0.0
  0
LINE
  5
373
330
1F
100
AcDbEntity
  8
GR1-1
  6
CONTINUOUS
 62
     7
100
AcDbLine
 10
344.224977
 20
13.658342
 30
0.0
 11
344.8019
 21
14.235265
 31
0.0
  0
LINE
  5
374
330
1F
100
AcDbEntity
  8
GR1-1
  6
CONTINUOUS
 62
     7
100
AcDbLine
 10
342.550807
 20
11.913462
 30
0.0
 11
343.618115
 21
12.980769
 31
0.0
  0
LINE
  5
375
330
1F
100
AcDbEntity
  8
GR1-1
  6
CONTINUOUS
 62
     7
100
AcDbLine
 10
344.224977
 20
13.587631
 30
0.0
 11
344.8019
 21
14.164554
 31
0.0
  0
LINE
  5
376
330
1F
100
AcDbEntity
  8
GR1-1
  6
CONTINUOUS
 62
     7
100
AcDbLine
 10
342.621518
 20
11.913462
 30
0.0
 11
343.688825
 21
12.980769
 31
0.0
  0
LINE
  5
377
330
1F
100
AcDbEntity
  8
GR1-1
  6
CONTINUOUS
 62
     7
100
AcDbLine
 10
344.224977
 20
13.51692
 30
0.0
 11
344.8019
 21
14.093844
 31
0.0
  0
LINE
  5
378
330
1F
100
AcDbEntity
  8
GR1-1
  6
CONTINUOUS
 62
     7
100
AcDbLine
 10
342.692228
 20
11.913462
 30
0.0
 11
343.759536
 21
12.980769
 31
0.0
  0
LINE
  5
379
330
1F
100
AcDbEntity
  8
GR1-1
  6
CONTINUOUS
 62
     7
100
AcDbLine
 10
344.224977
 20
13.44621
 30
0.0
 11
344.8019
 21
14.023133
 31
0.0
  0
LINE
  5
37A
330
1F
100
AcDbEntity
  8
GR1-1
  6
CONTINUOUS
 62
     7
100
AcDbLine
 10
342.762939
 20
11.913462
 30
0.0
 11
343.830247
 21
12.980769
 31
0.0
  0
LINE
  5
37B
330
1F
100
AcDbEntity
  8
GR1-1
  6
CONTINUOUS
 62
     7
100
AcDbLine
 10
344.224977
 20
13.375499
 30
0.0
 11
344.8019
 21
13.952422
 31
0.0
  0
LINE
  5
37C
330
1F
100
AcDbEntity
  8
GR1-1
  6
CONTINUOUS
 62
     7
100
AcDbLine
 10
342.83365
 20
11.913462
 30
0.0
 11
343.900958
 21
12.980769
 31
0.0
  0
LINE
  5
37D
330
1F
100
AcDbEntity
  8
GR1-1
  6
CONTINUOUS
 62
     7
100
AcDbLine
 10
344.224977
 20
13.304788
 30
0.0
 11
344.8019
 21
13.881712
 31
0.0
  0
LINE
  5
37E
330
1F
100
AcDbEntity
  8
GR1-1
  6
CONTINUOUS
 62
     7
100
AcDbLine
 10
342.90436
 20
11.913462
 30
0.0
 11
343.971668
 21
12.980769
 31
0.0
  0
LINE
  5
37F
330
1F
100
AcDbEntity
  8
GR1-1
  6
CONTINUOUS
 62
     7
100
AcDbLine
 10
344.224977
 20
13.234078
 30
0.0
 11
344.8019
 21
13.811001
 31
0.0
  0
LINE
  5
380
330
1F
100
AcDbEntity
  8
GR1-1
  6
CONTINUOUS
 62
     7
100
AcDbLine
 10
342.975071
 20
11.913462
 30
0.0
 11
344.042379
 21
12.980769
 31
0.0
  0
LINE
  5
381
330
1F
100
AcDbEntity
  8
GR1-1
  6
CONTINUOUS
 62
     7
100
AcDbLine
 10
344.224977
 20
13.163367
 30
0.0
 11
344.8019
 21
13.74029
 31
0.0
  0
LINE
  5
382
330
1F
100
AcDbEntity
  8
GR1-1
  6
CONTINUOUS
 62
     7
100
AcDbLine
 10
343.045782
 20
11.913462
 30
0.0
 11
344.11309
 21
12.980769
 31
0.0
  0
LINE
  5
383
330
1F
100
AcDbEntity
  8
GR1-1
  6
CONTINUOUS
 62
     7
100
AcDbLine
 10
344.224977
 20
13.092656
 30
0.0
 11
344.8019
 21
13.669579
 31
0.0
  0
LINE
  5
384
330
1F
100
AcDbEntity
  8
GR1-1
  6
CONTINUOUS
 62
     7
100
AcDbLine
 10
343.116493
 20
11.913462
 30
0.0
 11
344.1838
 21
12.980769
 31
0.0
  0
LINE
  5
385
330
1F
100
AcDbEntity
  8
GR1-1
  6
CONTINUOUS
 62
     7
100
AcDbLine
 10
344.224977
 20
13.021946
 30
0.0
 11
344.8019
 21
13.598869
 31
0.0
  0
LINE
  5
386
330
1F
100
AcDbEntity
  8
GR1-1
  6
CONTINUOUS
 62
     7
100
AcDbLine
 10
343.187203
 20
11.913462
 30
0.0
 11
344.8019
 21
13.528158
 31
0.0
  0
LINE
  5
387
330
1F
100
AcDbEntity
  8
GR1-1
  6
CONTINUOUS
 62
     7
100
AcDbLine
 10
343.257914
 20
11.913462
 30
0.0
 11
344.8019
 21
13.457447
 31
0.0
  0
LINE
  5
388
330
1F
100
AcDbEntity
  8
GR1-1
  6
CONTINUOUS
 62
     7
100
AcDbLine
 10
343.328625
 20
11.913462
 30
0.0
 11
344.8019
 21
13.386737
 31
0.0
  0
LINE
  5
389
330
1F
100
AcDbEntity
  8
GR1-1
  6
CONTINUOUS
 62
     7
100
AcDbLine
 10
343.399335
 20
11.913462
 30
0.0
 11
344.8019
 21
13.316026
 31
0.0
  0
LINE
  5
38A
330
1F
100
AcDbEntity
  8
GR1-1
  6
CONTINUOUS
 62
     7
100
AcDbLine
 10
343.470046
 20
11.913462
 30
0.0
 11
344.8019
 21
13.245315
 31
0.0
  0
LINE
  5
38B
330
1F
100
AcDbEntity
  8
GR1-1
  6
CONTINUOUS
 62
     7
100
AcDbLine
 10
343.540757
 20
11.913462
 30
0.0
 11
344.8019
 21
13.174605
 31
0.0
  0
LINE
  5
38C
330
1F
100
AcDbEntity
  8
GR1-1
  6
CONTINUOUS
 62
     7
100
AcDbLine
 10
343.611467
 20
11.913462
 30
0.0
 11
344.8019
 21
13.103894
 31
0.0
  0
LINE
  5
38D
330
1F
100
AcDbEntity
  8
GR1-1
  6
CONTINUOUS
 62
     7
100
AcDbLine
 10
343.682178
 20
11.913462
 30
0.0
 11
344.8019
 21
13.033183
 31
0.0
  0
LINE
  5
38E
330
1F
100
AcDbEntity
  8
GR1-1
  6
CONTINUOUS
 62
     7
100
AcDbLine
 10
343.752889
 20
11.913462
 30
0.0
 11
344.8019
 21
12.962473
 31
0.0
  0
LINE
  5
38F
330
1F
100
AcDbEntity
  8
GR1-1
  6
CONTINUOUS
 62
     7
100
AcDbLine
 10
343.823599
 20
11.913462
 30
0.0
 11
344.8019
 21
12.891762
 31
0.0
  0
LINE
  5
390
330
1F
100
AcDbEntity
  8
GR1-1
  6
CONTINUOUS
 62
     7
100
AcDbLine
 10
343.89431
 20
11.913462
 30
0.0
 11
344.8019
 21
12.821051
 31
0.0
  0
LINE
  5
391
330
1F
100
AcDbEntity
  8
GR1-1
  6
CONTINUOUS
 62
     7
100
AcDbLine
 10
343.965021
 20
11.913462
 30
0.0
 11
344.8019
 21
12.750341
 31
0.0
  0
LINE
  5
392
330
1F
100
AcDbEntity
  8
GR1-1
  6
CONTINUOUS
 62
     7
100
AcDbLine
 10
344.035731
 20
11.913462
 30
0.0
 11
344.8019
 21
12.67963
 31
0.0
  0
LINE
  5
393
330
1F
100
AcDbEntity
  8
GR1-1
  6
CONTINUOUS
 62
     7
100
AcDbLine
 10
344.106442
 20
11.913462
 30
0.0
 11
344.8019
 21
12.608919
 31
0.0
  0
LINE
  5
394
330
1F
100
AcDbEntity
  8
GR1-1
  6
CONTINUOUS
 62
     7
100
AcDbLine
 10
344.177153
 20
11.913462
 30
0.0
 11
344.8019
 21
12.538209
 31
0.0
  0
LINE
  5
395
330
1F
100
AcDbEntity
  8
GR1-1
  6
CONTINUOUS
 62
     7
100
AcDbLine
 10
344.247863
 20
11.913462
 30
0.0
 11
344.8019
 21
12.467498
 31
0.0
  0
LINE
  5
396
330
1F
100
AcDbEntity
  8
GR1-1
  6
CONTINUOUS
 62
     7
100
AcDbLine
 10
344.318574
 20
11.913462
 30
0.0
 11
344.8019
 21
12.396787
 31
0.0
  0
LINE
  5
397
330
1F
100
AcDbEntity
  8
GR1-1
  6
CONTINUOUS
 62
     7
100
AcDbLine
 10
344.389285
 20
11.913462
 30
0.0
 11
344.8019
 21
12.326077
 31
0.0
  0
LINE
  5
398
330
1F
100
AcDbEntity
  8
GR1-1
  6
CONTINUOUS
 62
     7
100
AcDbLine
 10
344.459995
 20
11.913462
 30
0.0
 11
344.8019
 21
12.255366
 31
0.0
  0
LINE
  5
399
330
1F
100
AcDbEntity
  8
GR1-1
  6
CONTINUOUS
 62
     7
100
AcDbLine
 10
344.530706
 20
11.913462
 30
0.0
 11
344.8019
 21
12.184655
 31
0.0
  0
LINE
  5
39A
330
1F
100
AcDbEntity
  8
GR1-1
  6
CONTINUOUS
 62
     7
100
AcDbLine
 10
344.601417
 20
11.913462
 30
0.0
 11
344.8019
 21
12.113945
 31
0.0
  0
LINE
  5
39B
330
1F
100
AcDbEntity
  8
GR1-1
  6
CONTINUOUS
 62
     7
100
AcDbLine
 10
344.672127
 20
11.913462
 30
0.0
 11
344.8019
 21
12.043234
 31
0.0
  0
LINE
  5
39C
330
1F
100
AcDbEntity
  8
GR1-1
  6
CONTINUOUS
 62
     7
100
AcDbLine
 10
344.742838
 20
11.913462
 30
0.0
 11
344.8019
 21
11.972523
 31
0.0
  0
LINE
  5
39D
330
1F
100
AcDbEntity
  8
LAYERGROUP-1
  6
CENTER
 62
     6
100
AcDbLine
 10
267.73227
 20
151.184498
 30
0.0
 11
267.73227
 21
138.131361
 31
0.0
  0
LINE
  5
39E
330
1F
100
AcDbEntity
  8
LAYERGROUP-1
  6
CENTER
 62
     6
100
AcDbLine
 10
212.73227
 20
151.184498
 30
0.0
 11
212.73227
 21
138.131361
 31
0.0
  0
LINE
  5
39F
330
1F
100
AcDbEntity
  8
GR1-1
  6
CENTER
 62
     6
100
AcDbLine
 10
152.023291
 20
150.694135
 30
0.0
 11
152.023291
 21
138.131361
 31
0.0
  0
LINE
  5
3A0
330
1F
100
AcDbEntity
  8
GR1-1
  6
CENTER
 62
     6
100
AcDbLine
 10
124.023291
 20
150.694135
 30
0.0
 11
124.023291
 21
138.131361
 31
0.0
  0
ARC
  5
3A1
330
1F
100
AcDbEntity
  8
GR1-1
  6
CONTINUOUS
 62
     3
100
AcDbCircle
 10
205.442231
 20
218.0
 30
0.0
 40
2.0
100
AcDbArc
 50
187.73638
 51
263.973933
  0
ARC
  5
3A2
330
1F
100
AcDbEntity
  8
GR1-1
  6
CONTINUOUS
 62
     3
100
AcDbCircle
 10
282.73227
 20
228.5
 30
0.0
 40
80.0
100
AcDbArc
 50
172.26362
 51
187.73638
  0
ARC
  5
3A3
330
1F
100
AcDbEntity
  8
GR1-1
  6
CONTINUOUS
 62
     3
100
AcDbCircle
 10
205.442231
 20
239.0
 30
0.0
 40
2.0
100
AcDbArc
 50
96.026067
 51
172.26362
  0
ARC
  5
3A4
330
1F
100
AcDbEntity
  8
GR1-1
  6
CONTINUOUS
 62
     3
100
AcDbCircle
 10
275.022308
 20
218.0
 30
0.0
 40
2.0
100
AcDbArc
 50
276.026067
 51
352.26362
  0
ARC
  5
3A5
330
1F
100
AcDbEntity
  8
GR1-1
  6
CONTINUOUS
 62
     3
100
AcDbCircle
 10
197.73227
 20
228.5
 30
0.0
 40
80.0
100
AcDbArc
 50
-7.73638
 51
7.73638
  0
ARC
  5
3A6
330
1F
100
AcDbEntity
  8
GR1-1
  6
CONTINUOUS
 62
     3
100
AcDbCircle
 10
275.022308
 20
239.0
 30
0.0
 40
2.0
100
AcDbArc
 50
7.73638
 51
83.973933
  0
ENDSEC
  0
SECTION
  2
OBJECTS
  0
DICTIONARY
  5
C
330
0
100
AcDbDictionary
  3
ACAD_GROUP
350
D
  3
ACAD_LAYOUT
350
1A
  3
ACAD_MLINESTYLE
350
17
  3
ACAD_PLOTSETTINGS
350
19
  3
ACDBHEADERROUNDTRIPXREC
350
3A7
  0
DICTIONARY
  5
D
102
{ACAD_REACTORS
330
C
102
}
330
C
100
AcDbDictionary
  0
DICTIONARY
  5
1A
102
{ACAD_REACTORS
330
C
102
}
330
C
100
AcDbDictionary
  0
DICTIONARY
  5
17
102
{ACAD_REACTORS
330
C
102
}
330
C
100
AcDbDictionary
  3
STANDARD
350
18
  0
DICTIONARY
  5
19
102
{ACAD_REACTORS
330
C
102
}
330
C
100
AcDbDictionary
  0
DICTIONARY
  5
3A7
102
{ACAD_REACTORS
330
C
102
}
330
C
100
AcDbDictionary
  3
CEPSNTYPE
350
3B0
  3
DIMSTYLEDATA
350
3C6
  3
FINGERPRINTGUID
350
3B1
  3
HYPERLINKBASE
350
3AA
  3
INSUNITS
350
3AF
  3
LAYOUTDICT
350
3AC
  3
LWETCUNION
350
3AE
  3
PLOTSETDICT
350
3AD
  3
PSVPSCALE
350
3B3
  3
PUCSBASE
350
3B6
  3
PUCSORGBACK
350
3BC
  3
PUCSORGBOTTOM
350
3B8
  3
PUCSORGFRONT
350
3BB
  3
PUCSORGLEFT
350
3B9
  3
PUCSORGRIGHT
350
3BA
  3
PUCSORGTOP
350
3B7
  3
PUCSORTHOREF
350
3B4
  3
PUCSORTHOVIEW
350
3B5
  3
STYLESHEET
350
3AB
  3
TSTACKALIGN
350
3A8
  3
TSTACKSIZE
350
3A9
  3
UCSBASE
350
3BF
  3
UCSORGBACK
350
3C5
  3
UCSORGBOTTOM
350
3C1
  3
UCSORGFRONT
350
3C4
  3
UCSORGLEFT
350
3C2
  3
UCSORGRIGHT
350
3C3
  3
UCSORGTOP
350
3C0
  3
UCSORTHOREF
350
3BD
  3
UCSORTHOVIEW
350
3BE
  3
VERSIONGUID
350
3B2
  0
MLINESTYLE
  5
18
102
{ACAD_REACTORS
330
17
102
}
330
17
100
AcDbMlineStyle
  2
Standard
 70
     0
  3

 62
   256
 51
90.0
 52
90.0
 71
     2
 49
0.5
 62
   256
  6
BYLAYER
 49
-0.5
 62
   256
  6
BYLAYER
  0
XRECORD
  5
3B0
102
{ACAD_REACTORS
330
3A7
102
}
330
3A7
100
AcDbXrecord
 90
        0
  0
XRECORD
  5
3C6
102
{ACAD_REACTORS
330
3A7
102
}
330
3A7
100
AcDbXrecord
1000
DSTYLE
1002
{
1070
   179
 70
     2
1070
   171
 70
     3
1070
   143
 40
0.03937
1070
   274
 70
     3
1070
    41
 40
4.0
1070
   343
340
41
1070
   344
340
47
1070
   141
 40
2.5
1070
   176
 70
     7
1070
   177
 70
     7
1070
   178
 70
     7
1070
   271
 70
     2
1070
    46
 40
6.0
1070
    43
 40
10.0
1070
    44
 40
1.0
1070
    42
 40
1.0
1070
   147
 40
1.0
1070
   341
340
41
1070
   173
 70
     1
1070
    77
 70
     1
1070
   272
 70
     2
1070
    73
 70
     0
1070
   172
 70
     1
1070
    74
 70
     0
1070
   283
 70
     0
1070
   340
340
3F
1070
   140
 40
4.0
1070
   284
 70
     8
1070
    78
 70
     8
1002
}
  0
XRECORD
  5
3B1
102
{ACAD_REACTORS
330
3A7
102
}
330
3A7
100
AcDbXrecord
  1
{DAE223BC-7F06-4206-BE50-B679AF8857F5}
  0
XRECORD
  5
3AA
102
{ACAD_REACTORS
330
3A7
102
}
330
3A7
100
AcDbXrecord
  1

  0
XRECORD
  5
3AF
102
{ACAD_REACTORS
330
3A7
102
}
330
3A7
100
AcDbXrecord
 90
        1
  0
XRECORD
  5
3AC
102
{ACAD_REACTORS
330
3A7
102
}
330
3A7
100
AcDbXrecord
340
1A
  0
XRECORD
  5
3AE
102
{ACAD_REACTORS
330
3A7
102
}
330
3A7
100
AcDbXrecord
 90
    10781
  0
XRECORD
  5
3AD
102
{ACAD_REACTORS
330
3A7
102
}
330
3A7
100
AcDbXrecord
340
19
  0
XRECORD
  5
3B3
102
{ACAD_REACTORS
330
3A7
102
}
330
3A7
100
AcDbXrecord
 40
0.0
  0
XRECORD
  5
3B6
102
{ACAD_REACTORS
330
3A7
102
}
330
3A7
100
AcDbXrecord
340
0
  0
XRECORD
  5
3BC
102
{ACAD_REACTORS
330
3A7
102
}
330
3A7
100
AcDbXrecord
 10
0.0
 20
0.0
 30
0.0
  0
XRECORD
  5
3B8
102
{ACAD_REACTORS
330
3A7
102
}
330
3A7
100
AcDbXrecord
 10
0.0
 20
0.0
 30
0.0
  0
XRECORD
  5
3BB
102
{ACAD_REACTORS
330
3A7
102
}
330
3A7
100
AcDbXrecord
 10
0.0
 20
0.0
 30
0.0
  0
XRECORD
  5
3B9
102
{ACAD_REACTORS
330
3A7
102
}
330
3A7
100
AcDbXrecord
 10
0.0
 20
0.0
 30
0.0
  0
XRECORD
  5
3BA
102
{ACAD_REACTORS
330
3A7
102
}
330
3A7
100
AcDbXrecord
 10
0.0
 20
0.0
 30
0.0
  0
XRECORD
  5
3B7
102
{ACAD_REACTORS
330
3A7
102
}
330
3A7
100
AcDbXrecord
 10
0.0
 20
0.0
 30
0.0
  0
XRECORD
  5
3B4
102
{ACAD_REACTORS
330
3A7
102
}
330
3A7
100
AcDbXrecord
340
0
  0
XRECORD
  5
3B5
102
{ACAD_REACTORS
330
3A7
102
}
330
3A7
100
AcDbXrecord
 70
     0
  0
XRECORD
  5
3AB
102
{ACAD_REACTORS
330
3A7
102
}
330
3A7
100
AcDbXrecord
  1

  0
XRECORD
  5
3A8
102
{ACAD_REACTORS
330
3A7
102
}
330
3A7
100
AcDbXrecord
 90
        1
  0
XRECORD
  5
3A9
102
{ACAD_REACTORS
330
3A7
102
}
330
3A7
100
AcDbXrecord
 90
       70
  0
XRECORD
  5
3BF
102
{ACAD_REACTORS
330
3A7
102
}
330
3A7
100
AcDbXrecord
340
0
  0
XRECORD
  5
3C5
102
{ACAD_REACTORS
330
3A7
102
}
330
3A7
100
AcDbXrecord
 10
0.0
 20
0.0
 30
0.0
  0
XRECORD
  5
3C1
102
{ACAD_REACTORS
330
3A7
102
}
330
3A7
100
AcDbXrecord
 10
0.0
 20
0.0
 30
0.0
  0
XRECORD
  5
3C4
102
{ACAD_REACTORS
330
3A7
102
}
330
3A7
100
AcDbXrecord
 10
0.0
 20
0.0
 30
0.0
  0
XRECORD
  5
3C2
102
{ACAD_REACTORS
330
3A7
102
}
330
3A7
100
AcDbXrecord
 10
0.0
 20
0.0
 30
0.0
  0
XRECORD
  5
3C3
102
{ACAD_REACTORS
330
3A7
102
}
330
3A7
100
AcDbXrecord
 10
0.0
 20
0.0
 30
0.0
  0
XRECORD
  5
3C0
102
{ACAD_REACTORS
330
3A7
102
}
330
3A7
100
AcDbXrecord
 10
0.0
 20
0.0
 30
0.0
  0
XRECORD
  5
3BD
102
{ACAD_REACTORS
330
3A7
102
}
330
3A7
100
AcDbXrecord
340
0
  0
XRECORD
  5
3BE
102
{ACAD_REACTORS
330
3A7
102
}
330
3A7
100
AcDbXrecord
 70
     0
  0
XRECORD
  5
3B2
102
{ACAD_REACTORS
330
3A7
102
}
330
3A7
100
AcDbXrecord
  1
{FAEB1C32-E019-11D5-929B-00C0DF256EC4}
  0
ENDSEC
  0
EOF
