  0
SECTION
  2
HEADER
  9
$ACADVER
  1
AC1014
  9
$ACADMAINTVER
 70
     9
  9
$DWGCODEPAGE
  3
ANSI_932
  9
$INSBASE
 10
0.0
 20
0.0
 30
0.0
  9
$EXTMIN
 10
0.0
 20
0.0
 30
0.0
  9
$EXTMAX
 10
420.0
 20
297.0
 30
0.0
  9
$LIMMIN
 10
0.0
 20
0.0
  9
$LIMMAX
 10
420.0
 20
297.0
  9
$ORTHOMODE
 70
     0
  9
$REGENMODE
 70
     1
  9
$FILLMODE
 70
     1
  9
$QTEXTMODE
 70
     0
  9
$MIRRTEXT
 70
     1
  9
$DRAGMODE
 70
     2
  9
$LTSCALE
 40
1.0
  9
$OSMODE
 70
    37
  9
$ATTMODE
 70
     1
  9
$TEXTSIZE
 40
0.2
  9
$TRACEWID
 40
0.05
  9
$TEXTSTYLE
  7
STYLE1
  9
$CLAYER
  8
0
  9
$CELTYPE
  6
BYLAYER
  9
$CECOLOR
 62
   256
  9
$CELTSCALE
 40
1.0
  9
$DELOBJ
 70
     1
  9
$DISPSILH
 70
     0
  9
$DIMSCALE
 40
1.0
  9
$DIMASZ
 40
4.0
  9
$DIMEXO
 40
1.0
  9
$DIMDLI
 40
10.0
  9
$DIMRND
 40
0.0
  9
$DIMDLE
 40
6.0
  9
$DIMEXE
 40
1.0
  9
$DIMTP
 40
0.0
  9
$DIMTM
 40
0.0
  9
$DIMTXT
 40
4.0
  9
$DIMCEN
 40
2.5
  9
$DIMTSZ
 40
0.0
  9
$DIMTOL
 70
     0
  9
$DIMLIM
 70
     0
  9
$DIMTIH
 70
     0
  9
$DIMTOH
 70
     0
  9
$DIMSE1
 70
     0
  9
$DIMSE2
 70
     0
  9
$DIMTAD
 70
     1
  9
$DIMZIN
 70
     8
  9
$DIMBLK
  1

  9
$DIMASO
 70
     1
  9
$DIMSHO
 70
     1
  9
$DIMPOST
  1

  9
$DIMAPOST
  1

  9
$DIMALT
 70
     0
  9
$DIMALTD
 70
     3
  9
$DIMALTF
 40
0.03937
  9
$DIMLFAC
 40
1.0
  9
$DIMTOFL
 70
     1
  9
$DIMTVP
 40
0.0
  9
$DIMTIX
 70
     0
  9
$DIMSOXD
 70
     0
  9
$DIMSAH
 70
     1
  9
$DIMBLK1
  1
FXTIP_ARROW_S
  9
$DIMBLK2
  1
FXTIP_ARROW_E
  9
$DIMSTYLE
  2
FXDIMINFO
  9
$DIMCLRD
 70
     7
  9
$DIMCLRE
 70
     7
  9
$DIMCLRT
 70
     7
  9
$DIMTFAC
 40
1.0
  9
$DIMGAP
 40
1.0
  9
$DIMJUST
 70
     0
  9
$DIMSD1
 70
     0
  9
$DIMSD2
 70
     0
  9
$DIMTOLJ
 70
     0
  9
$DIMTZIN
 70
     8
  9
$DIMALTZ
 70
     0
  9
$DIMALTTZ
 70
     0
  9
$DIMFIT
 70
     3
  9
$DIMUPT
 70
     0
  9
$DIMUNIT
 70
     2
  9
$DIMDEC
 70
     2
  9
$DIMTDEC
 70
     2
  9
$DIMALTU
 70
     2
  9
$DIMALTTD
 70
     3
  9
$DIMTXSTY
  7
STYLE1
  9
$DIMAUNIT
 70
     0
  9
$LUNITS
 70
     2
  9
$LUPREC
 70
     4
  9
$SKETCHINC
 40
0.1
  9
$FILLETRAD
 40
0.5
  9
$AUNITS
 70
     0
  9
$AUPREC
 70
     0
  9
$MENU
  1
.
  9
$ELEVATION
 40
0.0
  9
$PELEVATION
 40
0.0
  9
$THICKNESS
 40
0.0
  9
$LIMCHECK
 70
     0
  9
$CHAMFERA
 40
0.5
  9
$CHAMFERB
 40
0.5
  9
$CHAMFERC
 40
1.0
  9
$CHAMFERD
 40
0.0
  9
$SKPOLY
 70
     0
  9
$TDCREATE
 40
2455307.425938704
  9
$TDUPDATE
 40
2455307.425938715
  9
$TDINDWG
 40
0.0000000116
  9
$TDUSRTIMER
 40
0.0000000116
  9
$USRTIMER
 70
     1
  9
$ANGBASE
 50
0.0
  9
$ANGDIR
 70
     0
  9
$PDMODE
 70
     0
  9
$PDSIZE
 40
0.0
  9
$PLINEWID
 40
0.0
  9
$COORDS
 70
     1
  9
$SPLFRAME
 70
     0
  9
$SPLINETYPE
 70
     6
  9
$SPLINESEGS
 70
     8
  9
$ATTDIA
 70
     0
  9
$ATTREQ
 70
     1
  9
$HANDLING
 70
     1
  9
$HANDSEED
  5
3BA
  9
$SURFTAB1
 70
     6
  9
$SURFTAB2
 70
     6
  9
$SURFTYPE
 70
     6
  9
$SURFU
 70
     6
  9
$SURFV
 70
     6
  9
$UCSNAME
  2

  9
$UCSORG
 10
0.0
 20
0.0
 30
0.0
  9
$UCSXDIR
 10
1.0
 20
0.0
 30
0.0
  9
$UCSYDIR
 10
0.0
 20
1.0
 30
0.0
  9
$PUCSNAME
  2

  9
$PUCSORG
 10
0.0
 20
0.0
 30
0.0
  9
$PUCSXDIR
 10
1.0
 20
0.0
 30
0.0
  9
$PUCSYDIR
 10
0.0
 20
1.0
 30
0.0
  9
$USERI1
 70
     0
  9
$USERI2
 70
     0
  9
$USERI3
 70
     0
  9
$USERI4
 70
     0
  9
$USERI5
 70
     0
  9
$USERR1
 40
0.0
  9
$USERR2
 40
0.0
  9
$USERR3
 40
0.0
  9
$USERR4
 40
0.0
  9
$USERR5
 40
0.0
  9
$WORLDVIEW
 70
     1
  9
$SHADEDGE
 70
     3
  9
$SHADEDIF
 70
    70
  9
$TILEMODE
 70
     1
  9
$MAXACTVP
 70
    64
  9
$PINSBASE
 10
0.0
 20
0.0
 30
0.0
  9
$PLIMCHECK
 70
     0
  9
$PEXTMIN
 10
1.000000E+20
 20
1.000000E+20
 30
1.000000E+20
  9
$PEXTMAX
 10
-1.000000E+20
 20
-1.000000E+20
 30
-1.000000E+20
  9
$PLIMMIN
 10
0.0
 20
0.0
  9
$PLIMMAX
 10
12.0
 20
9.0
  9
$UNITMODE
 70
     0
  9
$VISRETAIN
 70
     1
  9
$PLINEGEN
 70
     0
  9
$PSLTSCALE
 70
     1
  9
$TREEDEPTH
 70
  3020
  9
$PICKSTYLE
 70
     1
  9
$CMLSTYLE
  2
STANDARD
  9
$CMLJUST
 70
     0
  9
$CMLSCALE
 40
1.0
  9
$PROXYGRAPHICS
 70
     1
  9
$MEASUREMENT
 70
     0
  0
ENDSEC
  0
SECTION
  2
CLASSES
  0
CLASS
  1
ACDBDICTIONARYWDFLT
  2
AcDbDictionaryWithDefault
  3
ObjectDBX Classes
 90
        0
280
     0
281
     0
  0
CLASS
  1
XRECORD
  2
AcDbXrecord
  3
AutoCAD 2000
 90
        0
280
     0
281
     0
  0
CLASS
  1
LWPOLYLINE
  2
AcDbPolyline
  3
AutoCAD 2000
 90
        0
280
     0
281
     1
  0
CLASS
  1
HATCH
  2
AcDbHatch
  3
AutoCAD 2000
 90
        0
280
     0
281
     1
  0
CLASS
  1
ACDBPLACEHOLDER
  2
AcDbPlaceHolder
  3
ObjectDBX Classes
 90
        0
280
     0
281
     0
  0
CLASS
  1
LAYOUT
  2
AcDbLayout
  3
ObjectDBX Classes
 90
        0
280
     0
281
     0
  0
ENDSEC
  0
SECTION
  2
TABLES
  0
TABLE
  2
VPORT
  5
8
330
0
100
AcDbSymbolTable
 70
     1
  0
VPORT
  5
29
330
8
100
AcDbSymbolTableRecord
100
AcDbViewportTableRecord
  2
*ACTIVE
 70
     0
 10
0.0
 20
0.0
 11
1.0
 21
1.0
 12
210.0
 22
148.5
 13
0.0
 23
0.0
 14
0.5
 24
0.5
 15
0.5
 25
0.5
 16
0.0
 26
0.0
 36
1.0
 17
0.0
 27
0.0
 37
0.0
 40
297.0
 41
1.414141
 42
50.0
 43
0.0
 44
0.0
 50
0.0
 51
0.0
 71
     0
 72
   100
 73
     1
 74
     3
 75
     0
 76
     0
 77
     0
 78
     0
  0
ENDTAB
  0
TABLE
  2
LTYPE
  5
5
330
0
100
AcDbSymbolTable
 70
     4
  0
LTYPE
  5
14
330
5
100
AcDbSymbolTableRecord
100
AcDbLinetypeTableRecord
  2
BYBLOCK
 70
     0
  3

 72
    65
 73
     0
 40
0.0
  0
LTYPE
  5
15
330
5
100
AcDbSymbolTableRecord
100
AcDbLinetypeTableRecord
  2
BYLAYER
 70
     0
  3

 72
    65
 73
     0
 40
0.0
  0
LTYPE
  5
16
330
5
100
AcDbSymbolTableRecord
100
AcDbLinetypeTableRecord
  2
CONTINUOUS
 70
     0
  3
--------------------
 72
    65
 73
     0
 40
0.0
  0
LTYPE
  5
2A
330
5
100
AcDbSymbolTableRecord
100
AcDbLinetypeTableRecord
  2
CENTER
 70
     0
  3
Center ____ _ ____ _ ____ _ ____ _ ____ _ ____
 72
    65
 73
     4
 40
13.0
 49
10.0
 74
     0
 49
-1.0
 74
     0
 49
1.0
 74
     0
 49
-1.0
 74
     0
  0
ENDTAB
  0
TABLE
  2
LAYER
  5
2
330
0
100
AcDbSymbolTable
 70
    20
  0
LAYER
  5
10
330
2
100
AcDbSymbolTableRecord
100
AcDbLayerTableRecord
  2
0
 70
     0
 62
     7
  6
CONTINUOUS
  0
LAYER
  5
2D
330
2
100
AcDbSymbolTableRecord
100
AcDbLayerTableRecord
  2
LAYERGROUP-1
 70
     0
 62
     3
  6
CONTINUOUS
  0
LAYER
  5
3D
330
2
100
AcDbSymbolTableRecord
100
AcDbLayerTableRecord
  2
}}ﾊﾊGG血CCТ
 70
     0
 62
     3
  6
CONTINUOUS
  0
LAYER
  5
A8
330
2
100
AcDbSymbolTableRecord
100
AcDbLayerTableRecord
  2
GR1-1
 70
     0
 62
     7
  6
CONTINUOUS
  0
LAYER
  5
22C
330
2
100
AcDbSymbolTableRecord
100
AcDbLayerTableRecord
  2
0-1
 70
     0
 62
     7
  6
CONTINUOUS
  0
ENDTAB
  0
TABLE
  2
STYLE
  5
3
330
0
100
AcDbSymbolTable
 70
     4
  0
STYLE
  5
11
330
3
100
AcDbSymbolTableRecord
100
AcDbTextStyleTableRecord
  2
STANDARD
 70
     0
 40
0.0
 41
1.0
 50
0.0
 71
     0
 42
0.2
  3
txt
  4

  0
STYLE
  5
3F
330
3
100
AcDbSymbolTableRecord
100
AcDbTextStyleTableRecord
  2
STYLE1
 70
     0
 40
0.0
 41
1.0
 50
0.0
 71
     0
 42
0.2
  3
MONOTXT.SHX
  4
extfont.shx
  0
STYLE
  5
40
330
3
100
AcDbSymbolTableRecord
100
AcDbTextStyleTableRecord
  2
FX_VECTOR
 70
     0
 40
0.0
 41
1.0
 50
0.0
 71
     0
 42
0.2
  3
MONOTXT.SHX
  4
BIGFONT.SHX
  0
ENDTAB
  0
TABLE
  2
VIEW
  5
6
330
0
100
AcDbSymbolTable
 70
     0
  0
ENDTAB
  0
TABLE
  2
UCS
  5
7
330
0
100
AcDbSymbolTable
 70
     0
  0
ENDTAB
  0
TABLE
  2
APPID
  5
9
330
0
100
AcDbSymbolTable
 70
     1
  0
APPID
  5
12
330
9
100
AcDbSymbolTableRecord
100
AcDbRegAppTableRecord
  2
ACAD
 70
     0
  0
ENDTAB
  0
TABLE
  2
DIMSTYLE
  5
A
330
0
100
AcDbSymbolTable
 70
     2
  0
DIMSTYLE
105
27
330
A
100
AcDbSymbolTableRecord
100
AcDbDimStyleTableRecord
  2
STANDARD
 70
     0
  3

  4

  5

  6

  7

 40
1.0
 41
0.18
 42
0.0625
 43
0.38
 44
0.18
 45
0.0
 46
0.0
 47
0.0
 48
0.0
140
0.18
141
0.09
142
0.0
143
25.4
144
1.0
145
0.0
146
1.0
147
0.09
 71
     0
 72
     0
 73
     1
 74
     1
 75
     0
 76
     0
 77
     0
 78
     0
170
     0
171
     2
172
     0
173
     0
174
     0
175
     0
176
     0
177
     0
178
     0
270
     2
271
     4
272
     4
273
     2
274
     2
340
11
275
     0
280
     0
281
     0
282
     0
283
     1
284
     0
285
     0
286
     0
287
     3
288
     0
  0
DIMSTYLE
105
A7
330
A
100
AcDbSymbolTableRecord
100
AcDbDimStyleTableRecord
  2
FXDIMINFO
 70
     0
  3

  4

  5

  6
FXTIP_ARROW_S
  7
FXTIP_ARROW_E
 40
1.0
 41
4.0
 42
1.0
 43
10.0
 44
1.0
 45
0.0
 46
6.0
 47
0.0
 48
0.0
140
4.0
141
2.5
142
0.0
143
0.03937
144
1.0
145
0.0
146
1.0
147
1.0
 71
     0
 72
     0
 73
     0
 74
     0
 75
     0
 76
     0
 77
     1
 78
     8
170
     0
171
     3
172
     1
173
     1
174
     0
175
     0
176
     7
177
     7
178
     7
179
     2
270
     2
271
     2
272
     2
273
     2
274
     3
340
3F
275
     0
280
     0
281
     0
282
     0
283
     0
284
     8
285
     0
286
     0
287
     3
288
     0
  0
ENDTAB
  0
TABLE
  2
BLOCK_RECORD
  5
1
330
0
100
AcDbSymbolTable
 70
    19
  0
BLOCK_RECORD
  5
1F
330
1
100
AcDbSymbolTableRecord
100
AcDbBlockTableRecord
  2
*MODEL_SPACE
  0
BLOCK_RECORD
  5
1B
330
1
100
AcDbSymbolTableRecord
100
AcDbBlockTableRecord
  2
*PAPER_SPACE
  0
BLOCK_RECORD
  5
41
330
1
100
AcDbSymbolTableRecord
100
AcDbBlockTableRecord
  2
FXTIP_ARROW_S
  0
BLOCK_RECORD
  5
47
330
1
100
AcDbSymbolTableRecord
100
AcDbBlockTableRecord
  2
FXTIP_ARROW_E
  0
BLOCK_RECORD
  5
4D
330
1
100
AcDbSymbolTableRecord
100
AcDbBlockTableRecord
  2
FXTIP_BLACKDOT_S
  0
BLOCK_RECORD
  5
53
330
1
100
AcDbSymbolTableRecord
100
AcDbBlockTableRecord
  2
FXTIP_BLACKDOT_E
  0
BLOCK_RECORD
  5
59
330
1
100
AcDbSymbolTableRecord
100
AcDbBlockTableRecord
  2
FXTIP_TRIANGLE_S
  0
BLOCK_RECORD
  5
60
330
1
100
AcDbSymbolTableRecord
100
AcDbBlockTableRecord
  2
FXTIP_TRIANGLE_E
  0
BLOCK_RECORD
  5
67
330
1
100
AcDbSymbolTableRecord
100
AcDbBlockTableRecord
  2
FXTIP_ARCHITECT_S
  0
BLOCK_RECORD
  5
6D
330
1
100
AcDbSymbolTableRecord
100
AcDbBlockTableRecord
  2
FXTIP_ARCHITECT_E
  0
BLOCK_RECORD
  5
73
330
1
100
AcDbSymbolTableRecord
100
AcDbBlockTableRecord
  2
FXTIP_CIVIL_S
  0
BLOCK_RECORD
  5
79
330
1
100
AcDbSymbolTableRecord
100
AcDbBlockTableRecord
  2
FXTIP_CIVIL_E
  0
BLOCK_RECORD
  5
7F
330
1
100
AcDbSymbolTableRecord
100
AcDbBlockTableRecord
  2
FXTIP_WHITEDOT_S
  0
BLOCK_RECORD
  5
84
330
1
100
AcDbSymbolTableRecord
100
AcDbBlockTableRecord
  2
FXTIP_WHITEDOT_E
  0
BLOCK_RECORD
  5
89
330
1
100
AcDbSymbolTableRecord
100
AcDbBlockTableRecord
  2
FXTIP_UPARROW_S
  0
BLOCK_RECORD
  5
8E
330
1
100
AcDbSymbolTableRecord
100
AcDbBlockTableRecord
  2
FXTIP_UPARROW_E
  0
BLOCK_RECORD
  5
93
330
1
100
AcDbSymbolTableRecord
100
AcDbBlockTableRecord
  2
FXTIP_DOWNARROW_S
  0
BLOCK_RECORD
  5
98
330
1
100
AcDbSymbolTableRecord
100
AcDbBlockTableRecord
  2
FXTIP_DOWNARROW_E
  0
BLOCK_RECORD
  5
9D
330
1
100
AcDbSymbolTableRecord
100
AcDbBlockTableRecord
  2
FXTIP_BLACKTRIANGLE_S
  0
BLOCK_RECORD
  5
A2
330
1
100
AcDbSymbolTableRecord
100
AcDbBlockTableRecord
  2
FXTIP_BLACKTRIANGLE_E
  0
ENDTAB
  0
ENDSEC
  0
SECTION
  2
BLOCKS
  0
BLOCK
  5
20
330
1F
100
AcDbEntity
  8
0
100
AcDbBlockBegin
  2
*MODEL_SPACE
 70
     0
 71
     0
 10
0.0
 20
0.0
 30
0.0
  3
*MODEL_SPACE
  1

  0
ENDBLK
  5
21
330
1F
100
AcDbEntity
  8
0
100
AcDbBlockEnd
  0
BLOCK
  5
1C
330
1B
100
AcDbEntity
 67
     1
  8
0
100
AcDbBlockBegin
  2
*PAPER_SPACE
 70
     0
 71
     0
 10
0.0
 20
0.0
 30
0.0
  3
*PAPER_SPACE
  1

  0
ENDBLK
  5
1D
330
1B
100
AcDbEntity
 67
     1
  8
0
100
AcDbBlockEnd
  0
BLOCK
  5
42
330
41
100
AcDbEntity
  8
0
100
AcDbBlockBegin
  2
FXTIP_ARROW_S
 70
     0
 71
     0
 10
0.0
 20
0.0
 30
0.0
  3
FXTIP_ARROW_S
  1

  0
LINE
  5
44
330
41
100
AcDbEntity
  8
0
  6
CONTINUOUS
 62
     0
100
AcDbLine
 10
0.0
 20
0.0
 30
0.0
 11
-1.0
 21
0.0
 31
0.0
  0
LINE
  5
45
330
41
100
AcDbEntity
  8
0
  6
CONTINUOUS
 62
     0
100
AcDbLine
 10
0.0
 20
0.0
 30
0.0
 11
-0.965926
 21
-0.258819
 31
0.0
  0
LINE
  5
46
330
41
100
AcDbEntity
  8
0
  6
CONTINUOUS
 62
     0
100
AcDbLine
 10
0.0
 20
0.0
 30
0.0
 11
-0.965926
 21
0.258819
 31
0.0
  0
ENDBLK
  5
43
330
41
100
AcDbEntity
  8
0
100
AcDbBlockEnd
  0
BLOCK
  5
48
330
47
100
AcDbEntity
  8
0
100
AcDbBlockBegin
  2
FXTIP_ARROW_E
 70
     0
 71
     0
 10
0.0
 20
0.0
 30
0.0
  3
FXTIP_ARROW_E
  1

  0
LINE
  5
4A
330
47
100
AcDbEntity
  8
0
  6
CONTINUOUS
 62
     0
100
AcDbLine
 10
0.0
 20
0.0
 30
0.0
 11
-1.0
 21
0.0
 31
0.0
  0
LINE
  5
4B
330
47
100
AcDbEntity
  8
0
  6
CONTINUOUS
 62
     0
100
AcDbLine
 10
0.0
 20
0.0
 30
0.0
 11
-0.965926
 21
0.258819
 31
0.0
  0
LINE
  5
4C
330
47
100
AcDbEntity
  8
0
  6
CONTINUOUS
 62
     0
100
AcDbLine
 10
0.0
 20
0.0
 30
0.0
 11
-0.965926
 21
-0.258819
 31
0.0
  0
ENDBLK
  5
49
330
47
100
AcDbEntity
  8
0
100
AcDbBlockEnd
  0
BLOCK
  5
4E
330
4D
100
AcDbEntity
  8
0
100
AcDbBlockBegin
  2
FXTIP_BLACKDOT_S
 70
     0
 71
     0
 10
0.0
 20
0.0
 30
0.0
  3
FXTIP_BLACKDOT_S
  1

  0
LINE
  5
50
330
4D
100
AcDbEntity
  8
0
  6
CONTINUOUS
 62
     0
100
AcDbLine
 10
0.0
 20
0.0
 30
0.0
 11
-1.0
 21
0.0
 31
0.0
  0
LWPOLYLINE
  5
51
330
4D
100
AcDbEntity
  8
0
  6
CONTINUOUS
 62
     0
100
AcDbPolyline
 90
        2
 70
     1
 10
-0.25
 20
0.0
 40
0.5
 41
0.5
 42
1.0
 10
0.25
 20
0.0
 40
0.5
 41
0.5
 42
1.0
  0
CIRCLE
  5
52
330
4D
100
AcDbEntity
  8
0
  6
CONTINUOUS
 62
     0
100
AcDbCircle
 10
0.0
 20
0.0
 30
0.0
 40
0.5
  0
ENDBLK
  5
4F
330
4D
100
AcDbEntity
  8
0
100
AcDbBlockEnd
  0
BLOCK
  5
54
330
53
100
AcDbEntity
  8
0
100
AcDbBlockBegin
  2
FXTIP_BLACKDOT_E
 70
     0
 71
     0
 10
0.0
 20
0.0
 30
0.0
  3
FXTIP_BLACKDOT_E
  1

  0
LINE
  5
56
330
53
100
AcDbEntity
  8
0
  6
CONTINUOUS
 62
     0
100
AcDbLine
 10
0.0
 20
0.0
 30
0.0
 11
-1.0
 21
0.0
 31
0.0
  0
LWPOLYLINE
  5
57
330
53
100
AcDbEntity
  8
0
  6
CONTINUOUS
 62
     0
100
AcDbPolyline
 90
        2
 70
     1
 10
-0.25
 20
0.0
 40
0.5
 41
0.5
 42
1.0
 10
0.25
 20
0.0
 40
0.5
 41
0.5
 42
1.0
  0
CIRCLE
  5
58
330
53
100
AcDbEntity
  8
0
  6
CONTINUOUS
 62
     0
100
AcDbCircle
 10
0.0
 20
0.0
 30
0.0
 40
0.5
  0
ENDBLK
  5
55
330
53
100
AcDbEntity
  8
0
100
AcDbBlockEnd
  0
BLOCK
  5
5A
330
59
100
AcDbEntity
  8
0
100
AcDbBlockBegin
  2
FXTIP_TRIANGLE_S
 70
     0
 71
     0
 10
0.0
 20
0.0
 30
0.0
  3
FXTIP_TRIANGLE_S
  1

  0
LINE
  5
5C
330
59
100
AcDbEntity
  8
0
  6
CONTINUOUS
 62
     0
100
AcDbLine
 10
0.0
 20
0.0
 30
0.0
 11
-1.0
 21
0.0
 31
0.0
  0
LINE
  5
5D
330
59
100
AcDbEntity
  8
0
  6
CONTINUOUS
 62
     0
100
AcDbLine
 10
0.0
 20
0.0
 30
0.0
 11
-0.965926
 21
-0.258819
 31
0.0
  0
LINE
  5
5E
330
59
100
AcDbEntity
  8
0
  6
CONTINUOUS
 62
     0
100
AcDbLine
 10
0.0
 20
0.0
 30
0.0
 11
-0.965926
 21
0.258819
 31
0.0
  0
LINE
  5
5F
330
59
100
AcDbEntity
  8
0
  6
CONTINUOUS
 62
     0
100
AcDbLine
 10
-0.965926
 20
-0.258819
 30
0.0
 11
-0.965926
 21
0.258819
 31
0.0
  0
ENDBLK
  5
5B
330
59
100
AcDbEntity
  8
0
100
AcDbBlockEnd
  0
BLOCK
  5
61
330
60
100
AcDbEntity
  8
0
100
AcDbBlockBegin
  2
FXTIP_TRIANGLE_E
 70
     0
 71
     0
 10
0.0
 20
0.0
 30
0.0
  3
FXTIP_TRIANGLE_E
  1

  0
LINE
  5
63
330
60
100
AcDbEntity
  8
0
  6
CONTINUOUS
 62
     0
100
AcDbLine
 10
0.0
 20
0.0
 30
0.0
 11
-1.0
 21
0.0
 31
0.0
  0
LINE
  5
64
330
60
100
AcDbEntity
  8
0
  6
CONTINUOUS
 62
     0
100
AcDbLine
 10
0.0
 20
0.0
 30
0.0
 11
-0.965926
 21
0.258819
 31
0.0
  0
LINE
  5
65
330
60
100
AcDbEntity
  8
0
  6
CONTINUOUS
 62
     0
100
AcDbLine
 10
0.0
 20
0.0
 30
0.0
 11
-0.965926
 21
-0.258819
 31
0.0
  0
LINE
  5
66
330
60
100
AcDbEntity
  8
0
  6
CONTINUOUS
 62
     0
100
AcDbLine
 10
-0.965926
 20
0.258819
 30
0.0
 11
-0.965926
 21
-0.258819
 31
0.0
  0
ENDBLK
  5
62
330
60
100
AcDbEntity
  8
0
100
AcDbBlockEnd
  0
BLOCK
  5
68
330
67
100
AcDbEntity
  8
0
100
AcDbBlockBegin
  2
FXTIP_ARCHITECT_S
 70
     0
 71
     0
 10
0.0
 20
0.0
 30
0.0
  3
FXTIP_ARCHITECT_S
  1

  0
LINE
  5
6A
330
67
100
AcDbEntity
  8
0
  6
CONTINUOUS
 62
     0
100
AcDbLine
 10
0.0
 20
0.0
 30
0.0
 11
-1.0
 21
0.0
 31
0.0
  0
LINE
  5
6B
330
67
100
AcDbEntity
  8
0
  6
CONTINUOUS
 62
     0
100
AcDbLine
 10
0.0
 20
0.0
 30
0.0
 11
-0.707107
 21
-0.707107
 31
0.0
  0
LINE
  5
6C
330
67
100
AcDbEntity
  8
0
  6
CONTINUOUS
 62
     0
100
AcDbLine
 10
0.0
 20
0.0
 30
0.0
 11
0.707107
 21
0.707107
 31
0.0
  0
ENDBLK
  5
69
330
67
100
AcDbEntity
  8
0
100
AcDbBlockEnd
  0
BLOCK
  5
6E
330
6D
100
AcDbEntity
  8
0
100
AcDbBlockBegin
  2
FXTIP_ARCHITECT_E
 70
     0
 71
     0
 10
0.0
 20
0.0
 30
0.0
  3
FXTIP_ARCHITECT_E
  1

  0
LINE
  5
70
330
6D
100
AcDbEntity
  8
0
  6
CONTINUOUS
 62
     0
100
AcDbLine
 10
0.0
 20
0.0
 30
0.0
 11
-1.0
 21
0.0
 31
0.0
  0
LINE
  5
71
330
6D
100
AcDbEntity
  8
0
  6
CONTINUOUS
 62
     0
100
AcDbLine
 10
0.0
 20
0.0
 30
0.0
 11
0.707107
 21
0.707107
 31
0.0
  0
LINE
  5
72
330
6D
100
AcDbEntity
  8
0
  6
CONTINUOUS
 62
     0
100
AcDbLine
 10
0.0
 20
0.0
 30
0.0
 11
-0.707107
 21
-0.707107
 31
0.0
  0
ENDBLK
  5
6F
330
6D
100
AcDbEntity
  8
0
100
AcDbBlockEnd
  0
BLOCK
  5
74
330
73
100
AcDbEntity
  8
0
100
AcDbBlockBegin
  2
FXTIP_CIVIL_S
 70
     0
 71
     0
 10
0.0
 20
0.0
 30
0.0
  3
FXTIP_CIVIL_S
  1

  0
LINE
  5
76
330
73
100
AcDbEntity
  8
0
  6
CONTINUOUS
 62
     0
100
AcDbLine
 10
0.0
 20
0.0
 30
0.0
 11
-1.0
 21
0.0
 31
0.0
  0
LINE
  5
77
330
73
100
AcDbEntity
  8
0
  6
CONTINUOUS
 62
     0
100
AcDbLine
 10
0.0
 20
-0.0625
 30
0.0
 11
-1.0
 21
-0.0625
 31
0.0
  0
LINE
  5
78
330
73
100
AcDbEntity
  8
0
  6
CONTINUOUS
 62
     0
100
AcDbLine
 10
0.0
 20
-0.125
 30
0.0
 11
-1.0
 21
-0.125
 31
0.0
  0
ENDBLK
  5
75
330
73
100
AcDbEntity
  8
0
100
AcDbBlockEnd
  0
BLOCK
  5
7A
330
79
100
AcDbEntity
  8
0
100
AcDbBlockBegin
  2
FXTIP_CIVIL_E
 70
     0
 71
     0
 10
0.0
 20
0.0
 30
0.0
  3
FXTIP_CIVIL_E
  1

  0
LINE
  5
7C
330
79
100
AcDbEntity
  8
0
  6
CONTINUOUS
 62
     0
100
AcDbLine
 10
0.0
 20
0.0
 30
0.0
 11
-1.0
 21
0.0
 31
0.0
  0
LINE
  5
7D
330
79
100
AcDbEntity
  8
0
  6
CONTINUOUS
 62
     0
100
AcDbLine
 10
0.0
 20
0.0625
 30
0.0
 11
-1.0
 21
0.0625
 31
0.0
  0
LINE
  5
7E
330
79
100
AcDbEntity
  8
0
  6
CONTINUOUS
 62
     0
100
AcDbLine
 10
0.0
 20
0.125
 30
0.0
 11
-1.0
 21
0.125
 31
0.0
  0
ENDBLK
  5
7B
330
79
100
AcDbEntity
  8
0
100
AcDbBlockEnd
  0
BLOCK
  5
80
330
7F
100
AcDbEntity
  8
0
100
AcDbBlockBegin
  2
FXTIP_WHITEDOT_S
 70
     0
 71
     0
 10
0.0
 20
0.0
 30
0.0
  3
FXTIP_WHITEDOT_S
  1

  0
LINE
  5
82
330
7F
100
AcDbEntity
  8
0
  6
CONTINUOUS
 62
     0
100
AcDbLine
 10
0.0
 20
0.0
 30
0.0
 11
-1.0
 21
0.0
 31
0.0
  0
CIRCLE
  5
83
330
7F
100
AcDbEntity
  8
0
  6
CONTINUOUS
 62
     0
100
AcDbCircle
 10
0.0
 20
0.0
 30
0.0
 40
0.5
  0
ENDBLK
  5
81
330
7F
100
AcDbEntity
  8
0
100
AcDbBlockEnd
  0
BLOCK
  5
85
330
84
100
AcDbEntity
  8
0
100
AcDbBlockBegin
  2
FXTIP_WHITEDOT_E
 70
     0
 71
     0
 10
0.0
 20
0.0
 30
0.0
  3
FXTIP_WHITEDOT_E
  1

  0
LINE
  5
87
330
84
100
AcDbEntity
  8
0
  6
CONTINUOUS
 62
     0
100
AcDbLine
 10
0.0
 20
0.0
 30
0.0
 11
-1.0
 21
0.0
 31
0.0
  0
CIRCLE
  5
88
330
84
100
AcDbEntity
  8
0
  6
CONTINUOUS
 62
     0
100
AcDbCircle
 10
0.0
 20
0.0
 30
0.0
 40
0.5
  0
ENDBLK
  5
86
330
84
100
AcDbEntity
  8
0
100
AcDbBlockEnd
  0
BLOCK
  5
8A
330
89
100
AcDbEntity
  8
0
100
AcDbBlockBegin
  2
FXTIP_UPARROW_S
 70
     0
 71
     0
 10
0.0
 20
0.0
 30
0.0
  3
FXTIP_UPARROW_S
  1

  0
LINE
  5
8C
330
89
100
AcDbEntity
  8
0
  6
CONTINUOUS
 62
     0
100
AcDbLine
 10
0.0
 20
0.0
 30
0.0
 11
-1.0
 21
0.0
 31
0.0
  0
LINE
  5
8D
330
89
100
AcDbEntity
  8
0
  6
CONTINUOUS
 62
     0
100
AcDbLine
 10
0.0
 20
0.0
 30
0.0
 11
-0.965926
 21
-0.258819
 31
0.0
  0
ENDBLK
  5
8B
330
89
100
AcDbEntity
  8
0
100
AcDbBlockEnd
  0
BLOCK
  5
8F
330
8E
100
AcDbEntity
  8
0
100
AcDbBlockBegin
  2
FXTIP_UPARROW_E
 70
     0
 71
     0
 10
0.0
 20
0.0
 30
0.0
  3
FXTIP_UPARROW_E
  1

  0
LINE
  5
91
330
8E
100
AcDbEntity
  8
0
  6
CONTINUOUS
 62
     0
100
AcDbLine
 10
0.0
 20
0.0
 30
0.0
 11
-1.0
 21
0.0
 31
0.0
  0
LINE
  5
92
330
8E
100
AcDbEntity
  8
0
  6
CONTINUOUS
 62
     0
100
AcDbLine
 10
0.0
 20
0.0
 30
0.0
 11
-0.965926
 21
0.258819
 31
0.0
  0
ENDBLK
  5
90
330
8E
100
AcDbEntity
  8
0
100
AcDbBlockEnd
  0
BLOCK
  5
94
330
93
100
AcDbEntity
  8
0
100
AcDbBlockBegin
  2
FXTIP_DOWNARROW_S
 70
     0
 71
     0
 10
0.0
 20
0.0
 30
0.0
  3
FXTIP_DOWNARROW_S
  1

  0
LINE
  5
96
330
93
100
AcDbEntity
  8
0
  6
CONTINUOUS
 62
     0
100
AcDbLine
 10
0.0
 20
0.0
 30
0.0
 11
-1.0
 21
0.0
 31
0.0
  0
LINE
  5
97
330
93
100
AcDbEntity
  8
0
  6
CONTINUOUS
 62
     0
100
AcDbLine
 10
0.0
 20
0.0
 30
0.0
 11
-0.965926
 21
0.258819
 31
0.0
  0
ENDBLK
  5
95
330
93
100
AcDbEntity
  8
0
100
AcDbBlockEnd
  0
BLOCK
  5
99
330
98
100
AcDbEntity
  8
0
100
AcDbBlockBegin
  2
FXTIP_DOWNARROW_E
 70
     0
 71
     0
 10
0.0
 20
0.0
 30
0.0
  3
FXTIP_DOWNARROW_E
  1

  0
LINE
  5
9B
330
98
100
AcDbEntity
  8
0
  6
CONTINUOUS
 62
     0
100
AcDbLine
 10
0.0
 20
0.0
 30
0.0
 11
-1.0
 21
0.0
 31
0.0
  0
LINE
  5
9C
330
98
100
AcDbEntity
  8
0
  6
CONTINUOUS
 62
     0
100
AcDbLine
 10
0.0
 20
0.0
 30
0.0
 11
-0.965926
 21
-0.258819
 31
0.0
  0
ENDBLK
  5
9A
330
98
100
AcDbEntity
  8
0
100
AcDbBlockEnd
  0
BLOCK
  5
9E
330
9D
100
AcDbEntity
  8
0
100
AcDbBlockBegin
  2
FXTIP_BLACKTRIANGLE_S
 70
     0
 71
     0
 10
0.0
 20
0.0
 30
0.0
  3
FXTIP_BLACKTRIANGLE_S
  1

  0
LINE
  5
A0
330
9D
100
AcDbEntity
  8
0
  6
CONTINUOUS
 62
     0
100
AcDbLine
 10
0.0
 20
0.0
 30
0.0
 11
-1.0
 21
0.0
 31
0.0
  0
SOLID
  5
A1
330
9D
100
AcDbEntity
  8
0
  6
CONTINUOUS
 62
     0
100
AcDbTrace
 10
0.0
 20
0.0
 30
0.0
 11
-0.965926
 21
-0.258819
 31
0.0
 12
-0.965926
 22
0.258819
 32
0.0
 13
-0.965926
 23
0.258819
 33
0.0
  0
ENDBLK
  5
9F
330
9D
100
AcDbEntity
  8
0
100
AcDbBlockEnd
  0
BLOCK
  5
A3
330
A2
100
AcDbEntity
  8
0
100
AcDbBlockBegin
  2
FXTIP_BLACKTRIANGLE_E
 70
     0
 71
     0
 10
0.0
 20
0.0
 30
0.0
  3
FXTIP_BLACKTRIANGLE_E
  1

  0
LINE
  5
A5
330
A2
100
AcDbEntity
  8
0
  6
CONTINUOUS
 62
     0
100
AcDbLine
 10
0.0
 20
0.0
 30
0.0
 11
-1.0
 21
0.0
 31
0.0
  0
SOLID
  5
A6
330
A2
100
AcDbEntity
  8
0
  6
CONTINUOUS
 62
     0
100
AcDbTrace
 10
0.0
 20
0.0
 30
0.0
 11
-0.965926
 21
0.258819
 31
0.0
 12
-0.965926
 22
-0.258819
 32
0.0
 13
-0.965926
 23
-0.258819
 33
0.0
  0
ENDBLK
  5
A4
330
A2
100
AcDbEntity
  8
0
100
AcDbBlockEnd
  0
ENDSEC
  0
SECTION
  2
ENTITIES
  0
LINE
  5
A9
330
1F
100
AcDbEntity
  8
GR1-1
  6
CONTINUOUS
 62
     3
100
AcDbLine
 10
91.291022
 20
144.5
 30
0.0
 11
91.291022
 21
134.5
 31
0.0
  0
ARC
  5
AA
330
1F
100
AcDbEntity
  8
GR1-1
  6
CONTINUOUS
 62
     3
100
AcDbCircle
 10
135.458461
 20
139.577195
 30
0.0
 40
44.45830159704676
100
AcDbArc
 50
186.557559
 51
199.812712
  0
LINE
  5
AB
330
1F
100
AcDbEntity
  8
GR1-1
  6
CONTINUOUS
 62
     3
100
AcDbLine
 10
102.791022
 20
125.337485
 30
0.0
 11
102.791022
 21
66.662515
 31
0.0
  0
ARC
  5
AC
330
1F
100
AcDbEntity
  8
GR1-1
  6
CONTINUOUS
 62
     3
100
AcDbCircle
 10
104.791022
 20
66.662515
 30
0.0
 40
2.0
100
AcDbArc
 50
180.0
 51
257.364375
  0
ARC
  5
AD
330
1F
100
AcDbEntity
  8
GR1-1
  6
CONTINUOUS
 62
     3
100
AcDbCircle
 10
115.291022
 20
113.5
 30
0.0
 40
50.0
100
AcDbArc
 50
257.364375
 51
282.635625
  0
ARC
  5
AE
330
1F
100
AcDbEntity
  8
GR1-1
  6
CONTINUOUS
 62
     3
100
AcDbCircle
 10
125.791022
 20
66.662515
 30
0.0
 40
2.0
100
AcDbArc
 50
282.635625
 51
360.0
  0
LINE
  5
AF
330
1F
100
AcDbEntity
  8
GR1-1
  6
CONTINUOUS
 62
     3
100
AcDbLine
 10
127.791022
 20
66.662515
 30
0.0
 11
127.791022
 21
125.337485
 31
0.0
  0
ARC
  5
B0
330
1F
100
AcDbEntity
  8
GR1-1
  6
CONTINUOUS
 62
     3
100
AcDbCircle
 10
125.791022
 20
125.337485
 30
0.0
 40
2.0
100
AcDbArc
 50
0.0
 51
77.364375
  0
ARC
  5
B1
330
1F
100
AcDbEntity
  8
GR1-1
  6
CONTINUOUS
 62
     3
100
AcDbCircle
 10
115.291022
 20
78.5
 30
0.0
 40
50.0
100
AcDbArc
 50
77.364375
 51
102.635625
  0
ARC
  5
B2
330
1F
100
AcDbEntity
  8
GR1-1
  6
CONTINUOUS
 62
     3
100
AcDbCircle
 10
104.791022
 20
125.337485
 30
0.0
 40
2.0
100
AcDbArc
 50
102.635625
 51
180.0
  0
LINE
  5
B3
330
1F
100
AcDbEntity
  8
GR1-1
  6
CONTINUOUS
 62
     3
100
AcDbLine
 10
139.291022
 20
134.5
 30
0.0
 11
139.291022
 21
144.5
 31
0.0
  0
ARC
  5
B4
330
1F
100
AcDbEntity
  8
GR1-1
  6
CONTINUOUS
 62
     3
100
AcDbCircle
 10
135.291022
 20
144.5
 30
0.0
 40
4.0
100
AcDbArc
 50
0.0
 51
90.0
  0
LINE
  5
B5
330
1F
100
AcDbEntity
  8
GR1-1
  6
CONTINUOUS
 62
     3
100
AcDbLine
 10
135.291022
 20
148.5
 30
0.0
 11
95.291022
 21
148.5
 31
0.0
  0
ARC
  5
B6
330
1F
100
AcDbEntity
  8
GR1-1
  6
CONTINUOUS
 62
     3
100
AcDbCircle
 10
95.291022
 20
144.5
 30
0.0
 40
4.0
100
AcDbArc
 50
90.0
 51
180.0
  0
LINE
  5
B7
330
1F
100
AcDbEntity
  8
GR1-1
  6
CONTINUOUS
 62
     3
100
AcDbLine
 10
96.991022
 20
85.8
 30
0.0
 11
96.991022
 21
106.644349
 31
0.0
  0
ARC
  5
B8
330
1F
100
AcDbEntity
  8
GR1-1
  6
CONTINUOUS
 62
     3
100
AcDbCircle
 10
25.123703
 20
105.330788
 30
0.0
 40
71.87932238530509
100
AcDbArc
 50
1.047112
 51
6.722859
  0
ARC
  5
B9
330
1F
100
AcDbEntity
  8
GR1-1
  6
CONTINUOUS
 62
     3
100
AcDbCircle
 10
38.57113
 20
104.024257
 30
0.0
 40
58.74754495780596
100
AcDbArc
 50
9.524805
 51
20.406445
  0
LINE
  5
BA
330
1F
100
AcDbEntity
  8
GR1-1
  6
CONTINUOUS
 62
     3
100
AcDbLine
 10
101.291022
 20
110.5
 30
0.0
 11
102.791022
 21
110.5
 31
0.0
  0
ARC
  5
BB
330
1F
100
AcDbEntity
  8
GR1-1
  6
CONTINUOUS
 62
     3
100
AcDbCircle
 10
101.291022
 20
109.5
 30
0.0
 40
1.0
100
AcDbArc
 50
90.0
 51
180.0
  0
LINE
  5
BC
330
1F
100
AcDbEntity
  8
GR1-1
  6
CONTINUOUS
 62
     3
100
AcDbLine
 10
100.291022
 20
109.5
 30
0.0
 11
100.291022
 21
82.5
 31
0.0
  0
LINE
  5
BD
330
1F
100
AcDbEntity
  8
GR1-1
  6
CONTINUOUS
 62
     3
100
AcDbLine
 10
130.291022
 20
82.5
 30
0.0
 11
130.291022
 21
109.5
 31
0.0
  0
ARC
  5
BE
330
1F
100
AcDbEntity
  8
GR1-1
  6
CONTINUOUS
 62
     3
100
AcDbCircle
 10
129.291022
 20
109.5
 30
0.0
 40
1.0
100
AcDbArc
 50
0.0
 51
90.0
  0
LINE
  5
BF
330
1F
100
AcDbEntity
  8
GR1-1
  6
CONTINUOUS
 62
     3
100
AcDbLine
 10
129.291022
 20
110.5
 30
0.0
 11
127.791022
 21
110.5
 31
0.0
  0
LINE
  5
C0
330
1F
100
AcDbEntity
  8
GR1-1
  6
CONTINUOUS
 62
     3
100
AcDbLine
 10
133.591022
 20
106.644349
 30
0.0
 11
133.591022
 21
85.8
 31
0.0
  0
LINE
  5
C1
330
1F
100
AcDbEntity
  8
GR1-1
  6
CONTINUOUS
 62
     3
100
AcDbLine
 10
133.591022
 20
85.8
 30
0.0
 11
131.591022
 21
85.8
 31
0.0
  0
LINE
  5
C2
330
1F
100
AcDbEntity
  8
GR1-1
  6
CONTINUOUS
 62
     3
100
AcDbLine
 10
131.591022
 20
85.8
 30
0.0
 11
131.591022
 21
143.7
 31
0.0
  0
ARC
  5
C3
330
1F
100
AcDbEntity
  8
GR1-1
  6
CONTINUOUS
 62
     3
100
AcDbCircle
 10
130.591022
 20
143.7
 30
0.0
 40
1.0
100
AcDbArc
 50
0.0
 51
90.0
  0
LINE
  5
C4
330
1F
100
AcDbEntity
  8
GR1-1
  6
CONTINUOUS
 62
     3
100
AcDbLine
 10
130.591022
 20
144.7
 30
0.0
 11
99.991022
 21
144.7
 31
0.0
  0
ARC
  5
C5
330
1F
100
AcDbEntity
  8
GR1-1
  6
CONTINUOUS
 62
     3
100
AcDbCircle
 10
205.458341
 20
105.330788
 30
0.0
 40
71.87932238530509
100
AcDbArc
 50
173.277141
 51
178.952888
  0
LINE
  5
C6
330
1F
100
AcDbEntity
  8
GR1-1
  6
CONTINUOUS
 62
     3
100
AcDbLine
 10
133.591022
 20
102.0
 30
0.0
 11
134.15453
 21
102.0
 31
0.0
  0
ARC
  5
C7
330
1F
100
AcDbEntity
  8
GR1-1
  6
CONTINUOUS
 62
     3
100
AcDbCircle
 10
134.15453
 20
100.0
 30
0.0
 40
2.0
100
AcDbArc
 50
14.477512
 51
90.0
  0
LINE
  5
C8
330
1F
100
AcDbEntity
  8
GR1-1
  6
CONTINUOUS
 62
     3
100
AcDbLine
 10
136.091022
 20
100.5
 30
0.0
 11
136.091022
 21
91.5
 31
0.0
  0
LINE
  5
C9
330
1F
100
AcDbEntity
  8
GR1-1
  6
CONTINUOUS
 62
     3
100
AcDbLine
 10
134.15453
 20
90.0
 30
0.0
 11
133.591022
 21
90.0
 31
0.0
  0
ARC
  5
CA
330
1F
100
AcDbEntity
  8
GR1-1
  6
CONTINUOUS
 62
     3
100
AcDbCircle
 10
134.15453
 20
92.0
 30
0.0
 40
2.0
100
AcDbArc
 50
270.0
 51
345.522488
  0
LINE
  5
CB
330
1F
100
AcDbEntity
  8
GR1-1
  6
CONTINUOUS
 62
     3
100
AcDbLine
 10
131.591022
 20
92.0
 30
0.0
 11
130.291022
 21
92.0
 31
0.0
  0
LINE
  5
CC
330
1F
100
AcDbEntity
  8
GR1-1
  6
CONTINUOUS
 62
     3
100
AcDbLine
 10
130.291022
 20
100.0
 30
0.0
 11
131.591022
 21
100.0
 31
0.0
  0
ARC
  5
CD
330
1F
100
AcDbEntity
  8
GR1-1
  6
CONTINUOUS
 62
     3
100
AcDbCircle
 10
192.010913
 20
104.024257
 30
0.0
 40
58.74754495780596
100
AcDbArc
 50
159.593555
 51
170.475195
  0
ARC
  5
CE
330
1F
100
AcDbEntity
  8
GR1-1
  6
CONTINUOUS
 62
     3
100
AcDbCircle
 10
95.123583
 20
139.577195
 30
0.0
 40
44.45830159704676
100
AcDbArc
 50
340.187288
 51
353.442441
  0
LINE
  5
CF
330
1F
100
AcDbEntity
  8
GR1-1
  6
CONTINUOUS
 62
     3
100
AcDbLine
 10
182.5
 20
146.5
 30
0.0
 11
182.5
 21
148.5
 31
0.0
  0
LINE
  5
D0
330
1F
100
AcDbEntity
  8
GR1-1
  6
CONTINUOUS
 62
     3
100
AcDbLine
 10
182.5
 20
148.5
 30
0.0
 11
199.9386
 21
148.5
 31
0.0
  0
LINE
  5
D1
330
1F
100
AcDbEntity
  8
GR1-1
  6
CONTINUOUS
 62
     3
100
AcDbLine
 10
203.44225
 20
147.370774
 30
0.0
 11
205.154834
 21
147.811045
 31
0.0
  0
LINE
  5
D2
330
1F
100
AcDbEntity
  8
GR1-1
  6
CONTINUOUS
 62
     3
100
AcDbLine
 10
203.925307
 20
147.0
 30
0.0
 11
203.626131
 21
147.233087
 31
0.0
  0
ARC
  5
D3
330
1F
100
AcDbEntity
  8
GR1-1
  6
CONTINUOUS
 62
     3
100
AcDbCircle
 10
199.9386
 20
142.5
 30
0.0
 40
6.0
100
AcDbArc
 50
52.077971
 51
90.0
  0
LINE
  5
D4
330
1F
100
AcDbEntity
  8
GR1-1
  6
CONTINUOUS
 62
     3
100
AcDbLine
 10
206.648739
 20
148.0
 30
0.0
 11
228.351261
 21
148.0
 31
0.0
  0
ARC
  5
D5
330
1F
100
AcDbEntity
  8
GR1-1
  6
CONTINUOUS
 62
     3
100
AcDbCircle
 10
228.351261
 20
142.0
 30
0.0
 40
6.0
100
AcDbArc
 50
75.582593
 51
90.0
  0
LINE
  5
D6
330
1F
100
AcDbEntity
  8
GR1-1
  6
CONTINUOUS
 62
     3
100
AcDbLine
 10
229.845166
 20
147.811045
 30
0.0
 11
231.55775
 21
147.370774
 31
0.0
  0
LINE
  5
D7
330
1F
100
AcDbEntity
  8
GR1-1
  6
CONTINUOUS
 62
     3
100
AcDbLine
 10
231.373869
 20
147.233087
 30
0.0
 11
231.074693
 21
147.0
 31
0.0
  0
LINE
  5
D8
330
1F
100
AcDbEntity
  8
GR1-1
  6
CONTINUOUS
 62
     3
100
AcDbLine
 10
235.0614
 20
148.5
 30
0.0
 11
252.5
 21
148.5
 31
0.0
  0
ARC
  5
D9
330
1F
100
AcDbEntity
  8
GR1-1
  6
CONTINUOUS
 62
     3
100
AcDbCircle
 10
231.629839
 20
152.218337
 30
0.0
 40
14.87531301130728
100
AcDbArc
 50
313.900482
 51
340.043895
  0
ARC
  5
DA
330
1F
100
AcDbEntity
  8
GR1-1
  6
CONTINUOUS
 62
     3
100
AcDbCircle
 10
248.123097
 20
145.5
 30
0.0
 40
3.0
100
AcDbArc
 50
90.0
 51
146.829656
  0
ARC
  5
DB
330
1F
100
AcDbEntity
  8
GR1-1
  6
CONTINUOUS
 62
     3
100
AcDbCircle
 10
256.9826
 20
128.641681
 30
0.0
 40
19.78587564925622
100
AcDbArc
 50
139.467923
 51
159.330379
  0
ARC
  5
DC
330
1F
100
AcDbEntity
  8
GR1-1
  6
CONTINUOUS
 62
     3
100
AcDbCircle
 10
308.775542
 20
112.566573
 30
0.0
 40
73.99018287173159
100
AcDbArc
 50
161.841254
 51
169.440084
  0
ARC
  5
DD
330
1F
100
AcDbEntity
  8
GR1-1
  6
CONTINUOUS
 62
     3
100
AcDbCircle
 10
401.746309
 20
94.744285
 30
0.0
 40
168.6532454767878
100
AcDbArc
 50
169.276239
 51
171.509188
  0
ARC
  5
DE
330
1F
100
AcDbEntity
  8
GR1-1
  6
CONTINUOUS
 62
     3
100
AcDbCircle
 10
190.207408
 20
131.353265
 30
0.0
 40
46.50125136092785
100
AcDbArc
 50
340.923909
 51
350.348117
  0
LINE
  5
DF
330
1F
100
AcDbEntity
  8
GR1-1
  6
CONTINUOUS
 62
     3
100
AcDbLine
 10
233.100231
 20
112.623023
 30
0.0
 11
227.063047
 21
92.876283
 31
0.0
  0
CIRCLE
  5
E0
330
1F
100
AcDbEntity
  8
GR1-1
  6
CONTINUOUS
 62
     3
100
AcDbCircle
 10
217.5
 20
96.0
 30
0.0
 40
6.0
  0
LINE
  5
E1
330
1F
100
AcDbEntity
  8
GR1-1
  6
CONTINUOUS
 62
     3
100
AcDbLine
 10
207.936953
 20
92.876283
 30
0.0
 11
201.899769
 21
112.623023
 31
0.0
  0
ARC
  5
E2
330
1F
100
AcDbEntity
  8
GR1-1
  6
CONTINUOUS
 62
     3
100
AcDbCircle
 10
33.253691
 20
94.744285
 30
0.0
 40
168.6532454767878
100
AcDbArc
 50
8.490812
 51
10.723761
  0
ARC
  5
E3
330
1F
100
AcDbEntity
  8
GR1-1
  6
CONTINUOUS
 62
     3
100
AcDbCircle
 10
126.224458
 20
112.566573
 30
0.0
 40
73.99018287173159
100
AcDbArc
 50
10.559916
 51
18.158746
  0
ARC
  5
E4
330
1F
100
AcDbEntity
  8
GR1-1
  6
CONTINUOUS
 62
     3
100
AcDbCircle
 10
178.0174
 20
128.641681
 30
0.0
 40
19.78587564925622
100
AcDbArc
 50
20.669621
 51
40.532077
  0
LINE
  5
E5
330
1F
100
AcDbEntity
  8
GR1-1
  6
CONTINUOUS
 62
     3
100
AcDbLine
 10
191.261503
 20
143.578004
 30
0.0
 11
189.052342
 21
145.675562
 31
0.0
  0
ARC
  5
E6
330
1F
100
AcDbEntity
  8
GR1-1
  6
CONTINUOUS
 62
     3
100
AcDbCircle
 10
203.370161
 20
152.218337
 30
0.0
 40
14.87531301130728
100
AcDbArc
 50
199.956105
 51
226.099518
  0
ARC
  5
E7
330
1F
100
AcDbEntity
  8
GR1-1
  6
CONTINUOUS
 62
     3
100
AcDbCircle
 10
186.876903
 20
145.5
 30
0.0
 40
3.0
100
AcDbArc
 50
33.170344
 51
90.0
  0
ARC
  5
E8
330
1F
100
AcDbEntity
  8
GR1-1
  6
CONTINUOUS
 62
     3
100
AcDbCircle
 10
206.648739
 20
142.0
 30
0.0
 40
6.0
100
AcDbArc
 50
90.0
 51
104.417407
  0
ARC
  5
E9
330
1F
100
AcDbEntity
  8
GR1-1
  6
CONTINUOUS
 62
     3
100
AcDbCircle
 10
104.285417
 20
104.686643
 30
0.0
 40
96.52661334220392
100
AcDbArc
 50
11.273448
 51
21.6541
  0
ARC
  5
EA
330
1F
100
AcDbEntity
  8
GR1-1
  6
CONTINUOUS
 62
     3
100
AcDbCircle
 10
244.792592
 20
131.353265
 30
0.0
 40
46.50125136092785
100
AcDbArc
 50
189.651883
 51
199.076091
  0
ARC
  5
EB
330
1F
100
AcDbEntity
  8
GR1-1
  6
CONTINUOUS
 62
     3
100
AcDbCircle
 10
252.874714
 20
129.713313
 30
0.0
 40
53.76718458268896
100
AcDbArc
 50
190.791619
 51
198.671714
  0
ARC
  5
EC
330
1F
100
AcDbEntity
  8
GR1-1
  6
CONTINUOUS
 62
     3
100
AcDbCircle
 10
217.5
 20
96.0
 30
0.0
 40
32.5
100
AcDbArc
 50
-235.492263
 51
55.492263
  0
ARC
  5
ED
330
1F
100
AcDbEntity
  8
GR1-1
  6
CONTINUOUS
 62
     3
100
AcDbCircle
 10
182.125286
 20
129.713313
 30
0.0
 40
53.76718458268896
100
AcDbArc
 50
341.328286
 51
349.208381
  0
ARC
  5
EE
330
1F
100
AcDbEntity
  8
GR1-1
  6
CONTINUOUS
 62
     3
100
AcDbCircle
 10
330.714583
 20
104.686643
 30
0.0
 40
96.52661334220392
100
AcDbArc
 50
158.3459
 51
168.726552
  0
ARC
  5
EF
330
1F
100
AcDbEntity
  8
GR1-1
  6
CONTINUOUS
 62
     3
100
AcDbCircle
 10
235.0614
 20
142.5
 30
0.0
 40
6.0
100
AcDbArc
 50
90.0
 51
127.922029
  0
LINE
  5
F0
330
1F
100
AcDbEntity
  8
GR1-1
  6
CONTINUOUS
 62
     3
100
AcDbLine
 10
239.624298
 20
204.4
 30
0.0
 11
245.0
 21
204.4
 31
0.0
  0
LINE
  5
F1
330
1F
100
AcDbEntity
  8
GR1-1
  6
CONTINUOUS
 62
     3
100
AcDbLine
 10
245.0
 20
204.4
 30
0.0
 11
245.353553
 21
204.753553
 31
0.0
  0
LINE
  5
F2
330
1F
100
AcDbEntity
  8
GR1-1
  6
CONTINUOUS
 62
     3
100
AcDbLine
 10
245.707107
 20
204.9
 30
0.0
 11
248.0
 21
204.9
 31
0.0
  0
ARC
  5
F3
330
1F
100
AcDbEntity
  8
GR1-1
  6
CONTINUOUS
 62
     3
100
AcDbCircle
 10
248.0
 20
209.4
 30
0.0
 40
4.5
100
AcDbArc
 50
270.0
 51
360.0
  0
LINE
  5
F4
330
1F
100
AcDbEntity
  8
GR1-1
  6
CONTINUOUS
 62
     3
100
AcDbLine
 10
252.5
 20
209.4
 30
0.0
 11
252.5
 21
247.6
 31
0.0
  0
ARC
  5
F5
330
1F
100
AcDbEntity
  8
GR1-1
  6
CONTINUOUS
 62
     3
100
AcDbCircle
 10
248.0
 20
247.6
 30
0.0
 40
4.5
100
AcDbArc
 50
0.0
 51
90.0
  0
LINE
  5
F6
330
1F
100
AcDbEntity
  8
GR1-1
  6
CONTINUOUS
 62
     3
100
AcDbLine
 10
248.0
 20
252.1
 30
0.0
 11
245.707107
 21
252.1
 31
0.0
  0
ARC
  5
F7
330
1F
100
AcDbEntity
  8
GR1-1
  6
CONTINUOUS
 62
     3
100
AcDbCircle
 10
245.707107
 20
252.6
 30
0.0
 40
0.5
100
AcDbArc
 50
225.0
 51
270.0
  0
LINE
  5
F8
330
1F
100
AcDbEntity
  8
GR1-1
  6
CONTINUOUS
 62
     3
100
AcDbLine
 10
245.353553
 20
252.246447
 30
0.0
 11
245.0
 21
252.6
 31
0.0
  0
LINE
  5
F9
330
1F
100
AcDbEntity
  8
GR1-1
  6
CONTINUOUS
 62
     3
100
AcDbLine
 10
245.0
 20
252.6
 30
0.0
 11
239.624298
 21
252.6
 31
0.0
  0
ARC
  5
FA
330
1F
100
AcDbEntity
  8
GR1-1
  6
CONTINUOUS
 62
     3
100
AcDbCircle
 10
239.624298
 20
245.6
 30
0.0
 40
7.0
100
AcDbArc
 50
90.0
 51
143.639977
  0
LINE
  5
FB
330
1F
100
AcDbEntity
  8
GR1-1
  6
CONTINUOUS
 62
     3
100
AcDbLine
 10
228.349991
 20
246.9
 30
0.0
 11
206.650009
 21
246.9
 31
0.0
  0
ARC
  5
FC
330
1F
100
AcDbEntity
  8
GR1-1
  6
CONTINUOUS
 62
     3
100
AcDbCircle
 10
228.349991
 20
253.9
 30
0.0
 40
7.0
100
AcDbArc
 50
270.0
 51
323.639977
  0
CIRCLE
  5
FD
330
1F
100
AcDbEntity
  8
GR1-1
  6
CONTINUOUS
 62
     3
100
AcDbCircle
 10
245.0
 20
242.5
 30
0.0
 40
4.4
  0
CIRCLE
  5
FE
330
1F
100
AcDbEntity
  8
GR1-1
  6
CONTINUOUS
 62
     3
100
AcDbCircle
 10
245.0
 20
214.5
 30
0.0
 40
4.4
  0
ARC
  5
FF
330
1F
100
AcDbEntity
  8
GR1-1
  6
CONTINUOUS
 62
     3
100
AcDbCircle
 10
245.707107
 20
204.4
 30
0.0
 40
0.5
100
AcDbArc
 50
90.0
 51
135.0
  0
ARC
  5
100
330
1F
100
AcDbEntity
  8
GR1-1
  6
CONTINUOUS
 62
     3
100
AcDbCircle
 10
239.624298
 20
211.4
 30
0.0
 40
7.0
100
AcDbArc
 50
216.360023
 51
270.0
  0
ARC
  5
101
330
1F
100
AcDbEntity
  8
GR1-1
  6
CONTINUOUS
 62
     3
100
AcDbCircle
 10
228.349991
 20
203.1
 30
0.0
 40
7.0
100
AcDbArc
 50
36.360023
 51
90.0
  0
LINE
  5
102
330
1F
100
AcDbEntity
  8
GR1-1
  6
CONTINUOUS
 62
     3
100
AcDbLine
 10
228.349991
 20
210.1
 30
0.0
 11
206.650009
 21
210.1
 31
0.0
  0
ARC
  5
103
330
1F
100
AcDbEntity
  8
GR1-1
  6
CONTINUOUS
 62
     3
100
AcDbCircle
 10
206.650009
 20
203.1
 30
0.0
 40
7.0
100
AcDbArc
 50
90.0
 51
143.639977
  0
LINE
  5
104
330
1F
100
AcDbEntity
  8
GR1-1
  6
CONTINUOUS
 62
     3
100
AcDbLine
 10
195.375702
 20
204.4
 30
0.0
 11
190.0
 21
204.4
 31
0.0
  0
LINE
  5
105
330
1F
100
AcDbEntity
  8
GR1-1
  6
CONTINUOUS
 62
     3
100
AcDbLine
 10
190.0
 20
204.4
 30
0.0
 11
189.646447
 21
204.753553
 31
0.0
  0
ARC
  5
106
330
1F
100
AcDbEntity
  8
GR1-1
  6
CONTINUOUS
 62
     3
100
AcDbCircle
 10
189.292893
 20
204.4
 30
0.0
 40
0.5
100
AcDbArc
 50
45.0
 51
90.0
  0
LINE
  5
107
330
1F
100
AcDbEntity
  8
GR1-1
  6
CONTINUOUS
 62
     3
100
AcDbLine
 10
189.292893
 20
204.9
 30
0.0
 11
187.0
 21
204.9
 31
0.0
  0
LINE
  5
108
330
1F
100
AcDbEntity
  8
GR1-1
  6
CONTINUOUS
 62
     3
100
AcDbLine
 10
182.5
 20
209.4
 30
0.0
 11
182.5
 21
247.6
 31
0.0
  0
LINE
  5
109
330
1F
100
AcDbEntity
  8
GR1-1
  6
CONTINUOUS
 62
     3
100
AcDbLine
 10
187.0
 20
252.1
 30
0.0
 11
189.292893
 21
252.1
 31
0.0
  0
ARC
  5
10A
330
1F
100
AcDbEntity
  8
GR1-1
  6
CONTINUOUS
 62
     3
100
AcDbCircle
 10
189.292893
 20
252.6
 30
0.0
 40
0.5
100
AcDbArc
 50
270.0
 51
315.0
  0
LINE
  5
10B
330
1F
100
AcDbEntity
  8
GR1-1
  6
CONTINUOUS
 62
     3
100
AcDbLine
 10
189.646447
 20
252.246447
 30
0.0
 11
190.0
 21
252.6
 31
0.0
  0
LINE
  5
10C
330
1F
100
AcDbEntity
  8
GR1-1
  6
CONTINUOUS
 62
     3
100
AcDbLine
 10
190.0
 20
252.6
 30
0.0
 11
195.375702
 21
252.6
 31
0.0
  0
ARC
  5
10D
330
1F
100
AcDbEntity
  8
GR1-1
  6
CONTINUOUS
 62
     3
100
AcDbCircle
 10
206.650009
 20
253.9
 30
0.0
 40
7.0
100
AcDbArc
 50
216.360023
 51
270.0
  0
ARC
  5
10E
330
1F
100
AcDbEntity
  8
GR1-1
  6
CONTINUOUS
 62
     3
100
AcDbCircle
 10
195.375702
 20
245.6
 30
0.0
 40
7.0
100
AcDbArc
 50
36.360023
 51
90.0
  0
ARC
  5
10F
330
1F
100
AcDbEntity
  8
GR1-1
  6
CONTINUOUS
 62
     3
100
AcDbCircle
 10
187.0
 20
247.6
 30
0.0
 40
4.5
100
AcDbArc
 50
90.0
 51
180.0
  0
CIRCLE
  5
110
330
1F
100
AcDbEntity
  8
GR1-1
  6
CONTINUOUS
 62
     3
100
AcDbCircle
 10
190.0
 20
242.5
 30
0.0
 40
4.4
  0
CIRCLE
  5
111
330
1F
100
AcDbEntity
  8
GR1-1
  6
CONTINUOUS
 62
     3
100
AcDbCircle
 10
190.0
 20
214.5
 30
0.0
 40
4.4
  0
ARC
  5
112
330
1F
100
AcDbEntity
  8
GR1-1
  6
CONTINUOUS
 62
     3
100
AcDbCircle
 10
195.375702
 20
211.4
 30
0.0
 40
7.0
100
AcDbArc
 50
270.0
 51
323.639977
  0
LINE
  5
113
330
1F
100
AcDbEntity
  8
GR1-1
  6
CONTINUOUS
 62
     3
100
AcDbLine
 10
211.5
 20
209.536492
 30
0.0
 11
211.5
 21
210.1
 31
0.0
  0
ARC
  5
114
330
1F
100
AcDbEntity
  8
GR1-1
  6
CONTINUOUS
 62
     3
100
AcDbCircle
 10
213.5
 20
209.536492
 30
0.0
 40
2.0
100
AcDbArc
 50
180.0
 51
255.522488
  0
LINE
  5
115
330
1F
100
AcDbEntity
  8
GR1-1
  6
CONTINUOUS
 62
     3
100
AcDbLine
 10
213.0
 20
207.6
 30
0.0
 11
222.0
 21
207.6
 31
0.0
  0
ARC
  5
116
330
1F
100
AcDbEntity
  8
GR1-1
  6
CONTINUOUS
 62
     3
100
AcDbCircle
 10
221.5
 20
209.536492
 30
0.0
 40
2.0
100
AcDbArc
 50
284.477512
 51
360.0
  0
LINE
  5
117
330
1F
100
AcDbEntity
  8
GR1-1
  6
CONTINUOUS
 62
     3
100
AcDbLine
 10
223.5
 20
209.536492
 30
0.0
 11
223.5
 21
210.1
 31
0.0
  0
ARC
  5
118
330
1F
100
AcDbEntity
  8
GR1-1
  6
CONTINUOUS
 62
     3
100
AcDbCircle
 10
187.0
 20
209.4
 30
0.0
 40
4.5
100
AcDbArc
 50
180.0
 51
270.0
  0
ARC
  5
119
330
1F
100
AcDbEntity
  8
GR1-1
  6
CONTINUOUS
 62
     3
100
AcDbCircle
 10
217.5
 20
95.8
 30
0.0
 40
10.0
100
AcDbArc
 50
197.0
 51
343.0
  0
LINE
  5
11A
330
1F
100
AcDbEntity
  8
GR1-1
  6
CENTER
 62
     6
100
AcDbLine
 10
87.290255
 20
96.0
 30
0.0
 11
138.344113
 21
96.0
 31
0.0
  0
LINE
  5
11B
330
1F
100
AcDbEntity
  8
GR1-1
  6
CENTER
 62
     6
100
AcDbLine
 10
115.291022
 20
61.411808
 30
0.0
 11
115.291022
 21
151.016539
 31
0.0
  0
LINE
  5
11C
330
1F
100
AcDbEntity
  8
GR1-1
  6
CENTER
 62
     6
100
AcDbLine
 10
181.975229
 20
96.0
 30
0.0
 11
252.5
 21
96.0
 31
0.0
  0
LINE
  5
11D
330
1F
100
AcDbEntity
  8
GR1-1
  6
CONTINUOUS
 62
     6
100
AcDbLine
 10
231.074693
 20
112.5
 30
0.0
 11
231.074693
 21
144.5
 31
0.0
  0
LINE
  5
11E
330
1F
100
AcDbEntity
  8
GR1-1
  6
CENTER
 62
     6
100
AcDbLine
 10
217.5
 20
150.899822
 30
0.0
 11
217.5
 21
61.044575
 31
0.0
  0
CIRCLE
  5
11F
330
1F
100
AcDbEntity
  8
GR1-1
  6
CONTINUOUS
 62
     6
100
AcDbCircle
 10
217.5
 20
96.0
 30
0.0
 40
4.5
  0
LINE
  5
120
330
1F
100
AcDbEntity
  8
GR1-1
  6
CONTINUOUS
 62
     6
100
AcDbLine
 10
203.925307
 20
112.5
 30
0.0
 11
203.925307
 21
144.5
 31
0.0
  0
LINE
  5
121
330
1F
100
AcDbEntity
  8
GR1-1
  6
CENTER
 62
     6
100
AcDbLine
 10
217.5
 20
205.369797
 30
0.0
 11
217.5
 21
253.186939
 31
0.0
  0
ARC
  5
122
330
1F
100
AcDbEntity
  8
GR1-1
  6
CONTINUOUS
 62
     6
100
AcDbCircle
 10
225.5
 20
228.5
 30
0.0
 40
26.5
100
AcDbArc
 50
137.731942
 51
222.268058
  0
ARC
  5
123
330
1F
100
AcDbEntity
  8
GR1-1
  6
CONTINUOUS
 62
     6
100
AcDbCircle
 10
206.5
 20
202.9
 30
0.0
 40
7.8
100
AcDbArc
 50
94.48661
 51
109.274166
  0
LINE
  5
124
330
1F
100
AcDbEntity
  8
GR1-1
  6
CONTINUOUS
 62
     6
100
AcDbLine
 10
198.0
 20
214.5
 30
0.0
 11
193.0
 21
214.5
 31
0.0
  0
LINE
  5
125
330
1F
100
AcDbEntity
  8
GR1-1
  6
CONTINUOUS
 62
     6
100
AcDbLine
 10
191.5
 20
214.5
 30
0.0
 11
188.5
 21
214.5
 31
0.0
  0
LINE
  5
126
330
1F
100
AcDbEntity
  8
GR1-1
  6
CONTINUOUS
 62
     6
100
AcDbLine
 10
187.0
 20
214.5
 30
0.0
 11
182.0
 21
214.5
 31
0.0
  0
LINE
  5
127
330
1F
100
AcDbEntity
  8
GR1-1
  6
CONTINUOUS
 62
     6
100
AcDbLine
 10
190.0
 20
216.0
 30
0.0
 11
190.0
 21
213.0
 31
0.0
  0
LINE
  5
128
330
1F
100
AcDbEntity
  8
GR1-1
  6
CONTINUOUS
 62
     6
100
AcDbLine
 10
190.0
 20
211.5
 30
0.0
 11
190.0
 21
206.5
 31
0.0
  0
LINE
  5
129
330
1F
100
AcDbEntity
  8
GR1-1
  6
CONTINUOUS
 62
     6
100
AcDbLine
 10
190.0
 20
217.5
 30
0.0
 11
190.0
 21
222.5
 31
0.0
  0
LINE
  5
12A
330
1F
100
AcDbEntity
  8
GR1-1
  6
CONTINUOUS
 62
     6
100
AcDbLine
 10
189.359958
 20
227.509854
 30
0.0
 11
193.599843
 21
226.910185
 31
0.0
  0
LINE
  5
12B
330
1F
100
AcDbEntity
  8
GR1-1
  6
CONTINUOUS
 62
     6
100
AcDbLine
 10
193.599843
 20
230.089815
 30
0.0
 11
189.359958
 21
229.490146
 31
0.0
  0
ARC
  5
12C
330
1F
100
AcDbEntity
  8
GR1-1
  6
CONTINUOUS
 62
     6
100
AcDbCircle
 10
189.5
 20
228.5
 30
0.0
 40
1.0
100
AcDbArc
 50
98.050254
 51
261.949746
  0
ARC
  5
12D
330
1F
100
AcDbEntity
  8
GR1-1
  6
CONTINUOUS
 62
     6
100
AcDbCircle
 10
192.899635
 20
235.040543
 30
0.0
 40
5.0
100
AcDbArc
 50
278.050254
 51
348.655478
  0
LINE
  5
12E
330
1F
100
AcDbEntity
  8
GR1-1
  6
CONTINUOUS
 62
     6
100
AcDbLine
 10
190.0
 20
234.5
 30
0.0
 11
190.0
 21
239.5
 31
0.0
  0
LINE
  5
12F
330
1F
100
AcDbEntity
  8
GR1-1
  6
CONTINUOUS
 62
     6
100
AcDbLine
 10
190.0
 20
241.0
 30
0.0
 11
190.0
 21
244.0
 31
0.0
  0
LINE
  5
130
330
1F
100
AcDbEntity
  8
GR1-1
  6
CONTINUOUS
 62
     6
100
AcDbLine
 10
190.0
 20
245.5
 30
0.0
 11
190.0
 21
250.5
 31
0.0
  0
LINE
  5
131
330
1F
100
AcDbEntity
  8
GR1-1
  6
CONTINUOUS
 62
     6
100
AcDbLine
 10
191.5
 20
242.5
 30
0.0
 11
188.5
 21
242.5
 31
0.0
  0
LINE
  5
132
330
1F
100
AcDbEntity
  8
GR1-1
  6
CONTINUOUS
 62
     6
100
AcDbLine
 10
187.0
 20
242.5
 30
0.0
 11
182.0
 21
242.5
 31
0.0
  0
LINE
  5
133
330
1F
100
AcDbEntity
  8
GR1-1
  6
CONTINUOUS
 62
     6
100
AcDbLine
 10
193.0
 20
242.5
 30
0.0
 11
198.0
 21
242.5
 31
0.0
  0
ARC
  5
134
330
1F
100
AcDbEntity
  8
GR1-1
  6
CONTINUOUS
 62
     6
100
AcDbCircle
 10
225.5
 20
228.5
 30
0.0
 40
28.25
100
AcDbArc
 50
139.792003
 51
168.655478
  0
ARC
  5
135
330
1F
100
AcDbEntity
  8
GR1-1
  6
CONTINUOUS
 62
     6
100
AcDbCircle
 10
192.899635
 20
221.959457
 30
0.0
 40
5.0
100
AcDbArc
 50
11.344522
 51
81.949746
  0
ARC
  5
136
330
1F
100
AcDbEntity
  8
GR1-1
  6
CONTINUOUS
 62
     6
100
AcDbCircle
 10
225.5
 20
228.5
 30
0.0
 40
28.25
100
AcDbArc
 50
191.344522
 51
220.207997
  0
ARC
  5
137
330
1F
100
AcDbEntity
  8
GR1-1
  6
CONTINUOUS
 62
     6
100
AcDbCircle
 10
209.5
 20
228.5
 30
0.0
 40
26.5
100
AcDbArc
 50
-42.268058
 51
42.268058
  0
ARC
  5
138
330
1F
100
AcDbEntity
  8
GR1-1
  6
CONTINUOUS
 62
     6
100
AcDbCircle
 10
228.5
 20
254.1
 30
0.0
 40
7.8
100
AcDbArc
 50
274.48661
 51
289.274166
  0
LINE
  5
139
330
1F
100
AcDbEntity
  8
GR1-1
  6
CONTINUOUS
 62
     6
100
AcDbLine
 10
237.0
 20
242.5
 30
0.0
 11
242.0
 21
242.5
 31
0.0
  0
LINE
  5
13A
330
1F
100
AcDbEntity
  8
GR1-1
  6
CONTINUOUS
 62
     6
100
AcDbLine
 10
243.5
 20
242.5
 30
0.0
 11
246.5
 21
242.5
 31
0.0
  0
LINE
  5
13B
330
1F
100
AcDbEntity
  8
GR1-1
  6
CONTINUOUS
 62
     6
100
AcDbLine
 10
248.0
 20
242.5
 30
0.0
 11
253.0
 21
242.5
 31
0.0
  0
LINE
  5
13C
330
1F
100
AcDbEntity
  8
GR1-1
  6
CONTINUOUS
 62
     6
100
AcDbLine
 10
245.0
 20
241.0
 30
0.0
 11
245.0
 21
244.0
 31
0.0
  0
LINE
  5
13D
330
1F
100
AcDbEntity
  8
GR1-1
  6
CONTINUOUS
 62
     6
100
AcDbLine
 10
245.0
 20
245.5
 30
0.0
 11
245.0
 21
250.5
 31
0.0
  0
LINE
  5
13E
330
1F
100
AcDbEntity
  8
GR1-1
  6
CONTINUOUS
 62
     6
100
AcDbLine
 10
245.0
 20
239.5
 30
0.0
 11
245.0
 21
234.5
 31
0.0
  0
LINE
  5
13F
330
1F
100
AcDbEntity
  8
GR1-1
  6
CONTINUOUS
 62
     6
100
AcDbLine
 10
245.640042
 20
229.490146
 30
0.0
 11
241.400157
 21
230.089815
 31
0.0
  0
ARC
  5
140
330
1F
100
AcDbEntity
  8
GR1-1
  6
CONTINUOUS
 62
     6
100
AcDbCircle
 10
242.100365
 20
221.959457
 30
0.0
 40
5.0
100
AcDbArc
 50
98.050254
 51
168.655478
  0
LINE
  5
141
330
1F
100
AcDbEntity
  8
GR1-1
  6
CONTINUOUS
 62
     6
100
AcDbLine
 10
241.400157
 20
226.910185
 30
0.0
 11
245.640042
 21
227.509854
 31
0.0
  0
ARC
  5
142
330
1F
100
AcDbEntity
  8
GR1-1
  6
CONTINUOUS
 62
     6
100
AcDbCircle
 10
245.5
 20
228.5
 30
0.0
 40
1.0
100
AcDbArc
 50
-81.949746
 51
81.949746
  0
LINE
  5
143
330
1F
100
AcDbEntity
  8
GR1-1
  6
CONTINUOUS
 62
     6
100
AcDbLine
 10
245.0
 20
222.5
 30
0.0
 11
245.0
 21
217.5
 31
0.0
  0
LINE
  5
144
330
1F
100
AcDbEntity
  8
GR1-1
  6
CONTINUOUS
 62
     6
100
AcDbLine
 10
245.0
 20
216.0
 30
0.0
 11
245.0
 21
213.0
 31
0.0
  0
LINE
  5
145
330
1F
100
AcDbEntity
  8
GR1-1
  6
CONTINUOUS
 62
     6
100
AcDbLine
 10
245.0
 20
211.5
 30
0.0
 11
245.0
 21
206.5
 31
0.0
  0
LINE
  5
146
330
1F
100
AcDbEntity
  8
GR1-1
  6
CONTINUOUS
 62
     6
100
AcDbLine
 10
246.5
 20
214.5
 30
0.0
 11
243.5
 21
214.5
 31
0.0
  0
LINE
  5
147
330
1F
100
AcDbEntity
  8
GR1-1
  6
CONTINUOUS
 62
     6
100
AcDbLine
 10
242.0
 20
214.5
 30
0.0
 11
237.0
 21
214.5
 31
0.0
  0
ARC
  5
148
330
1F
100
AcDbEntity
  8
GR1-1
  6
CONTINUOUS
 62
     6
100
AcDbCircle
 10
228.5
 20
202.9
 30
0.0
 40
7.8
100
AcDbArc
 50
70.725834
 51
85.51339
  0
ARC
  5
149
330
1F
100
AcDbEntity
  8
GR1-1
  6
CONTINUOUS
 62
     6
100
AcDbCircle
 10
209.5
 20
228.5
 30
0.0
 40
28.25
100
AcDbArc
 50
319.792003
 51
348.655478
  0
ARC
  5
14A
330
1F
100
AcDbEntity
  8
GR1-1
  6
CONTINUOUS
 62
     6
100
AcDbCircle
 10
242.100365
 20
235.040543
 30
0.0
 40
5.0
100
AcDbArc
 50
191.344522
 51
261.949746
  0
ARC
  5
14B
330
1F
100
AcDbEntity
  8
GR1-1
  6
CONTINUOUS
 62
     6
100
AcDbCircle
 10
209.5
 20
228.5
 30
0.0
 40
28.25
100
AcDbArc
 50
11.344522
 51
40.207997
  0
ARC
  5
14C
330
1F
100
AcDbEntity
  8
GR1-1
  6
CONTINUOUS
 62
     6
100
AcDbCircle
 10
206.5
 20
254.1
 30
0.0
 40
7.8
100
AcDbArc
 50
250.725834
 51
265.51339
  0
LINE
  5
14D
330
1F
100
AcDbEntity
  8
GR1-1
  6
CENTER
 62
     6
100
AcDbLine
 10
180.005437
 20
228.5
 30
0.0
 11
256.412852
 21
228.5
 31
0.0
  0
LINE
  5
14E
330
1F
100
AcDbEntity
  8
GR1-1
  6
CONTINUOUS
 62
     6
100
AcDbLine
 10
253.0
 20
214.5
 30
0.0
 11
248.0
 21
214.5
 31
0.0
  0
TEXT
  5
14F
330
1F
100
AcDbEntity
  8
GR1-1
  6
CONTINUOUS
 62
     7
100
AcDbText
 10
155.543564
 20
12.080676
 30
0.0
 40
6.0
  1
ＳＵＳ－ＳＫ－　６５　Ｒ
 41
0.788732
  7
FX_VECTOR
 72
     5
 11
203.543564
 21
12.080676
 31
0.0
100
AcDbText
  0
TEXT
  5
150
330
1F
100
AcDbEntity
  8
GR1-1
  6
CONTINUOUS
 62
     7
100
AcDbText
 10
224.817749
 20
80.75798
 30
0.0
 40
6.148695
  1
D
 50
195.0
 41
1.163253
  7
FX_VECTOR
 72
     5
 11
218.895945
 21
79.171238
 31
0.0
100
AcDbText
  0
LINE
  5
151
330
1F
100
AcDbEntity
  8
GR1-1
  6
CONTINUOUS
 62
     7
100
AcDbLine
 10
239.364906
 20
100.810859
 30
0.0
 11
239.88734
 21
95.840239
 31
0.0
  0
LINE
  5
152
330
1F
100
AcDbEntity
  8
GR1-1
  6
CONTINUOUS
 62
     7
100
AcDbLine
 10
239.88734
 20
95.840239
 30
0.0
 11
234.916719
 21
95.317806
 31
0.0
  0
LINE
  5
153
330
1F
100
AcDbEntity
  8
GR1-1
  6
CONTINUOUS
 62
     7
100
AcDbLine
 10
234.916719
 20
95.317806
 30
0.0
 11
234.394286
 21
100.288426
 31
0.0
  0
LINE
  5
154
330
1F
100
AcDbEntity
  8
GR1-1
  6
CONTINUOUS
 62
     7
100
AcDbLine
 10
234.394286
 20
100.288426
 30
0.0
 11
239.364906
 21
100.810859
 31
0.0
  0
LINE
  5
155
330
1F
100
AcDbEntity
  8
GR1-1
  6
CONTINUOUS
 62
     7
100
AcDbLine
 10
239.483986
 20
98.31061
 30
0.0
 11
237.6095
 21
95.995812
 31
0.0
  0
LINE
  5
156
330
1F
100
AcDbEntity
  8
GR1-1
  6
CONTINUOUS
 62
     7
100
AcDbLine
 10
237.6095
 20
95.995812
 30
0.0
 11
237.486361
 21
97.167399
 31
0.0
  0
LINE
  5
157
330
1F
100
AcDbEntity
  8
GR1-1
  6
CONTINUOUS
 62
     7
100
AcDbLine
 10
237.486361
 20
97.167399
 30
0.0
 11
238.312399
 21
98.187471
 31
0.0
  0
LINE
  5
158
330
1F
100
AcDbEntity
  8
GR1-1
  6
CONTINUOUS
 62
     7
100
AcDbLine
 10
238.312399
 20
98.187471
 30
0.0
 11
237.017674
 21
99.235919
 31
0.0
  0
LINE
  5
159
330
1F
100
AcDbEntity
  8
GR1-1
  6
CONTINUOUS
 62
     7
100
AcDbLine
 10
237.017674
 20
99.235919
 30
0.0
 11
235.969226
 21
97.941194
 31
0.0
  0
LINE
  5
15A
330
1F
100
AcDbEntity
  8
GR1-1
  6
CONTINUOUS
 62
     7
100
AcDbLine
 10
235.969226
 20
97.941194
 30
0.0
 11
236.64991
 21
97.389987
 31
0.0
  0
ARC
  5
15B
330
1F
100
AcDbEntity
  8
GR1-1
  6
CONTINUOUS
 62
     7
100
AcDbCircle
 10
236.702332
 20
97.454724
 30
0.0
 40
0.0833
100
AcDbArc
 50
-129.0
 51
6.0
  0
LINE
  5
15C
330
1F
100
AcDbEntity
  8
GR1-1
  6
CONTINUOUS
 62
     7
100
AcDbLine
 10
236.785176
 20
97.463431
 30
0.0
 11
236.726595
 21
98.020797
 31
0.0
  0
LINE
  5
15D
330
1F
100
AcDbEntity
  8
GR1-1
  6
CONTINUOUS
 62
     7
100
AcDbLine
 10
236.726595
 20
98.020797
 30
0.0
 11
237.140813
 21
98.064333
 31
0.0
  0
LINE
  5
15E
330
1F
100
AcDbEntity
  8
GR1-1
  6
CONTINUOUS
 62
     7
100
AcDbLine
 10
237.140813
 20
98.064333
 30
0.0
 11
237.38709
 21
95.72116
 31
0.0
  0
LINE
  5
15F
330
1F
100
AcDbEntity
  8
GR1-1
  6
CONTINUOUS
 62
     7
100
AcDbLine
 10
237.38709
 20
95.72116
 30
0.0
 11
235.710069
 21
95.544898
 31
0.0
  0
LINE
  5
160
330
1F
100
AcDbEntity
  8
GR1-1
  6
CONTINUOUS
 62
     7
100
AcDbLine
 10
235.710069
 20
95.544898
 30
0.0
 11
235.622997
 21
96.373334
 31
0.0
  0
LINE
  5
161
330
1F
100
AcDbEntity
  8
GR1-1
  6
CONTINUOUS
 62
     7
100
AcDbLine
 10
235.622997
 20
96.373334
 30
0.0
 11
236.271579
 21
96.441503
 31
0.0
  0
ARC
  5
162
330
1F
100
AcDbEntity
  8
GR1-1
  6
CONTINUOUS
 62
     7
100
AcDbCircle
 10
236.262872
 20
96.524347
 30
0.0
 40
0.0833
100
AcDbArc
 50
-84.0
 51
51.0
  0
LINE
  5
163
330
1F
100
AcDbEntity
  8
GR1-1
  6
CONTINUOUS
 62
     7
100
AcDbLine
 10
236.315294
 20
96.589083
 30
0.0
 11
234.79764
 21
97.818055
 31
0.0
  0
LINE
  5
164
330
1F
100
AcDbEntity
  8
GR1-1
  6
CONTINUOUS
 62
     7
100
AcDbLine
 10
234.79764
 20
97.818055
 30
0.0
 11
236.894536
 21
100.407506
 31
0.0
  0
LINE
  5
165
330
1F
100
AcDbEntity
  8
GR1-1
  6
CONTINUOUS
 62
     7
100
AcDbLine
 10
236.894536
 20
100.407506
 30
0.0
 11
239.483986
 21
98.31061
 31
0.0
  0
ARC
  5
166
330
1F
100
AcDbEntity
  8
GR1-1
  6
CONTINUOUS
 62
     6
100
AcDbCircle
 10
217.5
 20
96.0
 30
0.0
 40
24.5
100
AcDbArc
 50
-228.706379
 51
48.706379
  0
ARC
  5
167
330
1F
100
AcDbEntity
  8
GR1-1
  6
CONTINUOUS
 62
     6
100
AcDbCircle
 10
217.5
 20
96.0
 30
0.0
 40
14.5
100
AcDbArc
 50
-209.077251
 51
29.077251
  0
TEXT
  5
168
330
1F
100
AcDbEntity
  8
GR1-1
  6
CONTINUOUS
 62
     7
100
AcDbText
 10
228.735535
 20
83.365479
 30
0.0
 40
6.148695
  1
L
 50
211.0
 41
1.308659
  7
FX_VECTOR
 72
     5
 11
223.480497
 21
80.207933
 31
0.0
100
AcDbText
  0
TEXT
  5
169
330
1F
100
AcDbEntity
  8
GR1-1
  6
CONTINUOUS
 62
     7
100
AcDbText
 10
231.782837
 20
86.951851
 30
0.0
 40
6.148695
  1
O
 50
227.0
 41
1.102029
  7
FX_VECTOR
 72
     5
 11
227.601708
 21
82.468139
 31
0.0
100
AcDbText
  0
TEXT
  5
16A
330
1F
100
AcDbEntity
  8
GR1-1
  6
CONTINUOUS
 62
     7
100
AcDbText
 10
233.723557
 20
91.239243
 30
0.0
 40
6.148695
  1
G
 50
243.0
 41
1.163253
  7
FX_VECTOR
 72
     5
 11
230.940276
 21
85.776746
 31
0.0
100
AcDbText
  0
TEXT
  5
16B
330
1F
100
AcDbEntity
  8
GR1-1
  6
CONTINUOUS
 62
     7
100
AcDbText
 10
215.628769
 20
79.19622
 30
0.0
 40
6.148695
  1
C
 50
163.0
 41
1.163253
  7
FX_VECTOR
 72
     5
 11
209.765949
 21
80.988664
 31
0.0
100
AcDbText
  0
TEXT
  5
16C
330
1F
100
AcDbEntity
  8
GR1-1
  6
CONTINUOUS
 62
     7
100
AcDbText
 10
211.069504
 20
80.362953
 30
0.0
 40
6.148695
  1
A
 50
147.0
 41
1.231679
  7
FX_VECTOR
 72
     5
 11
205.927864
 21
83.701973
 31
0.0
100
AcDbText
  0
TEXT
  5
16D
330
1F
100
AcDbEntity
  8
GR1-1
  6
CONTINUOUS
 62
     7
100
AcDbText
 10
207.008453
 20
82.741188
 30
0.0
 40
6.148695
  1
S
 50
131.0
 41
1.231679
  7
FX_VECTOR
 72
     5
 11
202.98635
 21
87.368088
 31
0.0
100
AcDbText
  0
TEXT
  5
16E
330
1F
100
AcDbEntity
  8
GR1-1
  6
CONTINUOUS
 62
     7
100
AcDbText
 10
203.760254
 20
86.146675
 30
0.0
 40
6.148695
  1
T
 50
115.0
 41
1.395903
  7
FX_VECTOR
 72
     5
 11
201.169307
 21
91.702979
 31
0.0
100
AcDbText
  0
TEXT
  5
16F
330
1F
100
AcDbEntity
  8
GR1-1
  6
CONTINUOUS
 62
     7
100
AcDbText
 10
201.576569
 20
90.315567
 30
0.0
 40
6.148695
  1
E
 50
99.0
 41
1.231679
  7
FX_VECTOR
 72
     5
 11
200.617515
 21
96.370791
 31
0.0
100
AcDbText
  0
TEXT
  5
170
330
1F
100
AcDbEntity
  8
GR1-1
  6
CONTINUOUS
 62
     7
100
AcDbText
 10
200.626572
 20
94.924866
 30
0.0
 40
6.148695
  1
R
 50
83.0
 41
1.163253
  7
FX_VECTOR
 72
     5
 11
201.373716
 21
101.009871
 31
0.0
100
AcDbText
  0
LINE
  5
171
330
1F
100
AcDbEntity
  8
GR1-1
  6
CONTINUOUS
 62
     3
100
AcDbLine
 10
101.291022
 20
81.5
 30
0.0
 11
102.791022
 21
81.5
 31
0.0
  0
ARC
  5
172
330
1F
100
AcDbEntity
  8
GR1-1
  6
CONTINUOUS
 62
     3
100
AcDbCircle
 10
101.291022
 20
82.5
 30
0.0
 40
1.0
100
AcDbArc
 50
180.0
 51
270.0
  0
ARC
  5
173
330
1F
100
AcDbEntity
  8
GR1-1
  6
CONTINUOUS
 62
     3
100
AcDbCircle
 10
129.291022
 20
82.5
 30
0.0
 40
1.0
100
AcDbArc
 50
270.0
 51
360.0
  0
LINE
  5
174
330
1F
100
AcDbEntity
  8
GR1-1
  6
CONTINUOUS
 62
     3
100
AcDbLine
 10
129.291022
 20
81.5
 30
0.0
 11
127.791022
 21
81.5
 31
0.0
  0
LINE
  5
175
330
1F
100
AcDbEntity
  8
LAYERGROUP-1
  6
CONTINUOUS
 62
     3
100
AcDbLine
 10
131.591022
 20
85.8
 30
0.0
 11
131.591022
 21
106.6625
 31
0.0
  0
ARC
  5
176
330
1F
100
AcDbEntity
  8
LAYERGROUP-1
  6
CONTINUOUS
 62
     3
100
AcDbCircle
 10
205.458341
 20
105.330788
 30
0.0
 40
73.87932238530509
100
AcDbArc
 50
173.239265
 51
178.967159
  0
ARC
  5
177
330
1F
100
AcDbEntity
  8
LAYERGROUP-1
  6
CONTINUOUS
 62
     3
100
AcDbCircle
 10
192.010913
 20
104.024257
 30
0.0
 40
60.74754495780596
100
AcDbArc
 50
159.603523
 51
170.521398
  0
ARC
  5
178
330
1F
100
AcDbEntity
  8
LAYERGROUP-1
  6
CONTINUOUS
 62
     3
100
AcDbCircle
 10
95.123583
 20
139.577195
 30
0.0
 40
42.45830159704675
100
AcDbArc
 50
340.200994
 51
353.465968
  0
LINE
  5
179
330
1F
100
AcDbEntity
  8
LAYERGROUP-1
  6
CONTINUOUS
 62
     3
100
AcDbLine
 10
137.306094
 20
134.745723
 30
0.0
 11
137.291022
 21
145.20023
 31
0.0
  0
ARC
  5
17A
330
1F
100
AcDbEntity
  8
LAYERGROUP-1
  6
CONTINUOUS
 62
     3
100
AcDbCircle
 10
135.991022
 20
145.2
 30
0.0
 40
1.3
100
AcDbArc
 50
0.010155
 51
90.0
  0
LINE
  5
17B
330
1F
100
AcDbEntity
  8
LAYERGROUP-1
  6
CONTINUOUS
 62
     3
100
AcDbLine
 10
135.991022
 20
146.5
 30
0.0
 11
94.591022
 21
146.5
 31
0.0
  0
LINE
  5
17C
330
1F
100
AcDbEntity
  8
GR1-1
  6
CONTINUOUS
 62
     3
100
AcDbLine
 10
96.991022
 20
85.8
 30
0.0
 11
98.991022
 21
85.8
 31
0.0
  0
LINE
  5
17D
330
1F
100
AcDbEntity
  8
GR1-1
  6
CONTINUOUS
 62
     3
100
AcDbLine
 10
98.991022
 20
85.8
 30
0.0
 11
98.991022
 21
143.7
 31
0.0
  0
ARC
  5
17E
330
1F
100
AcDbEntity
  8
GR1-1
  6
CONTINUOUS
 62
     3
100
AcDbCircle
 10
99.991022
 20
143.7
 30
0.0
 40
1.0
100
AcDbArc
 50
90.0
 51
180.0
  0
ARC
  5
17F
330
1F
100
AcDbEntity
  8
LAYERGROUP-1
  6
CONTINUOUS
 62
     3
100
AcDbCircle
 10
25.123703
 20
105.330788
 30
0.0
 40
73.87932238530509
100
AcDbArc
 50
1.032841
 51
6.760735
  0
ARC
  5
180
330
1F
100
AcDbEntity
  8
LAYERGROUP-1
  6
CONTINUOUS
 62
     3
100
AcDbCircle
 10
38.57113
 20
104.024257
 30
0.0
 40
60.74754495780596
100
AcDbArc
 50
9.478602
 51
20.396477
  0
ARC
  5
181
330
1F
100
AcDbEntity
  8
LAYERGROUP-1
  6
CONTINUOUS
 62
     3
100
AcDbCircle
 10
135.458461
 20
139.577195
 30
0.0
 40
42.45830159704675
100
AcDbArc
 50
186.534032
 51
199.799006
  0
LINE
  5
182
330
1F
100
AcDbEntity
  8
LAYERGROUP-1
  6
CONTINUOUS
 62
     3
100
AcDbLine
 10
93.275949
 20
134.745723
 30
0.0
 11
93.291022
 21
145.20023
 31
0.0
  0
ARC
  5
183
330
1F
100
AcDbEntity
  8
LAYERGROUP-1
  6
CONTINUOUS
 62
     3
100
AcDbCircle
 10
94.591022
 20
145.2
 30
0.0
 40
1.3
100
AcDbArc
 50
90.0
 51
179.989845
  0
LINE
  5
184
330
1F
100
AcDbEntity
  8
GR1-1
  6
CONTINUOUS
 62
     3
100
AcDbLine
 10
98.991022
 20
92.0
 30
0.0
 11
100.291022
 21
92.0
 31
0.0
  0
LINE
  5
185
330
1F
100
AcDbEntity
  8
GR1-1
  6
CONTINUOUS
 62
     3
100
AcDbLine
 10
100.291022
 20
100.0
 30
0.0
 11
98.991022
 21
100.0
 31
0.0
  0
LINE
  5
186
330
1F
100
AcDbEntity
  8
GR1-1
  6
CONTINUOUS
 62
     3
100
AcDbLine
 10
187.302649
 20
146.5
 30
0.0
 11
182.5
 21
146.5
 31
0.0
  0
ARC
  5
187
330
1F
100
AcDbEntity
  8
LAYERGROUP-1
  6
CONTINUOUS
 62
     3
100
AcDbCircle
 10
186.986687
 20
143.5
 30
0.0
 40
3.0
100
AcDbArc
 50
46.484421
 51
90.0
  0
LINE
  5
188
330
1F
100
AcDbEntity
  8
GR1-1
  6
CONTINUOUS
 62
     3
100
AcDbLine
 10
252.5
 20
146.5
 30
0.0
 11
252.5
 21
148.5
 31
0.0
  0
LINE
  5
189
330
1F
100
AcDbEntity
  8
GR1-1
  6
CONTINUOUS
 62
     3
100
AcDbLine
 10
243.738497
 20
143.578004
 30
0.0
 11
245.947658
 21
145.675562
 31
0.0
  0
LINE
  5
18A
330
1F
100
AcDbEntity
  8
GR1-1
  6
CONTINUOUS
 62
     3
100
AcDbLine
 10
248.013313
 20
146.5
 30
0.0
 11
252.5
 21
146.5
 31
0.0
  0
ARC
  5
18B
330
1F
100
AcDbEntity
  8
LAYERGROUP-1
  6
CONTINUOUS
 62
     3
100
AcDbCircle
 10
248.013313
 20
143.5
 30
0.0
 40
3.0
100
AcDbArc
 50
90.0
 51
133.515579
  0
TEXT
  5
18C
330
1F
100
AcDbEntity
  8
}}ﾊﾊGG血CCТ
  6
CONTINUOUS
 62
     7
100
AcDbText
 10
255.0
 20
12.0
 30
0.0
 40
6.0
  1
S23H0RAA-C01
 41
0.708861
  7
FX_VECTOR
 72
     5
 11
303.0
 21
12.0
 31
0.0
100
AcDbText
  0
TEXT
  5
18D
330
1F
100
AcDbEntity
  8
GR1-1
  6
CONTINUOUS
 62
     7
100
AcDbText
 10
166.101009
 20
261.058785
 30
0.0
 40
4.0
  1
4-%%c8.8
 50
323.371704
 41
0.84375
  7
FX_VECTOR
 72
     5
 11
180.546422
 21
250.319602
 31
0.0
100
AcDbText
  0
LINE
  5
18E
330
1F
100
AcDbEntity
  8
GR1-1
  6
CONTINUOUS
 62
     7
100
AcDbLine
 10
186.4689
 20
245.125135
 30
0.0
 11
193.5311
 21
239.874865
 31
0.0
  0
LINE
  5
18F
330
1F
100
AcDbEntity
  8
GR1-1
  6
CONTINUOUS
 62
     7
100
AcDbLine
 10
193.5311
 20
239.874865
 30
0.0
 11
198.346237
 21
236.295137
 31
0.0
  0
INSERT
  5
190
330
1F
100
AcDbEntity
  8
GR1-1
  6
CONTINUOUS
 62
     7
100
AcDbBlockReference
  2
FXTIP_ARROW_S
 10
193.5311
 20
239.874865
 30
0.0
 41
4.0
 42
4.0
 50
143.37169
  0
LINE
  5
191
330
1F
100
AcDbEntity
  8
GR1-1
  6
CONTINUOUS
 62
     7
100
AcDbLine
 10
186.4689
 20
245.125135
 30
0.0
 11
166.783282
 21
259.760062
 31
0.0
  0
INSERT
  5
192
330
1F
100
AcDbEntity
  8
GR1-1
  6
CONTINUOUS
 62
     7
100
AcDbBlockReference
  2
FXTIP_ARROW_S
 10
186.4689
 20
245.125135
 30
0.0
 41
4.0
 42
4.0
 50
323.37169
  0
TEXT
  5
193
330
1F
100
AcDbEntity
  8
LAYERGROUP-1
  6
CONTINUOUS
 62
     7
100
AcDbText
 10
112.291023
 20
44.5
 30
0.0
 40
4.0
  1
30
 41
0.851351
  7
FX_VECTOR
 72
     5
 11
118.291023
 21
44.5
 31
0.0
100
AcDbText
  0
LINE
  5
194
330
1F
100
AcDbEntity
  8
LAYERGROUP-1
  6
CONTINUOUS
 62
     7
100
AcDbLine
 10
100.291022
 20
43.5
 30
0.0
 11
130.291022
 21
43.5
 31
0.0
  0
INSERT
  5
195
330
1F
100
AcDbEntity
  8
LAYERGROUP-1
  6
CONTINUOUS
 62
     7
100
AcDbBlockReference
  2
FXTIP_ARROW_S
 10
100.291022
 20
43.5
 30
0.0
 41
4.0
 42
4.0
 50
180.0
  0
INSERT
  5
196
330
1F
100
AcDbEntity
  8
LAYERGROUP-1
  6
CONTINUOUS
 62
     7
100
AcDbBlockReference
  2
FXTIP_ARROW_E
 10
130.291022
 20
43.5
 30
0.0
 41
4.0
 42
4.0
 50
360.0
  0
LINE
  5
197
330
1F
100
AcDbEntity
  8
LAYERGROUP-1
  6
CONTINUOUS
 62
     7
100
AcDbLine
 10
100.291022
 20
80.5
 30
0.0
 11
100.291022
 21
42.5
 31
0.0
  0
LINE
  5
198
330
1F
100
AcDbEntity
  8
LAYERGROUP-1
  6
CONTINUOUS
 62
     7
100
AcDbLine
 10
130.291022
 20
80.5
 30
0.0
 11
130.291022
 21
42.5
 31
0.0
  0
TEXT
  5
199
330
1F
100
AcDbEntity
  8
LAYERGROUP-1
  6
CONTINUOUS
 62
     7
100
AcDbText
 10
112.291023
 20
54.5
 30
0.0
 40
4.0
  1
25
 41
0.851351
  7
FX_VECTOR
 72
     5
 11
118.291023
 21
54.5
 31
0.0
100
AcDbText
  0
LINE
  5
19A
330
1F
100
AcDbEntity
  8
LAYERGROUP-1
  6
CONTINUOUS
 62
     7
100
AcDbLine
 10
102.791022
 20
53.5
 30
0.0
 11
127.791022
 21
53.5
 31
0.0
  0
INSERT
  5
19B
330
1F
100
AcDbEntity
  8
LAYERGROUP-1
  6
CONTINUOUS
 62
     7
100
AcDbBlockReference
  2
FXTIP_ARROW_S
 10
102.791022
 20
53.5
 30
0.0
 41
4.0
 42
4.0
 50
180.0
  0
INSERT
  5
19C
330
1F
100
AcDbEntity
  8
LAYERGROUP-1
  6
CONTINUOUS
 62
     7
100
AcDbBlockReference
  2
FXTIP_ARROW_E
 10
127.791022
 20
53.5
 30
0.0
 41
4.0
 42
4.0
 50
360.0
  0
LINE
  5
19D
330
1F
100
AcDbEntity
  8
LAYERGROUP-1
  6
CONTINUOUS
 62
     7
100
AcDbLine
 10
102.791022
 20
65.662515
 30
0.0
 11
102.791022
 21
52.5
 31
0.0
  0
LINE
  5
19E
330
1F
100
AcDbEntity
  8
LAYERGROUP-1
  6
CONTINUOUS
 62
     7
100
AcDbLine
 10
127.791022
 20
65.87585
 30
0.0
 11
127.791022
 21
52.5
 31
0.0
  0
TEXT
  5
19F
330
1F
100
AcDbEntity
  8
LAYERGROUP-1
  6
CONTINUOUS
 62
     7
100
AcDbText
 10
271.5
 20
103.0
 30
0.0
 40
4.0
  1
85
 50
90.0
 41
0.851351
  7
FX_VECTOR
 72
     5
 11
271.5
 21
109.0
 31
0.0
100
AcDbText
  0
LINE
  5
1A0
330
1F
100
AcDbEntity
  8
LAYERGROUP-1
  6
CONTINUOUS
 62
     7
100
AcDbLine
 10
272.5
 20
63.5
 30
0.0
 11
272.5
 21
148.5
 31
0.0
  0
INSERT
  5
1A1
330
1F
100
AcDbEntity
  8
LAYERGROUP-1
  6
CONTINUOUS
 62
     7
100
AcDbBlockReference
  2
FXTIP_ARROW_S
 10
272.5
 20
63.5
 30
0.0
 41
4.0
 42
4.0
 50
270.0
  0
INSERT
  5
1A2
330
1F
100
AcDbEntity
  8
LAYERGROUP-1
  6
CONTINUOUS
 62
     7
100
AcDbBlockReference
  2
FXTIP_ARROW_E
 10
272.5
 20
148.5
 30
0.0
 41
4.0
 42
4.0
 50
90.0
  0
LINE
  5
1A3
330
1F
100
AcDbEntity
  8
LAYERGROUP-1
  6
CONTINUOUS
 62
     7
100
AcDbLine
 10
218.5
 20
63.5
 30
0.0
 11
273.5
 21
63.5
 31
0.0
  0
LINE
  5
1A4
330
1F
100
AcDbEntity
  8
LAYERGROUP-1
  6
CONTINUOUS
 62
     7
100
AcDbLine
 10
253.5
 20
148.5
 30
0.0
 11
273.5
 21
148.5
 31
0.0
  0
TEXT
  5
1A5
330
1F
100
AcDbEntity
  8
LAYERGROUP-1
  6
CONTINUOUS
 62
     7
100
AcDbText
 10
261.5
 20
116.25
 30
0.0
 40
4.0
  1
52.5
 50
90.0
 41
0.940299
  7
FX_VECTOR
 72
     5
 11
261.5
 21
128.25
 31
0.0
100
AcDbText
  0
LINE
  5
1A6
330
1F
100
AcDbEntity
  8
LAYERGROUP-1
  6
CONTINUOUS
 62
     7
100
AcDbLine
 10
262.5
 20
96.0
 30
0.0
 11
262.5
 21
148.5
 31
0.0
  0
INSERT
  5
1A7
330
1F
100
AcDbEntity
  8
LAYERGROUP-1
  6
CONTINUOUS
 62
     7
100
AcDbBlockReference
  2
FXTIP_ARROW_S
 10
262.5
 20
96.0
 30
0.0
 41
4.0
 42
4.0
 50
270.0
  0
INSERT
  5
1A8
330
1F
100
AcDbEntity
  8
LAYERGROUP-1
  6
CONTINUOUS
 62
     7
100
AcDbBlockReference
  2
FXTIP_ARROW_E
 10
262.5
 20
148.5
 30
0.0
 41
4.0
 42
4.0
 50
90.0
  0
LINE
  5
1A9
330
1F
100
AcDbEntity
  8
LAYERGROUP-1
  6
CONTINUOUS
 62
     7
100
AcDbLine
 10
253.5
 20
96.0
 30
0.0
 11
263.5
 21
96.0
 31
0.0
  0
TEXT
  5
1AA
330
1F
100
AcDbEntity
  8
LAYERGROUP-1
  6
CONTINUOUS
 62
     7
100
AcDbText
 10
271.5
 20
225.5
 30
0.0
 40
4.0
  1
47
 50
90.0
 41
0.851351
  7
FX_VECTOR
 72
     5
 11
271.5
 21
231.5
 31
0.0
100
AcDbText
  0
LINE
  5
1AB
330
1F
100
AcDbEntity
  8
LAYERGROUP-1
  6
CONTINUOUS
 62
     7
100
AcDbLine
 10
272.5
 20
204.9
 30
0.0
 11
272.5
 21
252.1
 31
0.0
  0
INSERT
  5
1AC
330
1F
100
AcDbEntity
  8
LAYERGROUP-1
  6
CONTINUOUS
 62
     7
100
AcDbBlockReference
  2
FXTIP_ARROW_S
 10
272.5
 20
204.9
 30
0.0
 41
4.0
 42
4.0
 50
270.0
  0
INSERT
  5
1AD
330
1F
100
AcDbEntity
  8
LAYERGROUP-1
  6
CONTINUOUS
 62
     7
100
AcDbBlockReference
  2
FXTIP_ARROW_E
 10
272.5
 20
252.1
 30
0.0
 41
4.0
 42
4.0
 50
90.0
  0
LINE
  5
1AE
330
1F
100
AcDbEntity
  8
LAYERGROUP-1
  6
CONTINUOUS
 62
     7
100
AcDbLine
 10
249.0
 20
204.9
 30
0.0
 11
273.5
 21
204.9
 31
0.0
  0
LINE
  5
1AF
330
1F
100
AcDbEntity
  8
LAYERGROUP-1
  6
CONTINUOUS
 62
     7
100
AcDbLine
 10
249.0
 20
252.1
 30
0.0
 11
273.5
 21
252.1
 31
0.0
  0
TEXT
  5
1B0
330
1F
100
AcDbEntity
  8
LAYERGROUP-1
  6
CONTINUOUS
 62
     7
100
AcDbText
 10
261.5
 20
225.5
 30
0.0
 40
4.0
  1
28
 50
90.0
 41
0.851351
  7
FX_VECTOR
 72
     5
 11
261.5
 21
231.5
 31
0.0
100
AcDbText
  0
LINE
  5
1B1
330
1F
100
AcDbEntity
  8
LAYERGROUP-1
  6
CONTINUOUS
 62
     7
100
AcDbLine
 10
262.5
 20
214.5
 30
0.0
 11
262.5
 21
242.5
 31
0.0
  0
INSERT
  5
1B2
330
1F
100
AcDbEntity
  8
LAYERGROUP-1
  6
CONTINUOUS
 62
     7
100
AcDbBlockReference
  2
FXTIP_ARROW_S
 10
262.5
 20
214.5
 30
0.0
 41
4.0
 42
4.0
 50
270.0
  0
INSERT
  5
1B3
330
1F
100
AcDbEntity
  8
LAYERGROUP-1
  6
CONTINUOUS
 62
     7
100
AcDbBlockReference
  2
FXTIP_ARROW_E
 10
262.5
 20
242.5
 30
0.0
 41
4.0
 42
4.0
 50
90.0
  0
LINE
  5
1B4
330
1F
100
AcDbEntity
  8
LAYERGROUP-1
  6
CONTINUOUS
 62
     7
100
AcDbLine
 10
254.0
 20
214.5
 30
0.0
 11
263.5
 21
214.5
 31
0.0
  0
LINE
  5
1B5
330
1F
100
AcDbEntity
  8
LAYERGROUP-1
  6
CONTINUOUS
 62
     7
100
AcDbLine
 10
254.0
 20
242.5
 30
0.0
 11
263.5
 21
242.5
 31
0.0
  0
TEXT
  5
1B6
330
1F
100
AcDbEntity
  8
LAYERGROUP-1
  6
CONTINUOUS
 62
     7
100
AcDbText
 10
214.5
 20
185.399994
 30
0.0
 40
4.0
  1
70
 41
0.851351
  7
FX_VECTOR
 72
     5
 11
220.5
 21
185.399994
 31
0.0
100
AcDbText
  0
LINE
  5
1B7
330
1F
100
AcDbEntity
  8
LAYERGROUP-1
  6
CONTINUOUS
 62
     7
100
AcDbLine
 10
182.5
 20
184.4
 30
0.0
 11
252.5
 21
184.4
 31
0.0
  0
INSERT
  5
1B8
330
1F
100
AcDbEntity
  8
LAYERGROUP-1
  6
CONTINUOUS
 62
     7
100
AcDbBlockReference
  2
FXTIP_ARROW_S
 10
182.5
 20
184.4
 30
0.0
 41
4.0
 42
4.0
 50
180.0
  0
INSERT
  5
1B9
330
1F
100
AcDbEntity
  8
LAYERGROUP-1
  6
CONTINUOUS
 62
     7
100
AcDbBlockReference
  2
FXTIP_ARROW_E
 10
252.5
 20
184.4
 30
0.0
 41
4.0
 42
4.0
 50
360.0
  0
LINE
  5
1BA
330
1F
100
AcDbEntity
  8
LAYERGROUP-1
  6
CONTINUOUS
 62
     7
100
AcDbLine
 10
182.5
 20
208.4
 30
0.0
 11
182.5
 21
183.4
 31
0.0
  0
LINE
  5
1BB
330
1F
100
AcDbEntity
  8
LAYERGROUP-1
  6
CONTINUOUS
 62
     7
100
AcDbLine
 10
252.5
 20
208.4
 30
0.0
 11
252.5
 21
183.4
 31
0.0
  0
TEXT
  5
1BC
330
1F
100
AcDbEntity
  8
LAYERGROUP-1
  6
CONTINUOUS
 62
     7
100
AcDbText
 10
214.5
 20
195.399994
 30
0.0
 40
4.0
  1
55
 41
0.851351
  7
FX_VECTOR
 72
     5
 11
220.5
 21
195.399994
 31
0.0
100
AcDbText
  0
LINE
  5
1BD
330
1F
100
AcDbEntity
  8
LAYERGROUP-1
  6
CONTINUOUS
 62
     7
100
AcDbLine
 10
190.0
 20
194.4
 30
0.0
 11
245.0
 21
194.4
 31
0.0
  0
INSERT
  5
1BE
330
1F
100
AcDbEntity
  8
LAYERGROUP-1
  6
CONTINUOUS
 62
     7
100
AcDbBlockReference
  2
FXTIP_ARROW_S
 10
190.0
 20
194.4
 30
0.0
 41
4.0
 42
4.0
 50
180.0
  0
INSERT
  5
1BF
330
1F
100
AcDbEntity
  8
LAYERGROUP-1
  6
CONTINUOUS
 62
     7
100
AcDbBlockReference
  2
FXTIP_ARROW_E
 10
245.0
 20
194.4
 30
0.0
 41
4.0
 42
4.0
 50
360.0
  0
LINE
  5
1C0
330
1F
100
AcDbEntity
  8
LAYERGROUP-1
  6
CONTINUOUS
 62
     7
100
AcDbLine
 10
190.0
 20
205.5
 30
0.0
 11
190.0
 21
193.4
 31
0.0
  0
LINE
  5
1C1
330
1F
100
AcDbEntity
  8
LAYERGROUP-1
  6
CONTINUOUS
 62
     7
100
AcDbLine
 10
245.0
 20
205.5
 30
0.0
 11
245.0
 21
193.4
 31
0.0
  0
LINE
  5
1C2
330
1F
100
AcDbEntity
  8
GR1-1
  6
CONTINUOUS
 62
     7
100
AcDbLine
 10
234.892092
 20
95.552123
 30
0.0
 11
235.151037
 21
95.342434
 31
0.0
  0
LINE
  5
1C3
330
1F
100
AcDbEntity
  8
GR1-1
  6
CONTINUOUS
 62
     7
100
AcDbLine
 10
234.867464
 20
95.78644
 30
0.0
 11
235.385354
 21
95.367061
 31
0.0
  0
LINE
  5
1C4
330
1F
100
AcDbEntity
  8
GR1-1
  6
CONTINUOUS
 62
     7
100
AcDbLine
 10
234.842836
 20
96.020758
 30
0.0
 11
235.619671
 21
95.391689
 31
0.0
  0
LINE
  5
1C5
330
1F
100
AcDbEntity
  8
GR1-1
  6
CONTINUOUS
 62
     7
100
AcDbLine
 10
234.818208
 20
96.255075
 30
0.0
 11
235.853989
 21
95.416317
 31
0.0
  0
LINE
  5
1C6
330
1F
100
AcDbEntity
  8
GR1-1
  6
CONTINUOUS
 62
     7
100
AcDbLine
 10
234.793581
 20
96.489392
 30
0.0
 11
235.686824
 21
95.766058
 31
0.0
  0
LINE
  5
1C7
330
1F
100
AcDbEntity
  8
GR1-1
  6
CONTINUOUS
 62
     7
100
AcDbLine
 10
235.931229
 20
95.568143
 30
0.0
 11
236.088306
 21
95.440944
 31
0.0
  0
LINE
  5
1C8
330
1F
100
AcDbEntity
  8
GR1-1
  6
CONTINUOUS
 62
     7
100
AcDbLine
 10
234.768953
 20
96.72371
 30
0.0
 11
235.662196
 21
96.000375
 31
0.0
  0
LINE
  5
1C9
330
1F
100
AcDbEntity
  8
GR1-1
  6
CONTINUOUS
 62
     7
100
AcDbLine
 10
236.165547
 20
95.59277
 30
0.0
 11
236.322623
 21
95.465572
 31
0.0
  0
LINE
  5
1CA
330
1F
100
AcDbEntity
  8
GR1-1
  6
CONTINUOUS
 62
     7
100
AcDbLine
 10
234.744325
 20
96.958027
 30
0.0
 11
235.637568
 21
96.234693
 31
0.0
  0
LINE
  5
1CB
330
1F
100
AcDbEntity
  8
GR1-1
  6
CONTINUOUS
 62
     7
100
AcDbLine
 10
236.399864
 20
95.617398
 30
0.0
 11
236.55694
 21
95.4902
 31
0.0
  0
LINE
  5
1CC
330
1F
100
AcDbEntity
  8
GR1-1
  6
CONTINUOUS
 62
     7
100
AcDbLine
 10
234.719697
 20
97.192344
 30
0.0
 11
235.718672
 21
96.38339
 31
0.0
  0
LINE
  5
1CD
330
1F
100
AcDbEntity
  8
GR1-1
  6
CONTINUOUS
 62
     7
100
AcDbLine
 10
236.634181
 20
95.642026
 30
0.0
 11
236.791258
 21
95.514828
 31
0.0
  0
LINE
  5
1CE
330
1F
100
AcDbEntity
  8
GR1-1
  6
CONTINUOUS
 62
     7
100
AcDbLine
 10
234.69507
 20
97.426661
 30
0.0
 11
235.95299
 21
96.408018
 31
0.0
  0
LINE
  5
1CF
330
1F
100
AcDbEntity
  8
GR1-1
  6
CONTINUOUS
 62
     7
100
AcDbLine
 10
236.868498
 20
95.666653
 30
0.0
 11
237.025575
 21
95.539455
 31
0.0
  0
LINE
  5
1D0
330
1F
100
AcDbEntity
  8
GR1-1
  6
CONTINUOUS
 62
     7
100
AcDbLine
 10
234.670442
 20
97.660979
 30
0.0
 11
236.187307
 21
96.432646
 31
0.0
  0
LINE
  5
1D1
330
1F
100
AcDbEntity
  8
GR1-1
  6
CONTINUOUS
 62
     7
100
AcDbLine
 10
237.102816
 20
95.691281
 30
0.0
 11
237.259892
 21
95.564083
 31
0.0
  0
LINE
  5
1D2
330
1F
100
AcDbEntity
  8
GR1-1
  6
CONTINUOUS
 62
     7
100
AcDbLine
 10
234.645814
 20
97.895296
 30
0.0
 11
236.345969
 21
96.518538
 31
0.0
  0
LINE
  5
1D3
330
1F
100
AcDbEntity
  8
GR1-1
  6
CONTINUOUS
 62
     7
100
AcDbLine
 10
237.337133
 20
95.715909
 30
0.0
 11
237.49421
 21
95.588711
 31
0.0
  0
LINE
  5
1D4
330
1F
100
AcDbEntity
  8
GR1-1
  6
CONTINUOUS
 62
     7
100
AcDbLine
 10
234.621186
 20
98.129613
 30
0.0
 11
234.880131
 21
97.919924
 31
0.0
  0
LINE
  5
1D5
330
1F
100
AcDbEntity
  8
GR1-1
  6
CONTINUOUS
 62
     7
100
AcDbLine
 10
237.367713
 20
95.90552
 30
0.0
 11
237.728527
 21
95.613339
 31
0.0
  0
LINE
  5
1D6
330
1F
100
AcDbEntity
  8
GR1-1
  6
CONTINUOUS
 62
     7
100
AcDbLine
 10
234.596559
 20
98.363931
 30
0.0
 11
234.984976
 21
98.049396
 31
0.0
  0
LINE
  5
1D7
330
1F
100
AcDbEntity
  8
GR1-1
  6
CONTINUOUS
 62
     7
100
AcDbLine
 10
237.343086
 20
96.139837
 30
0.0
 11
237.962844
 21
95.637966
 31
0.0
  0
LINE
  5
1D8
330
1F
100
AcDbEntity
  8
GR1-1
  6
CONTINUOUS
 62
     7
100
AcDbLine
 10
234.571931
 20
98.598248
 30
0.0
 11
235.089821
 21
98.178869
 31
0.0
  0
LINE
  5
1D9
330
1F
100
AcDbEntity
  8
GR1-1
  6
CONTINUOUS
 62
     7
100
AcDbLine
 10
237.318458
 20
96.374154
 30
0.0
 11
237.59311
 21
96.151745
 31
0.0
  0
LINE
  5
1DA
330
1F
100
AcDbEntity
  8
GR1-1
  6
CONTINUOUS
 62
     7
100
AcDbLine
 10
237.679271
 20
96.081973
 30
0.0
 11
238.197161
 21
95.662594
 31
0.0
  0
LINE
  5
1DB
330
1F
100
AcDbEntity
  8
GR1-1
  6
CONTINUOUS
 62
     7
100
AcDbLine
 10
234.547303
 20
98.832565
 30
0.0
 11
235.194666
 21
98.308341
 31
0.0
  0
LINE
  5
1DC
330
1F
100
AcDbEntity
  8
GR1-1
  6
CONTINUOUS
 62
     7
100
AcDbLine
 10
237.29383
 20
96.608472
 30
0.0
 11
237.568483
 21
96.386062
 31
0.0
  0
LINE
  5
1DD
330
1F
100
AcDbEntity
  8
GR1-1
  6
CONTINUOUS
 62
     7
100
AcDbLine
 10
237.784116
 20
96.211446
 30
0.0
 11
238.431479
 21
95.687222
 31
0.0
  0
LINE
  5
1DE
330
1F
100
AcDbEntity
  8
GR1-1
  6
CONTINUOUS
 62
     7
100
AcDbLine
 10
234.522675
 20
99.066882
 30
0.0
 11
235.299511
 21
98.437814
 31
0.0
  0
LINE
  5
1DF
330
1F
100
AcDbEntity
  8
GR1-1
  6
CONTINUOUS
 62
     7
100
AcDbLine
 10
237.269202
 20
96.842789
 30
0.0
 11
237.543855
 21
96.62038
 31
0.0
  0
LINE
  5
1E0
330
1F
100
AcDbEntity
  8
GR1-1
  6
CONTINUOUS
 62
     7
100
AcDbLine
 10
237.888961
 20
96.340918
 30
0.0
 11
238.665796
 21
95.71185
 31
0.0
  0
LINE
  5
1E1
330
1F
100
AcDbEntity
  8
GR1-1
  6
CONTINUOUS
 62
     7
100
AcDbLine
 10
234.498048
 20
99.3012
 30
0.0
 11
235.404355
 21
98.567286
 31
0.0
  0
LINE
  5
1E2
330
1F
100
AcDbEntity
  8
GR1-1
  6
CONTINUOUS
 62
     7
100
AcDbLine
 10
236.051718
 20
98.043062
 30
0.0
 11
236.78543
 21
97.448914
 31
0.0
  0
LINE
  5
1E3
330
1F
100
AcDbEntity
  8
GR1-1
  6
CONTINUOUS
 62
     7
100
AcDbLine
 10
237.244575
 20
97.077106
 30
0.0
 11
237.519227
 21
96.854697
 31
0.0
  0
LINE
  5
1E4
330
1F
100
AcDbEntity
  8
GR1-1
  6
CONTINUOUS
 62
     7
100
AcDbLine
 10
237.993806
 20
96.470391
 30
0.0
 11
238.900113
 21
95.736477
 31
0.0
  0
LINE
  5
1E5
330
1F
100
AcDbEntity
  8
GR1-1
  6
CONTINUOUS
 62
     7
100
AcDbLine
 10
234.47342
 20
99.535517
 30
0.0
 11
235.5092
 21
98.696759
 31
0.0
  0
LINE
  5
1E6
330
1F
100
AcDbEntity
  8
GR1-1
  6
CONTINUOUS
 62
     7
100
AcDbLine
 10
236.156563
 20
98.172535
 30
0.0
 11
236.762192
 21
97.682106
 31
0.0
  0
LINE
  5
1E7
330
1F
100
AcDbEntity
  8
GR1-1
  6
CONTINUOUS
 62
     7
100
AcDbLine
 10
237.219947
 20
97.311423
 30
0.0
 11
237.4946
 21
97.089014
 31
0.0
  0
LINE
  5
1E8
330
1F
100
AcDbEntity
  8
GR1-1
  6
CONTINUOUS
 62
     7
100
AcDbLine
 10
238.09865
 20
96.599863
 30
0.0
 11
239.134431
 21
95.761105
 31
0.0
  0
LINE
  5
1E9
330
1F
100
AcDbEntity
  8
GR1-1
  6
CONTINUOUS
 62
     7
100
AcDbLine
 10
234.448792
 20
99.769834
 30
0.0
 11
235.614045
 21
98.826231
 31
0.0
  0
LINE
  5
1EA
330
1F
100
AcDbEntity
  8
GR1-1
  6
CONTINUOUS
 62
     7
100
AcDbLine
 10
236.261408
 20
98.302007
 30
0.0
 11
236.737565
 21
97.916423
 31
0.0
  0
LINE
  5
1EB
330
1F
100
AcDbEntity
  8
GR1-1
  6
CONTINUOUS
 62
     7
100
AcDbLine
 10
237.195319
 20
97.545741
 30
0.0
 11
237.556133
 21
97.25356
 31
0.0
  0
LINE
  5
1EC
330
1F
100
AcDbEntity
  8
GR1-1
  6
CONTINUOUS
 62
     7
100
AcDbLine
 10
238.203495
 20
96.729336
 30
0.0
 11
239.368748
 21
95.785733
 31
0.0
  0
LINE
  5
1ED
330
1F
100
AcDbEntity
  8
GR1-1
  6
CONTINUOUS
 62
     7
100
AcDbLine
 10
234.424165
 20
100.004152
 30
0.0
 11
235.71889
 21
98.955704
 31
0.0
  0
LINE
  5
1EE
330
1F
100
AcDbEntity
  8
GR1-1
  6
CONTINUOUS
 62
     7
100
AcDbLine
 10
236.366252
 20
98.43148
 30
0.0
 11
236.856538
 21
98.034454
 31
0.0
  0
LINE
  5
1EF
330
1F
100
AcDbEntity
  8
GR1-1
  6
CONTINUOUS
 62
     7
100
AcDbLine
 10
237.170691
 20
97.780058
 30
0.0
 11
237.660977
 21
97.383032
 31
0.0
  0
LINE
  5
1F0
330
1F
100
AcDbEntity
  8
GR1-1
  6
CONTINUOUS
 62
     7
100
AcDbLine
 10
238.30834
 20
96.858808
 30
0.0
 11
239.603065
 21
95.810361
 31
0.0
  0
LINE
  5
1F1
330
1F
100
AcDbEntity
  8
GR1-1
  6
CONTINUOUS
 62
     7
100
AcDbLine
 10
234.399537
 20
100.238469
 30
0.0
 11
235.823734
 21
99.085176
 31
0.0
  0
LINE
  5
1F2
330
1F
100
AcDbEntity
  8
GR1-1
  6
CONTINUOUS
 62
     7
100
AcDbLine
 10
236.471097
 20
98.560953
 30
0.0
 11
237.090856
 21
98.059082
 31
0.0
  0
LINE
  5
1F3
330
1F
100
AcDbEntity
  8
GR1-1
  6
CONTINUOUS
 62
     7
100
AcDbLine
 10
237.146064
 20
98.014375
 30
0.0
 11
237.765822
 21
97.512505
 31
0.0
  0
LINE
  5
1F4
330
1F
100
AcDbEntity
  8
GR1-1
  6
CONTINUOUS
 62
     7
100
AcDbLine
 10
238.413185
 20
96.988281
 30
0.0
 11
239.837383
 21
95.834988
 31
0.0
  0
LINE
  5
1F5
330
1F
100
AcDbEntity
  8
GR1-1
  6
CONTINUOUS
 62
     7
100
AcDbLine
 10
234.578646
 20
100.307803
 30
0.0
 11
235.928579
 21
99.214649
 31
0.0
  0
LINE
  5
1F6
330
1F
100
AcDbEntity
  8
GR1-1
  6
CONTINUOUS
 62
     7
100
AcDbLine
 10
236.575942
 20
98.690425
 30
0.0
 11
237.870667
 21
97.641977
 31
0.0
  0
LINE
  5
1F7
330
1F
100
AcDbEntity
  8
GR1-1
  6
CONTINUOUS
 62
     7
100
AcDbLine
 10
238.51803
 20
97.117753
 30
0.0
 11
239.867963
 21
96.024599
 31
0.0
  0
LINE
  5
1F8
330
1F
100
AcDbEntity
  8
GR1-1
  6
CONTINUOUS
 62
     7
100
AcDbLine
 10
234.812963
 20
100.332431
 30
0.0
 11
236.033424
 21
99.344121
 31
0.0
  0
LINE
  5
1F9
330
1F
100
AcDbEntity
  8
GR1-1
  6
CONTINUOUS
 62
     7
100
AcDbLine
 10
236.680787
 20
98.819898
 30
0.0
 11
237.975512
 21
97.77145
 31
0.0
  0
LINE
  5
1FA
330
1F
100
AcDbEntity
  8
GR1-1
  6
CONTINUOUS
 62
     7
100
AcDbLine
 10
238.622874
 20
97.247226
 30
0.0
 11
239.843335
 21
96.258916
 31
0.0
  0
LINE
  5
1FB
330
1F
100
AcDbEntity
  8
GR1-1
  6
CONTINUOUS
 62
     7
100
AcDbLine
 10
235.047281
 20
100.357059
 30
0.0
 11
236.138269
 21
99.473594
 31
0.0
  0
LINE
  5
1FC
330
1F
100
AcDbEntity
  8
GR1-1
  6
CONTINUOUS
 62
     7
100
AcDbLine
 10
236.785631
 20
98.94937
 30
0.0
 11
238.080357
 21
97.900922
 31
0.0
  0
LINE
  5
1FD
330
1F
100
AcDbEntity
  8
GR1-1
  6
CONTINUOUS
 62
     7
100
AcDbLine
 10
238.727719
 20
97.376698
 30
0.0
 11
239.818707
 21
96.493234
 31
0.0
  0
LINE
  5
1FE
330
1F
100
AcDbEntity
  8
GR1-1
  6
CONTINUOUS
 62
     7
100
AcDbLine
 10
235.281598
 20
100.381686
 30
0.0
 11
236.243114
 21
99.603066
 31
0.0
  0
LINE
  5
1FF
330
1F
100
AcDbEntity
  8
GR1-1
  6
CONTINUOUS
 62
     7
100
AcDbLine
 10
236.890476
 20
99.078843
 30
0.0
 11
238.185201
 21
98.030395
 31
0.0
  0
LINE
  5
200
330
1F
100
AcDbEntity
  8
GR1-1
  6
CONTINUOUS
 62
     7
100
AcDbLine
 10
238.832564
 20
97.506171
 30
0.0
 11
239.79408
 21
96.727551
 31
0.0
  0
LINE
  5
201
330
1F
100
AcDbEntity
  8
GR1-1
  6
CONTINUOUS
 62
     7
100
AcDbLine
 10
235.515915
 20
100.406314
 30
0.0
 11
236.347958
 21
99.732539
 31
0.0
  0
LINE
  5
202
330
1F
100
AcDbEntity
  8
GR1-1
  6
CONTINUOUS
 62
     7
100
AcDbLine
 10
236.995321
 20
99.208315
 30
0.0
 11
238.290046
 21
98.159867
 31
0.0
  0
LINE
  5
203
330
1F
100
AcDbEntity
  8
GR1-1
  6
CONTINUOUS
 62
     7
100
AcDbLine
 10
238.937409
 20
97.635643
 30
0.0
 11
239.769452
 21
96.961868
 31
0.0
  0
LINE
  5
204
330
1F
100
AcDbEntity
  8
GR1-1
  6
CONTINUOUS
 62
     7
100
AcDbLine
 10
235.750233
 20
100.430942
 30
0.0
 11
236.452803
 21
99.862012
 31
0.0
  0
LINE
  5
205
330
1F
100
AcDbEntity
  8
GR1-1
  6
CONTINUOUS
 62
     7
100
AcDbLine
 10
239.042253
 20
97.765116
 30
0.0
 11
239.744824
 21
97.196186
 31
0.0
  0
LINE
  5
206
330
1F
100
AcDbEntity
  8
GR1-1
  6
CONTINUOUS
 62
     7
100
AcDbLine
 10
235.98455
 20
100.45557
 30
0.0
 11
236.557648
 21
99.991484
 31
0.0
  0
LINE
  5
207
330
1F
100
AcDbEntity
  8
GR1-1
  6
CONTINUOUS
 62
     7
100
AcDbLine
 10
239.147098
 20
97.894588
 30
0.0
 11
239.720196
 21
97.430503
 31
0.0
  0
LINE
  5
208
330
1F
100
AcDbEntity
  8
GR1-1
  6
CONTINUOUS
 62
     7
100
AcDbLine
 10
236.218867
 20
100.480197
 30
0.0
 11
236.662493
 21
100.120957
 31
0.0
  0
LINE
  5
209
330
1F
100
AcDbEntity
  8
GR1-1
  6
CONTINUOUS
 62
     7
100
AcDbLine
 10
239.251943
 20
98.024061
 30
0.0
 11
239.695569
 21
97.66482
 31
0.0
  0
LINE
  5
20A
330
1F
100
AcDbEntity
  8
GR1-1
  6
CONTINUOUS
 62
     7
100
AcDbLine
 10
236.453184
 20
100.504825
 30
0.0
 11
236.767337
 21
100.250429
 31
0.0
  0
LINE
  5
20B
330
1F
100
AcDbEntity
  8
GR1-1
  6
CONTINUOUS
 62
     7
100
AcDbLine
 10
239.356788
 20
98.153534
 30
0.0
 11
239.670941
 21
97.899137
 31
0.0
  0
LINE
  5
20C
330
1F
100
AcDbEntity
  8
GR1-1
  6
CONTINUOUS
 62
     7
100
AcDbLine
 10
236.687502
 20
100.529453
 30
0.0
 11
236.872182
 21
100.379902
 31
0.0
  0
LINE
  5
20D
330
1F
100
AcDbEntity
  8
GR1-1
  6
CONTINUOUS
 62
     7
100
AcDbLine
 10
239.461633
 20
98.283006
 30
0.0
 11
239.646313
 21
98.133455
 31
0.0
  0
LINE
  5
20E
330
1F
100
AcDbEntity
  8
GR1-1
  6
CONTINUOUS
 62
     7
100
AcDbLine
 10
236.921819
 20
100.554081
 30
0.0
 11
239.621685
 21
98.367772
 31
0.0
  0
LINE
  5
20F
330
1F
100
AcDbEntity
  8
GR1-1
  6
CONTINUOUS
 62
     7
100
AcDbLine
 10
237.156136
 20
100.578708
 30
0.0
 11
239.597058
 21
98.602089
 31
0.0
  0
LINE
  5
210
330
1F
100
AcDbEntity
  8
GR1-1
  6
CONTINUOUS
 62
     7
100
AcDbLine
 10
237.390454
 20
100.603336
 30
0.0
 11
239.57243
 21
98.836407
 31
0.0
  0
LINE
  5
211
330
1F
100
AcDbEntity
  8
GR1-1
  6
CONTINUOUS
 62
     7
100
AcDbLine
 10
237.624771
 20
100.627964
 30
0.0
 11
239.547802
 21
99.070724
 31
0.0
  0
LINE
  5
212
330
1F
100
AcDbEntity
  8
GR1-1
  6
CONTINUOUS
 62
     7
100
AcDbLine
 10
237.859088
 20
100.652592
 30
0.0
 11
239.523174
 21
99.305041
 31
0.0
  0
LINE
  5
213
330
1F
100
AcDbEntity
  8
GR1-1
  6
CONTINUOUS
 62
     7
100
AcDbLine
 10
238.093406
 20
100.677219
 30
0.0
 11
239.498547
 21
99.539358
 31
0.0
  0
LINE
  5
214
330
1F
100
AcDbEntity
  8
GR1-1
  6
CONTINUOUS
 62
     7
100
AcDbLine
 10
238.327723
 20
100.701847
 30
0.0
 11
239.473919
 21
99.773676
 31
0.0
  0
LINE
  5
215
330
1F
100
AcDbEntity
  8
GR1-1
  6
CONTINUOUS
 62
     7
100
AcDbLine
 10
238.56204
 20
100.726475
 30
0.0
 11
239.449291
 21
100.007993
 31
0.0
  0
LINE
  5
216
330
1F
100
AcDbEntity
  8
GR1-1
  6
CONTINUOUS
 62
     7
100
AcDbLine
 10
238.796357
 20
100.751103
 30
0.0
 11
239.424663
 21
100.24231
 31
0.0
  0
LINE
  5
217
330
1F
100
AcDbEntity
  8
GR1-1
  6
CONTINUOUS
 62
     7
100
AcDbLine
 10
239.030675
 20
100.77573
 30
0.0
 11
239.400036
 21
100.476628
 31
0.0
  0
LINE
  5
218
330
1F
100
AcDbEntity
  8
GR1-1
  6
CONTINUOUS
 62
     7
100
AcDbLine
 10
239.264992
 20
100.800358
 30
0.0
 11
239.375408
 21
100.710945
 31
0.0
  0
TEXT
  5
219
330
1F
100
AcDbEntity
  8
LAYERGROUP-1
  6
CONTINUOUS
 62
     7
100
AcDbText
 10
148.595474
 20
91.5
 30
0.0
 40
4.0
  1
%%c65
 50
90.0
 41
0.84375
  7
FX_VECTOR
 72
     5
 11
148.595474
 21
100.5
 31
0.0
100
AcDbText
  0
LINE
  5
21A
330
1F
100
AcDbEntity
  8
LAYERGROUP-1
  6
CONTINUOUS
 62
     7
100
AcDbLine
 10
149.595476
 20
63.5
 30
0.0
 11
149.595476
 21
128.5
 31
0.0
  0
INSERT
  5
21B
330
1F
100
AcDbEntity
  8
LAYERGROUP-1
  6
CONTINUOUS
 62
     7
100
AcDbBlockReference
  2
FXTIP_ARROW_S
 10
149.595476
 20
63.5
 30
0.0
 41
4.0
 42
4.0
 50
270.0
  0
INSERT
  5
21C
330
1F
100
AcDbEntity
  8
LAYERGROUP-1
  6
CONTINUOUS
 62
     7
100
AcDbBlockReference
  2
FXTIP_ARROW_E
 10
149.595476
 20
128.5
 30
0.0
 41
4.0
 42
4.0
 50
90.0
  0
LINE
  5
21D
330
1F
100
AcDbEntity
  8
LAYERGROUP-1
  6
CONTINUOUS
 62
     7
100
AcDbLine
 10
116.291022
 20
63.5
 30
0.0
 11
150.595476
 21
63.5
 31
0.0
  0
LINE
  5
21E
330
1F
100
AcDbEntity
  8
LAYERGROUP-1
  6
CONTINUOUS
 62
     7
100
AcDbLine
 10
116.291022
 20
128.5
 30
0.0
 11
150.595476
 21
128.5
 31
0.0
  0
LINE
  5
21F
330
1F
100
AcDbEntity
  8
}}ﾊﾊGG血CCТ
  6
CONTINUOUS
 62
     7
100
AcDbLine
 10
10.0
 20
10.0
 30
0.0
 11
410.0
 21
10.0
 31
0.0
  0
LINE
  5
220
330
1F
100
AcDbEntity
  8
}}ﾊﾊGG血CCТ
  6
CONTINUOUS
 62
     7
100
AcDbLine
 10
10.0
 20
10.0
 30
0.0
 11
10.0
 21
287.0
 31
0.0
  0
LINE
  5
221
330
1F
100
AcDbEntity
  8
}}ﾊﾊGG血CCТ
  6
CONTINUOUS
 62
     7
100
AcDbLine
 10
10.0
 20
287.0
 30
0.0
 11
410.0
 21
287.0
 31
0.0
  0
LINE
  5
222
330
1F
100
AcDbEntity
  8
}}ﾊﾊGG血CCТ
  6
CONTINUOUS
 62
     7
100
AcDbLine
 10
410.0
 20
287.0
 30
0.0
 11
410.0
 21
10.0
 31
0.0
  0
LINE
  5
223
330
1F
100
AcDbEntity
  8
}}ﾊﾊGG血CCТ
  6
CONTINUOUS
 62
     7
100
AcDbLine
 10
153.0
 20
10.0
 30
0.0
 11
153.0
 21
20.0
 31
0.0
  0
TEXT
  5
224
330
1F
100
AcDbEntity
  8
}}ﾊﾊGG血CCТ
  6
CONTINUOUS
 62
     7
100
AcDbText
 10
137.738815
 20
11.596879
 30
0.0
 40
6.648749
  1
品名
 41
1.083413
  7
FX_VECTOR
 72
     5
 11
149.058355
 21
11.596879
 31
0.0
100
AcDbText
  0
LINE
  5
225
330
1F
100
AcDbEntity
  8
}}ﾊﾊGG血CCТ
  6
CONTINUOUS
 62
     7
100
AcDbLine
 10
233.0
 20
20.0
 30
0.0
 11
233.0
 21
10.0
 31
0.0
  0
LINE
  5
226
330
1F
100
AcDbEntity
  8
}}ﾊﾊGG血CCТ
  6
CONTINUOUS
 62
     7
100
AcDbLine
 10
133.0
 20
20.0
 30
0.0
 11
410.0
 21
20.0
 31
0.0
  0
TEXT
  5
227
330
1F
100
AcDbEntity
  8
}}ﾊﾊGG血CCТ
  6
CONTINUOUS
 62
     7
100
AcDbText
 10
349.225769
 20
11.461285
 30
0.0
 40
6.0
  1
GOLD CASTER
 41
0.719626
  7
FX_VECTOR
 72
     5
 11
393.225769
 21
11.461285
 31
0.0
100
AcDbText
  0
LINE
  5
228
330
1F
100
AcDbEntity
  8
}}ﾊﾊGG血CCТ
  6
CONTINUOUS
 62
     7
100
AcDbLine
 10
253.0
 20
10.0
 30
0.0
 11
253.0
 21
20.0
 31
0.0
  0
TEXT
  5
229
330
1F
100
AcDbEntity
  8
}}ﾊﾊGG血CCТ
  6
CONTINUOUS
 62
     7
100
AcDbText
 10
237.738815
 20
11.596879
 30
0.0
 40
6.648749
  1
図番
 41
1.083413
  7
FX_VECTOR
 72
     5
 11
249.058355
 21
11.596879
 31
0.0
100
AcDbText
  0
LINE
  5
22A
330
1F
100
AcDbEntity
  8
}}ﾊﾊGG血CCТ
  6
CONTINUOUS
 62
     7
100
AcDbLine
 10
333.0
 20
20.0
 30
0.0
 11
333.0
 21
10.0
 31
0.0
  0
LINE
  5
22B
330
1F
100
AcDbEntity
  8
}}ﾊﾊGG血CCТ
  6
CONTINUOUS
 62
     7
100
AcDbLine
 10
133.0
 20
20.0
 30
0.0
 11
133.0
 21
10.0
 31
0.0
  0
LINE
  5
22D
330
1F
100
AcDbEntity
  8
0-1
  6
CONTINUOUS
 62
     7
100
AcDbLine
 10
344.8019
 20
17.913462
 30
0.0
 11
338.8019
 21
17.913462
 31
0.0
  0
LINE
  5
22E
330
1F
100
AcDbEntity
  8
0-1
  6
CONTINUOUS
 62
     7
100
AcDbLine
 10
338.8019
 20
17.913462
 30
0.0
 11
338.8019
 21
11.913462
 31
0.0
  0
LINE
  5
22F
330
1F
100
AcDbEntity
  8
0-1
  6
CONTINUOUS
 62
     7
100
AcDbLine
 10
338.8019
 20
11.913462
 30
0.0
 11
344.8019
 21
11.913462
 31
0.0
  0
LINE
  5
230
330
1F
100
AcDbEntity
  8
0-1
  6
CONTINUOUS
 62
     7
100
AcDbLine
 10
344.8019
 20
11.913462
 30
0.0
 11
344.8019
 21
17.913462
 31
0.0
  0
LINE
  5
231
330
1F
100
AcDbEntity
  8
0-1
  6
CONTINUOUS
 62
     7
100
AcDbLine
 10
344.224977
 20
15.346154
 30
0.0
 11
341.8019
 21
17.769231
 31
0.0
  0
LINE
  5
232
330
1F
100
AcDbEntity
  8
0-1
  6
CONTINUOUS
 62
     7
100
AcDbLine
 10
341.8019
 20
17.769231
 30
0.0
 11
338.946131
 21
14.913462
 31
0.0
  0
LINE
  5
233
330
1F
100
AcDbEntity
  8
0-1
  6
CONTINUOUS
 62
     7
100
AcDbLine
 10
338.946131
 20
14.913462
 30
0.0
 11
341.8019
 21
12.057692
 31
0.0
  0
LINE
  5
234
330
1F
100
AcDbEntity
  8
0-1
  6
CONTINUOUS
 62
     7
100
AcDbLine
 10
341.8019
 20
12.057692
 30
0.0
 11
343.359592
 21
13.615385
 31
0.0
  0
LINE
  5
235
330
1F
100
AcDbEntity
  8
0-1
  6
CONTINUOUS
 62
     7
100
AcDbLine
 10
343.359592
 20
13.615385
 30
0.0
 11
343.359592
 21
12.980769
 31
0.0
  0
LINE
  5
236
330
1F
100
AcDbEntity
  8
0-1
  6
CONTINUOUS
 62
     7
100
AcDbLine
 10
343.359592
 20
12.980769
 30
0.0
 11
344.224977
 21
12.980769
 31
0.0
  0
LINE
  5
237
330
1F
100
AcDbEntity
  8
0-1
  6
CONTINUOUS
 62
     7
100
AcDbLine
 10
344.224977
 20
12.980769
 30
0.0
 11
344.224977
 21
15.0
 31
0.0
  0
LINE
  5
238
330
1F
100
AcDbEntity
  8
0-1
  6
CONTINUOUS
 62
     7
100
AcDbLine
 10
344.224977
 20
15.0
 30
0.0
 11
341.8019
 21
15.0
 31
0.0
  0
LINE
  5
239
330
1F
100
AcDbEntity
  8
0-1
  6
CONTINUOUS
 62
     7
100
AcDbLine
 10
341.8019
 20
15.0
 30
0.0
 11
341.8019
 21
14.134615
 31
0.0
  0
LINE
  5
23A
330
1F
100
AcDbEntity
  8
0-1
  6
CONTINUOUS
 62
     7
100
AcDbLine
 10
341.8019
 20
14.134615
 30
0.0
 11
342.246131
 21
14.134615
 31
0.0
  0
LINE
  5
23B
330
1F
100
AcDbEntity
  8
0-1
  6
CONTINUOUS
 62
     7
100
AcDbLine
 10
342.246131
 20
14.134615
 30
0.0
 11
341.8019
 21
13.690385
 31
0.0
  0
LINE
  5
23C
330
1F
100
AcDbEntity
  8
0-1
  6
CONTINUOUS
 62
     7
100
AcDbLine
 10
341.8019
 20
13.690385
 30
0.0
 11
340.578823
 21
14.913462
 31
0.0
  0
LINE
  5
23D
330
1F
100
AcDbEntity
  8
0-1
  6
CONTINUOUS
 62
     7
100
AcDbLine
 10
340.578823
 20
14.913462
 30
0.0
 11
341.8019
 21
16.136538
 31
0.0
  0
LINE
  5
23E
330
1F
100
AcDbEntity
  8
0-1
  6
CONTINUOUS
 62
     7
100
AcDbLine
 10
341.8019
 20
16.136538
 30
0.0
 11
342.592284
 21
15.346154
 31
0.0
  0
LINE
  5
23F
330
1F
100
AcDbEntity
  8
0-1
  6
CONTINUOUS
 62
     7
100
AcDbLine
 10
342.592284
 20
15.346154
 30
0.0
 11
344.224977
 21
15.346154
 31
0.0
  0
LINE
  5
240
330
1F
100
AcDbEntity
  8
GR1-1
  6
CONTINUOUS
 62
     7
100
AcDbLine
 10
339.72238
 20
11.913462
 30
0.0
 11
340.834255
 21
13.025337
 31
0.0
  0
LINE
  5
241
330
1F
100
AcDbEntity
  8
GR1-1
  6
CONTINUOUS
 62
     7
100
AcDbLine
 10
341.650601
 20
13.841683
 30
0.0
 11
341.943534
 21
14.134615
 31
0.0
  0
LINE
  5
242
330
1F
100
AcDbEntity
  8
GR1-1
  6
CONTINUOUS
 62
     7
100
AcDbLine
 10
342.808918
 20
15.0
 30
0.0
 11
343.155072
 21
15.346154
 31
0.0
  0
LINE
  5
243
330
1F
100
AcDbEntity
  8
GR1-1
  6
CONTINUOUS
 62
     7
100
AcDbLine
 10
343.690024
 20
15.881106
 30
0.0
 11
344.8019
 21
16.992981
 31
0.0
  0
LINE
  5
244
330
1F
100
AcDbEntity
  8
GR1-1
  6
CONTINUOUS
 62
     7
100
AcDbLine
 10
339.651669
 20
11.913462
 30
0.0
 11
340.7989
 21
13.060692
 31
0.0
  0
LINE
  5
245
330
1F
100
AcDbEntity
  8
GR1-1
  6
CONTINUOUS
 62
     7
100
AcDbLine
 10
341.615246
 20
13.877038
 30
0.0
 11
341.872823
 21
14.134615
 31
0.0
  0
LINE
  5
246
330
1F
100
AcDbEntity
  8
GR1-1
  6
CONTINUOUS
 62
     7
100
AcDbLine
 10
342.738208
 20
15.0
 30
0.0
 11
343.084362
 21
15.346154
 31
0.0
  0
LINE
  5
247
330
1F
100
AcDbEntity
  8
GR1-1
  6
CONTINUOUS
 62
     7
100
AcDbLine
 10
343.654669
 20
15.916461
 30
0.0
 11
344.8019
 21
17.063692
 31
0.0
  0
LINE
  5
248
330
1F
100
AcDbEntity
  8
GR1-1
  6
CONTINUOUS
 62
     7
100
AcDbLine
 10
339.580959
 20
11.913462
 30
0.0
 11
340.763545
 21
13.096047
 31
0.0
  0
LINE
  5
249
330
1F
100
AcDbEntity
  8
GR1-1
  6
CONTINUOUS
 62
     7
100
AcDbLine
 10
341.579891
 20
13.912394
 30
0.0
 11
341.802112
 21
14.134615
 31
0.0
  0
LINE
  5
24A
330
1F
100
AcDbEntity
  8
GR1-1
  6
CONTINUOUS
 62
     7
100
AcDbLine
 10
342.667497
 20
15.0
 30
0.0
 11
343.013651
 21
15.346154
 31
0.0
  0
LINE
  5
24B
330
1F
100
AcDbEntity
  8
GR1-1
  6
CONTINUOUS
 62
     7
100
AcDbLine
 10
343.619314
 20
15.951817
 30
0.0
 11
344.8019
 21
17.134403
 31
0.0
  0
LINE
  5
24C
330
1F
100
AcDbEntity
  8
GR1-1
  6
CONTINUOUS
 62
     7
100
AcDbLine
 10
339.510248
 20
11.913462
 30
0.0
 11
340.728189
 21
13.131403
 31
0.0
  0
LINE
  5
24D
330
1F
100
AcDbEntity
  8
GR1-1
  6
CONTINUOUS
 62
     7
100
AcDbLine
 10
341.544535
 20
13.947749
 30
0.0
 11
341.8019
 21
14.205113
 31
0.0
  0
LINE
  5
24E
330
1F
100
AcDbEntity
  8
GR1-1
  6
CONTINUOUS
 62
     7
100
AcDbLine
 10
342.596786
 20
15.0
 30
0.0
 11
342.94294
 21
15.346154
 31
0.0
  0
LINE
  5
24F
330
1F
100
AcDbEntity
  8
GR1-1
  6
CONTINUOUS
 62
     7
100
AcDbLine
 10
343.583958
 20
15.987172
 30
0.0
 11
344.8019
 21
17.205113
 31
0.0
  0
LINE
  5
250
330
1F
100
AcDbEntity
  8
GR1-1
  6
CONTINUOUS
 62
     7
100
AcDbLine
 10
339.439537
 20
11.913462
 30
0.0
 11
340.692834
 21
13.166758
 31
0.0
  0
LINE
  5
251
330
1F
100
AcDbEntity
  8
GR1-1
  6
CONTINUOUS
 62
     7
100
AcDbLine
 10
341.50918
 20
13.983104
 30
0.0
 11
341.8019
 21
14.275824
 31
0.0
  0
LINE
  5
252
330
1F
100
AcDbEntity
  8
GR1-1
  6
CONTINUOUS
 62
     7
100
AcDbLine
 10
342.526076
 20
15.0
 30
0.0
 11
342.87223
 21
15.346154
 31
0.0
  0
LINE
  5
253
330
1F
100
AcDbEntity
  8
GR1-1
  6
CONTINUOUS
 62
     7
100
AcDbLine
 10
343.548603
 20
16.022527
 30
0.0
 11
344.8019
 21
17.275824
 31
0.0
  0
LINE
  5
254
330
1F
100
AcDbEntity
  8
GR1-1
  6
CONTINUOUS
 62
     7
100
AcDbLine
 10
339.368827
 20
11.913462
 30
0.0
 11
340.657479
 21
13.202114
 31
0.0
  0
LINE
  5
255
330
1F
100
AcDbEntity
  8
GR1-1
  6
CONTINUOUS
 62
     7
100
AcDbLine
 10
341.473825
 20
14.01846
 30
0.0
 11
341.8019
 21
14.346535
 31
0.0
  0
LINE
  5
256
330
1F
100
AcDbEntity
  8
GR1-1
  6
CONTINUOUS
 62
     7
100
AcDbLine
 10
342.455365
 20
15.0
 30
0.0
 11
342.801519
 21
15.346154
 31
0.0
  0
LINE
  5
257
330
1F
100
AcDbEntity
  8
GR1-1
  6
CONTINUOUS
 62
     7
100
AcDbLine
 10
343.513248
 20
16.057883
 30
0.0
 11
344.8019
 21
17.346535
 31
0.0
  0
LINE
  5
258
330
1F
100
AcDbEntity
  8
GR1-1
  6
CONTINUOUS
 62
     7
100
AcDbLine
 10
339.298116
 20
11.913462
 30
0.0
 11
340.622123
 21
13.237469
 31
0.0
  0
LINE
  5
259
330
1F
100
AcDbEntity
  8
GR1-1
  6
CONTINUOUS
 62
     7
100
AcDbLine
 10
341.438469
 20
14.053815
 30
0.0
 11
341.8019
 21
14.417245
 31
0.0
  0
LINE
  5
25A
330
1F
100
AcDbEntity
  8
GR1-1
  6
CONTINUOUS
 62
     7
100
AcDbLine
 10
342.384654
 20
15.0
 30
0.0
 11
342.730808
 21
15.346154
 31
0.0
  0
LINE
  5
25B
330
1F
100
AcDbEntity
  8
GR1-1
  6
CONTINUOUS
 62
     7
100
AcDbLine
 10
343.477892
 20
16.093238
 30
0.0
 11
344.8019
 21
17.417245
 31
0.0
  0
LINE
  5
25C
330
1F
100
AcDbEntity
  8
GR1-1
  6
CONTINUOUS
 62
     7
100
AcDbLine
 10
339.227405
 20
11.913462
 30
0.0
 11
340.586768
 21
13.272824
 31
0.0
  0
LINE
  5
25D
330
1F
100
AcDbEntity
  8
GR1-1
  6
CONTINUOUS
 62
     7
100
AcDbLine
 10
341.403114
 20
14.08917
 30
0.0
 11
341.8019
 21
14.487956
 31
0.0
  0
LINE
  5
25E
330
1F
100
AcDbEntity
  8
GR1-1
  6
CONTINUOUS
 62
     7
100
AcDbLine
 10
342.313944
 20
15.0
 30
0.0
 11
342.660097
 21
15.346154
 31
0.0
  0
LINE
  5
25F
330
1F
100
AcDbEntity
  8
GR1-1
  6
CONTINUOUS
 62
     7
100
AcDbLine
 10
343.442537
 20
16.128593
 30
0.0
 11
344.8019
 21
17.487956
 31
0.0
  0
LINE
  5
260
330
1F
100
AcDbEntity
  8
GR1-1
  6
CONTINUOUS
 62
     7
100
AcDbLine
 10
339.156695
 20
11.913462
 30
0.0
 11
340.551413
 21
13.30818
 31
0.0
  0
LINE
  5
261
330
1F
100
AcDbEntity
  8
GR1-1
  6
CONTINUOUS
 62
     7
100
AcDbLine
 10
341.367759
 20
14.124526
 30
0.0
 11
341.8019
 21
14.558667
 31
0.0
  0
LINE
  5
262
330
1F
100
AcDbEntity
  8
GR1-1
  6
CONTINUOUS
 62
     7
100
AcDbLine
 10
342.243233
 20
15.0
 30
0.0
 11
342.590836
 21
15.347603
 31
0.0
  0
LINE
  5
263
330
1F
100
AcDbEntity
  8
GR1-1
  6
CONTINUOUS
 62
     7
100
AcDbLine
 10
343.407182
 20
16.163949
 30
0.0
 11
344.8019
 21
17.558667
 31
0.0
  0
LINE
  5
264
330
1F
100
AcDbEntity
  8
GR1-1
  6
CONTINUOUS
 62
     7
100
AcDbLine
 10
339.085984
 20
11.913462
 30
0.0
 11
340.516057
 21
13.343535
 31
0.0
  0
LINE
  5
265
330
1F
100
AcDbEntity
  8
GR1-1
  6
CONTINUOUS
 62
     7
100
AcDbLine
 10
341.332403
 20
14.159881
 30
0.0
 11
341.8019
 21
14.629377
 31
0.0
  0
LINE
  5
266
330
1F
100
AcDbEntity
  8
GR1-1
  6
CONTINUOUS
 62
     7
100
AcDbLine
 10
342.172522
 20
15.0
 30
0.0
 11
342.55548
 21
15.382958
 31
0.0
  0
LINE
  5
267
330
1F
100
AcDbEntity
  8
GR1-1
  6
CONTINUOUS
 62
     7
100
AcDbLine
 10
343.371826
 20
16.199304
 30
0.0
 11
344.8019
 21
17.629377
 31
0.0
  0
LINE
  5
268
330
1F
100
AcDbEntity
  8
GR1-1
  6
CONTINUOUS
 62
     7
100
AcDbLine
 10
339.015273
 20
11.913462
 30
0.0
 11
340.480702
 21
13.37889
 31
0.0
  0
LINE
  5
269
330
1F
100
AcDbEntity
  8
GR1-1
  6
CONTINUOUS
 62
     7
100
AcDbLine
 10
341.297048
 20
14.195236
 30
0.0
 11
341.8019
 21
14.700088
 31
0.0
  0
LINE
  5
26A
330
1F
100
AcDbEntity
  8
GR1-1
  6
CONTINUOUS
 62
     7
100
AcDbLine
 10
342.101812
 20
15.0
 30
0.0
 11
342.520125
 21
15.418313
 31
0.0
  0
LINE
  5
26B
330
1F
100
AcDbEntity
  8
GR1-1
  6
CONTINUOUS
 62
     7
100
AcDbLine
 10
343.336471
 20
16.234659
 30
0.0
 11
344.8019
 21
17.700088
 31
0.0
  0
LINE
  5
26C
330
1F
100
AcDbEntity
  8
GR1-1
  6
CONTINUOUS
 62
     7
100
AcDbLine
 10
338.944563
 20
11.913462
 30
0.0
 11
340.445347
 21
13.414246
 31
0.0
  0
LINE
  5
26D
330
1F
100
AcDbEntity
  8
GR1-1
  6
CONTINUOUS
 62
     7
100
AcDbLine
 10
341.261693
 20
14.230592
 30
0.0
 11
341.8019
 21
14.770799
 31
0.0
  0
LINE
  5
26E
330
1F
100
AcDbEntity
  8
GR1-1
  6
CONTINUOUS
 62
     7
100
AcDbLine
 10
342.031101
 20
15.0
 30
0.0
 11
342.48477
 21
15.453669
 31
0.0
  0
LINE
  5
26F
330
1F
100
AcDbEntity
  8
GR1-1
  6
CONTINUOUS
 62
     7
100
AcDbLine
 10
343.301116
 20
16.270015
 30
0.0
 11
344.8019
 21
17.770799
 31
0.0
  0
LINE
  5
270
330
1F
100
AcDbEntity
  8
GR1-1
  6
CONTINUOUS
 62
     7
100
AcDbLine
 10
338.873852
 20
11.913462
 30
0.0
 11
340.409991
 21
13.449601
 31
0.0
  0
LINE
  5
271
330
1F
100
AcDbEntity
  8
GR1-1
  6
CONTINUOUS
 62
     7
100
AcDbLine
 10
341.226337
 20
14.265947
 30
0.0
 11
341.8019
 21
14.841509
 31
0.0
  0
LINE
  5
272
330
1F
100
AcDbEntity
  8
GR1-1
  6
CONTINUOUS
 62
     7
100
AcDbLine
 10
341.96039
 20
15.0
 30
0.0
 11
342.449414
 21
15.489024
 31
0.0
  0
LINE
  5
273
330
1F
100
AcDbEntity
  8
GR1-1
  6
CONTINUOUS
 62
     7
100
AcDbLine
 10
343.26576
 20
16.30537
 30
0.0
 11
344.8019
 21
17.841509
 31
0.0
  0
LINE
  5
274
330
1F
100
AcDbEntity
  8
GR1-1
  6
CONTINUOUS
 62
     7
100
AcDbLine
 10
338.803141
 20
11.913462
 30
0.0
 11
340.374636
 21
13.484956
 31
0.0
  0
LINE
  5
275
330
1F
100
AcDbEntity
  8
GR1-1
  6
CONTINUOUS
 62
     7
100
AcDbLine
 10
341.190982
 20
14.301302
 30
0.0
 11
341.8019
 21
14.91222
 31
0.0
  0
LINE
  5
276
330
1F
100
AcDbEntity
  8
GR1-1
  6
CONTINUOUS
 62
     7
100
AcDbLine
 10
341.88968
 20
15.0
 30
0.0
 11
342.414059
 21
15.524379
 31
0.0
  0
LINE
  5
277
330
1F
100
AcDbEntity
  8
GR1-1
  6
CONTINUOUS
 62
     7
100
AcDbLine
 10
343.230405
 20
16.340725
 30
0.0
 11
344.8019
 21
17.91222
 31
0.0
  0
LINE
  5
278
330
1F
100
AcDbEntity
  8
GR1-1
  6
CONTINUOUS
 62
     7
100
AcDbLine
 10
338.8019
 20
11.982931
 30
0.0
 11
340.339281
 21
13.520312
 31
0.0
  0
LINE
  5
279
330
1F
100
AcDbEntity
  8
GR1-1
  6
CONTINUOUS
 62
     7
100
AcDbLine
 10
341.155627
 20
14.336658
 30
0.0
 11
341.8019
 21
14.982931
 31
0.0
  0
LINE
  5
27A
330
1F
100
AcDbEntity
  8
GR1-1
  6
CONTINUOUS
 62
     7
100
AcDbLine
 10
341.818969
 20
15.0
 30
0.0
 11
342.378704
 21
15.559735
 31
0.0
  0
LINE
  5
27B
330
1F
100
AcDbEntity
  8
GR1-1
  6
CONTINUOUS
 62
     7
100
AcDbLine
 10
343.19505
 20
16.376081
 30
0.0
 11
344.73243
 21
17.913462
 31
0.0
  0
LINE
  5
27C
330
1F
100
AcDbEntity
  8
GR1-1
  6
CONTINUOUS
 62
     7
100
AcDbLine
 10
338.8019
 20
12.053642
 30
0.0
 11
340.303925
 21
13.555667
 31
0.0
  0
LINE
  5
27D
330
1F
100
AcDbEntity
  8
GR1-1
  6
CONTINUOUS
 62
     7
100
AcDbLine
 10
341.120271
 20
14.372013
 30
0.0
 11
342.343348
 21
15.59509
 31
0.0
  0
LINE
  5
27E
330
1F
100
AcDbEntity
  8
GR1-1
  6
CONTINUOUS
 62
     7
100
AcDbLine
 10
343.159694
 20
16.411436
 30
0.0
 11
344.66172
 21
17.913462
 31
0.0
  0
LINE
  5
27F
330
1F
100
AcDbEntity
  8
GR1-1
  6
CONTINUOUS
 62
     7
100
AcDbLine
 10
338.8019
 20
12.124352
 30
0.0
 11
340.26857
 21
13.591022
 31
0.0
  0
LINE
  5
280
330
1F
100
AcDbEntity
  8
GR1-1
  6
CONTINUOUS
 62
     7
100
AcDbLine
 10
341.084916
 20
14.407368
 30
0.0
 11
342.307993
 21
15.630445
 31
0.0
  0
LINE
  5
281
330
1F
100
AcDbEntity
  8
GR1-1
  6
CONTINUOUS
 62
     7
100
AcDbLine
 10
343.124339
 20
16.446791
 30
0.0
 11
344.591009
 21
17.913462
 31
0.0
  0
LINE
  5
282
330
1F
100
AcDbEntity
  8
GR1-1
  6
CONTINUOUS
 62
     7
100
AcDbLine
 10
338.8019
 20
12.195063
 30
0.0
 11
340.233214
 21
13.626378
 31
0.0
  0
LINE
  5
283
330
1F
100
AcDbEntity
  8
GR1-1
  6
CONTINUOUS
 62
     7
100
AcDbLine
 10
341.049561
 20
14.442724
 30
0.0
 11
342.272638
 21
15.665801
 31
0.0
  0
LINE
  5
284
330
1F
100
AcDbEntity
  8
GR1-1
  6
CONTINUOUS
 62
     7
100
AcDbLine
 10
343.088984
 20
16.482147
 30
0.0
 11
344.520298
 21
17.913462
 31
0.0
  0
LINE
  5
285
330
1F
100
AcDbEntity
  8
GR1-1
  6
CONTINUOUS
 62
     7
100
AcDbLine
 10
338.8019
 20
12.265774
 30
0.0
 11
340.197859
 21
13.661733
 31
0.0
  0
LINE
  5
286
330
1F
100
AcDbEntity
  8
GR1-1
  6
CONTINUOUS
 62
     7
100
AcDbLine
 10
341.014205
 20
14.478079
 30
0.0
 11
342.237282
 21
15.701156
 31
0.0
  0
LINE
  5
287
330
1F
100
AcDbEntity
  8
GR1-1
  6
CONTINUOUS
 62
     7
100
AcDbLine
 10
343.053628
 20
16.517502
 30
0.0
 11
344.449588
 21
17.913462
 31
0.0
  0
LINE
  5
288
330
1F
100
AcDbEntity
  8
GR1-1
  6
CONTINUOUS
 62
     7
100
AcDbLine
 10
338.8019
 20
12.336484
 30
0.0
 11
340.162504
 21
13.697088
 31
0.0
  0
LINE
  5
289
330
1F
100
AcDbEntity
  8
GR1-1
  6
CONTINUOUS
 62
     7
100
AcDbLine
 10
340.97885
 20
14.513434
 30
0.0
 11
342.201927
 21
15.736511
 31
0.0
  0
LINE
  5
28A
330
1F
100
AcDbEntity
  8
GR1-1
  6
CONTINUOUS
 62
     7
100
AcDbLine
 10
343.018273
 20
16.552857
 30
0.0
 11
344.378877
 21
17.913462
 31
0.0
  0
LINE
  5
28B
330
1F
100
AcDbEntity
  8
GR1-1
  6
CONTINUOUS
 62
     7
100
AcDbLine
 10
338.8019
 20
12.407195
 30
0.0
 11
340.127148
 21
13.732444
 31
0.0
  0
LINE
  5
28C
330
1F
100
AcDbEntity
  8
GR1-1
  6
CONTINUOUS
 62
     7
100
AcDbLine
 10
340.943495
 20
14.54879
 30
0.0
 11
342.166572
 21
15.771867
 31
0.0
  0
LINE
  5
28D
330
1F
100
AcDbEntity
  8
GR1-1
  6
CONTINUOUS
 62
     7
100
AcDbLine
 10
342.982918
 20
16.588213
 30
0.0
 11
344.308166
 21
17.913462
 31
0.0
  0
LINE
  5
28E
330
1F
100
AcDbEntity
  8
GR1-1
  6
CONTINUOUS
 62
     7
100
AcDbLine
 10
338.8019
 20
12.477906
 30
0.0
 11
340.091793
 21
13.767799
 31
0.0
  0
LINE
  5
28F
330
1F
100
AcDbEntity
  8
GR1-1
  6
CONTINUOUS
 62
     7
100
AcDbLine
 10
340.908139
 20
14.584145
 30
0.0
 11
342.131216
 21
15.807222
 31
0.0
  0
LINE
  5
290
330
1F
100
AcDbEntity
  8
GR1-1
  6
CONTINUOUS
 62
     7
100
AcDbLine
 10
342.947562
 20
16.623568
 30
0.0
 11
344.237456
 21
17.913462
 31
0.0
  0
LINE
  5
291
330
1F
100
AcDbEntity
  8
GR1-1
  6
CONTINUOUS
 62
     7
100
AcDbLine
 10
338.8019
 20
12.548616
 30
0.0
 11
340.056438
 21
13.803154
 31
0.0
  0
LINE
  5
292
330
1F
100
AcDbEntity
  8
GR1-1
  6
CONTINUOUS
 62
     7
100
AcDbLine
 10
340.872784
 20
14.6195
 30
0.0
 11
342.095861
 21
15.842577
 31
0.0
  0
LINE
  5
293
330
1F
100
AcDbEntity
  8
GR1-1
  6
CONTINUOUS
 62
     7
100
AcDbLine
 10
342.912207
 20
16.658923
 30
0.0
 11
344.166745
 21
17.913462
 31
0.0
  0
LINE
  5
294
330
1F
100
AcDbEntity
  8
GR1-1
  6
CONTINUOUS
 62
     7
100
AcDbLine
 10
338.8019
 20
12.619327
 30
0.0
 11
340.021082
 21
13.83851
 31
0.0
  0
LINE
  5
295
330
1F
100
AcDbEntity
  8
GR1-1
  6
CONTINUOUS
 62
     7
100
AcDbLine
 10
340.837429
 20
14.654856
 30
0.0
 11
342.060506
 21
15.877933
 31
0.0
  0
LINE
  5
296
330
1F
100
AcDbEntity
  8
GR1-1
  6
CONTINUOUS
 62
     7
100
AcDbLine
 10
342.876852
 20
16.694279
 30
0.0
 11
344.096034
 21
17.913462
 31
0.0
  0
LINE
  5
297
330
1F
100
AcDbEntity
  8
GR1-1
  6
CONTINUOUS
 62
     7
100
AcDbLine
 10
338.8019
 20
12.690038
 30
0.0
 11
339.985727
 21
13.873865
 31
0.0
  0
LINE
  5
298
330
1F
100
AcDbEntity
  8
GR1-1
  6
CONTINUOUS
 62
     7
100
AcDbLine
 10
340.802073
 20
14.690211
 30
0.0
 11
342.02515
 21
15.913288
 31
0.0
  0
LINE
  5
299
330
1F
100
AcDbEntity
  8
GR1-1
  6
CONTINUOUS
 62
     7
100
AcDbLine
 10
342.841496
 20
16.729634
 30
0.0
 11
344.025324
 21
17.913462
 31
0.0
  0
LINE
  5
29A
330
1F
100
AcDbEntity
  8
GR1-1
  6
CONTINUOUS
 62
     7
100
AcDbLine
 10
338.8019
 20
12.760748
 30
0.0
 11
339.950372
 21
13.90922
 31
0.0
  0
LINE
  5
29B
330
1F
100
AcDbEntity
  8
GR1-1
  6
CONTINUOUS
 62
     7
100
AcDbLine
 10
340.766718
 20
14.725566
 30
0.0
 11
341.989795
 21
15.948643
 31
0.0
  0
LINE
  5
29C
330
1F
100
AcDbEntity
  8
GR1-1
  6
CONTINUOUS
 62
     7
100
AcDbLine
 10
342.806141
 20
16.76499
 30
0.0
 11
343.954613
 21
17.913462
 31
0.0
  0
LINE
  5
29D
330
1F
100
AcDbEntity
  8
GR1-1
  6
CONTINUOUS
 62
     7
100
AcDbLine
 10
338.8019
 20
12.831459
 30
0.0
 11
339.915016
 21
13.944576
 31
0.0
  0
LINE
  5
29E
330
1F
100
AcDbEntity
  8
GR1-1
  6
CONTINUOUS
 62
     7
100
AcDbLine
 10
340.731363
 20
14.760922
 30
0.0
 11
341.95444
 21
15.983999
 31
0.0
  0
LINE
  5
29F
330
1F
100
AcDbEntity
  8
GR1-1
  6
CONTINUOUS
 62
     7
100
AcDbLine
 10
342.770786
 20
16.800345
 30
0.0
 11
343.883902
 21
17.913462
 31
0.0
  0
LINE
  5
2A0
330
1F
100
AcDbEntity
  8
GR1-1
  6
CONTINUOUS
 62
     7
100
AcDbLine
 10
338.8019
 20
12.90217
 30
0.0
 11
339.879661
 21
13.979931
 31
0.0
  0
LINE
  5
2A1
330
1F
100
AcDbEntity
  8
GR1-1
  6
CONTINUOUS
 62
     7
100
AcDbLine
 10
340.696007
 20
14.796277
 30
0.0
 11
341.919084
 21
16.019354
 31
0.0
  0
LINE
  5
2A2
330
1F
100
AcDbEntity
  8
GR1-1
  6
CONTINUOUS
 62
     7
100
AcDbLine
 10
342.73543
 20
16.8357
 30
0.0
 11
343.813192
 21
17.913462
 31
0.0
  0
LINE
  5
2A3
330
1F
100
AcDbEntity
  8
GR1-1
  6
CONTINUOUS
 62
     7
100
AcDbLine
 10
338.8019
 20
12.97288
 30
0.0
 11
339.844306
 21
14.015286
 31
0.0
  0
LINE
  5
2A4
330
1F
100
AcDbEntity
  8
GR1-1
  6
CONTINUOUS
 62
     7
100
AcDbLine
 10
340.660652
 20
14.831632
 30
0.0
 11
341.883729
 21
16.054709
 31
0.0
  0
LINE
  5
2A5
330
1F
100
AcDbEntity
  8
GR1-1
  6
CONTINUOUS
 62
     7
100
AcDbLine
 10
342.700075
 20
16.871056
 30
0.0
 11
343.742481
 21
17.913462
 31
0.0
  0
LINE
  5
2A6
330
1F
100
AcDbEntity
  8
GR1-1
  6
CONTINUOUS
 62
     7
100
AcDbLine
 10
338.8019
 20
13.043591
 30
0.0
 11
339.80895
 21
14.050642
 31
0.0
  0
LINE
  5
2A7
330
1F
100
AcDbEntity
  8
GR1-1
  6
CONTINUOUS
 62
     7
100
AcDbLine
 10
340.625297
 20
14.866988
 30
0.0
 11
341.848373
 21
16.090065
 31
0.0
  0
LINE
  5
2A8
330
1F
100
AcDbEntity
  8
GR1-1
  6
CONTINUOUS
 62
     7
100
AcDbLine
 10
342.66472
 20
16.906411
 30
0.0
 11
343.67177
 21
17.913462
 31
0.0
  0
LINE
  5
2A9
330
1F
100
AcDbEntity
  8
GR1-1
  6
CONTINUOUS
 62
     7
100
AcDbLine
 10
338.8019
 20
13.114302
 30
0.0
 11
339.773595
 21
14.085997
 31
0.0
  0
LINE
  5
2AA
330
1F
100
AcDbEntity
  8
GR1-1
  6
CONTINUOUS
 62
     7
100
AcDbLine
 10
340.589941
 20
14.902343
 30
0.0
 11
341.813018
 21
16.12542
 31
0.0
  0
LINE
  5
2AB
330
1F
100
AcDbEntity
  8
GR1-1
  6
CONTINUOUS
 62
     7
100
AcDbLine
 10
342.629364
 20
16.941766
 30
0.0
 11
343.60106
 21
17.913462
 31
0.0
  0
LINE
  5
2AC
330
1F
100
AcDbEntity
  8
GR1-1
  6
CONTINUOUS
 62
     7
100
AcDbLine
 10
338.8019
 20
13.185012
 30
0.0
 11
339.73824
 21
14.121352
 31
0.0
  0
LINE
  5
2AD
330
1F
100
AcDbEntity
  8
GR1-1
  6
CONTINUOUS
 62
     7
100
AcDbLine
 10
342.594009
 20
16.977122
 30
0.0
 11
343.530349
 21
17.913462
 31
0.0
  0
LINE
  5
2AE
330
1F
100
AcDbEntity
  8
GR1-1
  6
CONTINUOUS
 62
     7
100
AcDbLine
 10
338.8019
 20
13.255723
 30
0.0
 11
339.702884
 21
14.156708
 31
0.0
  0
LINE
  5
2AF
330
1F
100
AcDbEntity
  8
GR1-1
  6
CONTINUOUS
 62
     7
100
AcDbLine
 10
342.558654
 20
17.012477
 30
0.0
 11
343.459638
 21
17.913462
 31
0.0
  0
LINE
  5
2B0
330
1F
100
AcDbEntity
  8
GR1-1
  6
CONTINUOUS
 62
     7
100
AcDbLine
 10
338.8019
 20
13.326434
 30
0.0
 11
339.667529
 21
14.192063
 31
0.0
  0
LINE
  5
2B1
330
1F
100
AcDbEntity
  8
GR1-1
  6
CONTINUOUS
 62
     7
100
AcDbLine
 10
342.523298
 20
17.047832
 30
0.0
 11
343.388928
 21
17.913462
 31
0.0
  0
LINE
  5
2B2
330
1F
100
AcDbEntity
  8
GR1-1
  6
CONTINUOUS
 62
     7
100
AcDbLine
 10
338.8019
 20
13.397144
 30
0.0
 11
339.632174
 21
14.227418
 31
0.0
  0
LINE
  5
2B3
330
1F
100
AcDbEntity
  8
GR1-1
  6
CONTINUOUS
 62
     7
100
AcDbLine
 10
342.487943
 20
17.083188
 30
0.0
 11
343.318217
 21
17.913462
 31
0.0
  0
LINE
  5
2B4
330
1F
100
AcDbEntity
  8
GR1-1
  6
CONTINUOUS
 62
     7
100
AcDbLine
 10
338.8019
 20
13.467855
 30
0.0
 11
339.596818
 21
14.262774
 31
0.0
  0
LINE
  5
2B5
330
1F
100
AcDbEntity
  8
GR1-1
  6
CONTINUOUS
 62
     7
100
AcDbLine
 10
342.452588
 20
17.118543
 30
0.0
 11
343.247506
 21
17.913462
 31
0.0
  0
LINE
  5
2B6
330
1F
100
AcDbEntity
  8
GR1-1
  6
CONTINUOUS
 62
     7
100
AcDbLine
 10
338.8019
 20
13.538566
 30
0.0
 11
339.561463
 21
14.298129
 31
0.0
  0
LINE
  5
2B7
330
1F
100
AcDbEntity
  8
GR1-1
  6
CONTINUOUS
 62
     7
100
AcDbLine
 10
342.417232
 20
17.153898
 30
0.0
 11
343.176796
 21
17.913462
 31
0.0
  0
LINE
  5
2B8
330
1F
100
AcDbEntity
  8
GR1-1
  6
CONTINUOUS
 62
     7
100
AcDbLine
 10
338.8019
 20
13.609276
 30
0.0
 11
339.526108
 21
14.333484
 31
0.0
  0
LINE
  5
2B9
330
1F
100
AcDbEntity
  8
GR1-1
  6
CONTINUOUS
 62
     7
100
AcDbLine
 10
342.381877
 20
17.189254
 30
0.0
 11
343.106085
 21
17.913462
 31
0.0
  0
LINE
  5
2BA
330
1F
100
AcDbEntity
  8
GR1-1
  6
CONTINUOUS
 62
     7
100
AcDbLine
 10
338.8019
 20
13.679987
 30
0.0
 11
339.490752
 21
14.36884
 31
0.0
  0
LINE
  5
2BB
330
1F
100
AcDbEntity
  8
GR1-1
  6
CONTINUOUS
 62
     7
100
AcDbLine
 10
342.346522
 20
17.224609
 30
0.0
 11
343.035374
 21
17.913462
 31
0.0
  0
LINE
  5
2BC
330
1F
100
AcDbEntity
  8
GR1-1
  6
CONTINUOUS
 62
     7
100
AcDbLine
 10
338.8019
 20
13.750698
 30
0.0
 11
339.455397
 21
14.404195
 31
0.0
  0
LINE
  5
2BD
330
1F
100
AcDbEntity
  8
GR1-1
  6
CONTINUOUS
 62
     7
100
AcDbLine
 10
342.311166
 20
17.259964
 30
0.0
 11
342.964664
 21
17.913462
 31
0.0
  0
LINE
  5
2BE
330
1F
100
AcDbEntity
  8
GR1-1
  6
CONTINUOUS
 62
     7
100
AcDbLine
 10
338.8019
 20
13.821408
 30
0.0
 11
339.420042
 21
14.43955
 31
0.0
  0
LINE
  5
2BF
330
1F
100
AcDbEntity
  8
GR1-1
  6
CONTINUOUS
 62
     7
100
AcDbLine
 10
342.275811
 20
17.29532
 30
0.0
 11
342.893953
 21
17.913462
 31
0.0
  0
LINE
  5
2C0
330
1F
100
AcDbEntity
  8
GR1-1
  6
CONTINUOUS
 62
     7
100
AcDbLine
 10
338.8019
 20
13.892119
 30
0.0
 11
339.384686
 21
14.474906
 31
0.0
  0
LINE
  5
2C1
330
1F
100
AcDbEntity
  8
GR1-1
  6
CONTINUOUS
 62
     7
100
AcDbLine
 10
342.240456
 20
17.330675
 30
0.0
 11
342.823242
 21
17.913462
 31
0.0
  0
LINE
  5
2C2
330
1F
100
AcDbEntity
  8
GR1-1
  6
CONTINUOUS
 62
     7
100
AcDbLine
 10
338.8019
 20
13.96283
 30
0.0
 11
339.349331
 21
14.510261
 31
0.0
  0
LINE
  5
2C3
330
1F
100
AcDbEntity
  8
GR1-1
  6
CONTINUOUS
 62
     7
100
AcDbLine
 10
342.2051
 20
17.36603
 30
0.0
 11
342.752531
 21
17.913462
 31
0.0
  0
LINE
  5
2C4
330
1F
100
AcDbEntity
  8
GR1-1
  6
CONTINUOUS
 62
     7
100
AcDbLine
 10
338.8019
 20
14.033541
 30
0.0
 11
339.313976
 21
14.545616
 31
0.0
  0
LINE
  5
2C5
330
1F
100
AcDbEntity
  8
GR1-1
  6
CONTINUOUS
 62
     7
100
AcDbLine
 10
342.169745
 20
17.401386
 30
0.0
 11
342.681821
 21
17.913462
 31
0.0
  0
LINE
  5
2C6
330
1F
100
AcDbEntity
  8
GR1-1
  6
CONTINUOUS
 62
     7
100
AcDbLine
 10
338.8019
 20
14.104251
 30
0.0
 11
339.27862
 21
14.580972
 31
0.0
  0
LINE
  5
2C7
330
1F
100
AcDbEntity
  8
GR1-1
  6
CONTINUOUS
 62
     7
100
AcDbLine
 10
342.13439
 20
17.436741
 30
0.0
 11
342.61111
 21
17.913462
 31
0.0
  0
LINE
  5
2C8
330
1F
100
AcDbEntity
  8
GR1-1
  6
CONTINUOUS
 62
     7
100
AcDbLine
 10
338.8019
 20
14.174962
 30
0.0
 11
339.243265
 21
14.616327
 31
0.0
  0
LINE
  5
2C9
330
1F
100
AcDbEntity
  8
GR1-1
  6
CONTINUOUS
 62
     7
100
AcDbLine
 10
342.099034
 20
17.472096
 30
0.0
 11
342.540399
 21
17.913462
 31
0.0
  0
LINE
  5
2CA
330
1F
100
AcDbEntity
  8
GR1-1
  6
CONTINUOUS
 62
     7
100
AcDbLine
 10
338.8019
 20
14.245673
 30
0.0
 11
339.20791
 21
14.651682
 31
0.0
  0
LINE
  5
2CB
330
1F
100
AcDbEntity
  8
GR1-1
  6
CONTINUOUS
 62
     7
100
AcDbLine
 10
342.063679
 20
17.507452
 30
0.0
 11
342.469689
 21
17.913462
 31
0.0
  0
LINE
  5
2CC
330
1F
100
AcDbEntity
  8
GR1-1
  6
CONTINUOUS
 62
     7
100
AcDbLine
 10
338.8019
 20
14.316383
 30
0.0
 11
339.172554
 21
14.687038
 31
0.0
  0
LINE
  5
2CD
330
1F
100
AcDbEntity
  8
GR1-1
  6
CONTINUOUS
 62
     7
100
AcDbLine
 10
342.028324
 20
17.542807
 30
0.0
 11
342.398978
 21
17.913462
 31
0.0
  0
LINE
  5
2CE
330
1F
100
AcDbEntity
  8
GR1-1
  6
CONTINUOUS
 62
     7
100
AcDbLine
 10
338.8019
 20
14.387094
 30
0.0
 11
339.137199
 21
14.722393
 31
0.0
  0
LINE
  5
2CF
330
1F
100
AcDbEntity
  8
GR1-1
  6
CONTINUOUS
 62
     7
100
AcDbLine
 10
341.992968
 20
17.578162
 30
0.0
 11
342.328267
 21
17.913462
 31
0.0
  0
LINE
  5
2D0
330
1F
100
AcDbEntity
  8
GR1-1
  6
CONTINUOUS
 62
     7
100
AcDbLine
 10
338.8019
 20
14.457805
 30
0.0
 11
339.101844
 21
14.757748
 31
0.0
  0
LINE
  5
2D1
330
1F
100
AcDbEntity
  8
GR1-1
  6
CONTINUOUS
 62
     7
100
AcDbLine
 10
341.957613
 20
17.613518
 30
0.0
 11
342.257557
 21
17.913462
 31
0.0
  0
LINE
  5
2D2
330
1F
100
AcDbEntity
  8
GR1-1
  6
CONTINUOUS
 62
     7
100
AcDbLine
 10
338.8019
 20
14.528515
 30
0.0
 11
339.066488
 21
14.793104
 31
0.0
  0
LINE
  5
2D3
330
1F
100
AcDbEntity
  8
GR1-1
  6
CONTINUOUS
 62
     7
100
AcDbLine
 10
341.922258
 20
17.648873
 30
0.0
 11
342.186846
 21
17.913462
 31
0.0
  0
LINE
  5
2D4
330
1F
100
AcDbEntity
  8
GR1-1
  6
CONTINUOUS
 62
     7
100
AcDbLine
 10
338.8019
 20
14.599226
 30
0.0
 11
339.031133
 21
14.828459
 31
0.0
  0
LINE
  5
2D5
330
1F
100
AcDbEntity
  8
GR1-1
  6
CONTINUOUS
 62
     7
100
AcDbLine
 10
341.886902
 20
17.684228
 30
0.0
 11
342.116135
 21
17.913462
 31
0.0
  0
LINE
  5
2D6
330
1F
100
AcDbEntity
  8
GR1-1
  6
CONTINUOUS
 62
     7
100
AcDbLine
 10
338.8019
 20
14.669937
 30
0.0
 11
338.995778
 21
14.863814
 31
0.0
  0
LINE
  5
2D7
330
1F
100
AcDbEntity
  8
GR1-1
  6
CONTINUOUS
 62
     7
100
AcDbLine
 10
341.851547
 20
17.719584
 30
0.0
 11
342.045425
 21
17.913462
 31
0.0
  0
LINE
  5
2D8
330
1F
100
AcDbEntity
  8
GR1-1
  6
CONTINUOUS
 62
     7
100
AcDbLine
 10
338.8019
 20
14.740647
 30
0.0
 11
338.960422
 21
14.89917
 31
0.0
  0
LINE
  5
2D9
330
1F
100
AcDbEntity
  8
GR1-1
  6
CONTINUOUS
 62
     7
100
AcDbLine
 10
341.816192
 20
17.754939
 30
0.0
 11
341.974714
 21
17.913462
 31
0.0
  0
LINE
  5
2DA
330
1F
100
AcDbEntity
  8
GR1-1
  6
CONTINUOUS
 62
     7
100
AcDbLine
 10
338.8019
 20
14.811358
 30
0.0
 11
341.904003
 21
17.913462
 31
0.0
  0
LINE
  5
2DB
330
1F
100
AcDbEntity
  8
GR1-1
  6
CONTINUOUS
 62
     7
100
AcDbLine
 10
338.8019
 20
14.882069
 30
0.0
 11
341.833293
 21
17.913462
 31
0.0
  0
LINE
  5
2DC
330
1F
100
AcDbEntity
  8
GR1-1
  6
CONTINUOUS
 62
     7
100
AcDbLine
 10
338.8019
 20
14.952779
 30
0.0
 11
341.762582
 21
17.913462
 31
0.0
  0
LINE
  5
2DD
330
1F
100
AcDbEntity
  8
GR1-1
  6
CONTINUOUS
 62
     7
100
AcDbLine
 10
338.8019
 20
15.02349
 30
0.0
 11
341.691871
 21
17.913462
 31
0.0
  0
LINE
  5
2DE
330
1F
100
AcDbEntity
  8
GR1-1
  6
CONTINUOUS
 62
     7
100
AcDbLine
 10
338.8019
 20
15.094201
 30
0.0
 11
341.621161
 21
17.913462
 31
0.0
  0
LINE
  5
2DF
330
1F
100
AcDbEntity
  8
GR1-1
  6
CONTINUOUS
 62
     7
100
AcDbLine
 10
338.8019
 20
15.164911
 30
0.0
 11
341.55045
 21
17.913462
 31
0.0
  0
LINE
  5
2E0
330
1F
100
AcDbEntity
  8
GR1-1
  6
CONTINUOUS
 62
     7
100
AcDbLine
 10
338.8019
 20
15.235622
 30
0.0
 11
341.479739
 21
17.913462
 31
0.0
  0
LINE
  5
2E1
330
1F
100
AcDbEntity
  8
GR1-1
  6
CONTINUOUS
 62
     7
100
AcDbLine
 10
338.8019
 20
15.306333
 30
0.0
 11
341.409029
 21
17.913462
 31
0.0
  0
LINE
  5
2E2
330
1F
100
AcDbEntity
  8
GR1-1
  6
CONTINUOUS
 62
     7
100
AcDbLine
 10
338.8019
 20
15.377043
 30
0.0
 11
341.338318
 21
17.913462
 31
0.0
  0
LINE
  5
2E3
330
1F
100
AcDbEntity
  8
GR1-1
  6
CONTINUOUS
 62
     7
100
AcDbLine
 10
338.8019
 20
15.447754
 30
0.0
 11
341.267607
 21
17.913462
 31
0.0
  0
LINE
  5
2E4
330
1F
100
AcDbEntity
  8
GR1-1
  6
CONTINUOUS
 62
     7
100
AcDbLine
 10
338.8019
 20
15.518465
 30
0.0
 11
341.196897
 21
17.913462
 31
0.0
  0
LINE
  5
2E5
330
1F
100
AcDbEntity
  8
GR1-1
  6
CONTINUOUS
 62
     7
100
AcDbLine
 10
338.8019
 20
15.589175
 30
0.0
 11
341.126186
 21
17.913462
 31
0.0
  0
LINE
  5
2E6
330
1F
100
AcDbEntity
  8
GR1-1
  6
CONTINUOUS
 62
     7
100
AcDbLine
 10
338.8019
 20
15.659886
 30
0.0
 11
341.055475
 21
17.913462
 31
0.0
  0
LINE
  5
2E7
330
1F
100
AcDbEntity
  8
GR1-1
  6
CONTINUOUS
 62
     7
100
AcDbLine
 10
338.8019
 20
15.730597
 30
0.0
 11
340.984765
 21
17.913462
 31
0.0
  0
LINE
  5
2E8
330
1F
100
AcDbEntity
  8
GR1-1
  6
CONTINUOUS
 62
     7
100
AcDbLine
 10
338.8019
 20
15.801307
 30
0.0
 11
340.914054
 21
17.913462
 31
0.0
  0
LINE
  5
2E9
330
1F
100
AcDbEntity
  8
GR1-1
  6
CONTINUOUS
 62
     7
100
AcDbLine
 10
338.8019
 20
15.872018
 30
0.0
 11
340.843343
 21
17.913462
 31
0.0
  0
LINE
  5
2EA
330
1F
100
AcDbEntity
  8
GR1-1
  6
CONTINUOUS
 62
     7
100
AcDbLine
 10
338.8019
 20
15.942729
 30
0.0
 11
340.772632
 21
17.913462
 31
0.0
  0
LINE
  5
2EB
330
1F
100
AcDbEntity
  8
GR1-1
  6
CONTINUOUS
 62
     7
100
AcDbLine
 10
338.8019
 20
16.013439
 30
0.0
 11
340.701922
 21
17.913462
 31
0.0
  0
LINE
  5
2EC
330
1F
100
AcDbEntity
  8
GR1-1
  6
CONTINUOUS
 62
     7
100
AcDbLine
 10
338.8019
 20
16.08415
 30
0.0
 11
340.631211
 21
17.913462
 31
0.0
  0
LINE
  5
2ED
330
1F
100
AcDbEntity
  8
GR1-1
  6
CONTINUOUS
 62
     7
100
AcDbLine
 10
338.8019
 20
16.154861
 30
0.0
 11
340.5605
 21
17.913462
 31
0.0
  0
LINE
  5
2EE
330
1F
100
AcDbEntity
  8
GR1-1
  6
CONTINUOUS
 62
     7
100
AcDbLine
 10
338.8019
 20
16.225572
 30
0.0
 11
340.48979
 21
17.913462
 31
0.0
  0
LINE
  5
2EF
330
1F
100
AcDbEntity
  8
GR1-1
  6
CONTINUOUS
 62
     7
100
AcDbLine
 10
338.8019
 20
16.296282
 30
0.0
 11
340.419079
 21
17.913462
 31
0.0
  0
LINE
  5
2F0
330
1F
100
AcDbEntity
  8
GR1-1
  6
CONTINUOUS
 62
     7
100
AcDbLine
 10
338.8019
 20
16.366993
 30
0.0
 11
340.348368
 21
17.913462
 31
0.0
  0
LINE
  5
2F1
330
1F
100
AcDbEntity
  8
GR1-1
  6
CONTINUOUS
 62
     7
100
AcDbLine
 10
338.8019
 20
16.437704
 30
0.0
 11
340.277658
 21
17.913462
 31
0.0
  0
LINE
  5
2F2
330
1F
100
AcDbEntity
  8
GR1-1
  6
CONTINUOUS
 62
     7
100
AcDbLine
 10
338.8019
 20
16.508414
 30
0.0
 11
340.206947
 21
17.913462
 31
0.0
  0
LINE
  5
2F3
330
1F
100
AcDbEntity
  8
GR1-1
  6
CONTINUOUS
 62
     7
100
AcDbLine
 10
338.8019
 20
16.579125
 30
0.0
 11
340.136236
 21
17.913462
 31
0.0
  0
LINE
  5
2F4
330
1F
100
AcDbEntity
  8
GR1-1
  6
CONTINUOUS
 62
     7
100
AcDbLine
 10
338.8019
 20
16.649836
 30
0.0
 11
340.065526
 21
17.913462
 31
0.0
  0
LINE
  5
2F5
330
1F
100
AcDbEntity
  8
GR1-1
  6
CONTINUOUS
 62
     7
100
AcDbLine
 10
338.8019
 20
16.720546
 30
0.0
 11
339.994815
 21
17.913462
 31
0.0
  0
LINE
  5
2F6
330
1F
100
AcDbEntity
  8
GR1-1
  6
CONTINUOUS
 62
     7
100
AcDbLine
 10
338.8019
 20
16.791257
 30
0.0
 11
339.924104
 21
17.913462
 31
0.0
  0
LINE
  5
2F7
330
1F
100
AcDbEntity
  8
GR1-1
  6
CONTINUOUS
 62
     7
100
AcDbLine
 10
338.8019
 20
16.861968
 30
0.0
 11
339.853394
 21
17.913462
 31
0.0
  0
LINE
  5
2F8
330
1F
100
AcDbEntity
  8
GR1-1
  6
CONTINUOUS
 62
     7
100
AcDbLine
 10
338.8019
 20
16.932678
 30
0.0
 11
339.782683
 21
17.913462
 31
0.0
  0
LINE
  5
2F9
330
1F
100
AcDbEntity
  8
GR1-1
  6
CONTINUOUS
 62
     7
100
AcDbLine
 10
338.8019
 20
17.003389
 30
0.0
 11
339.711972
 21
17.913462
 31
0.0
  0
LINE
  5
2FA
330
1F
100
AcDbEntity
  8
GR1-1
  6
CONTINUOUS
 62
     7
100
AcDbLine
 10
338.8019
 20
17.0741
 30
0.0
 11
339.641262
 21
17.913462
 31
0.0
  0
LINE
  5
2FB
330
1F
100
AcDbEntity
  8
GR1-1
  6
CONTINUOUS
 62
     7
100
AcDbLine
 10
338.8019
 20
17.14481
 30
0.0
 11
339.570551
 21
17.913462
 31
0.0
  0
LINE
  5
2FC
330
1F
100
AcDbEntity
  8
GR1-1
  6
CONTINUOUS
 62
     7
100
AcDbLine
 10
338.8019
 20
17.215521
 30
0.0
 11
339.49984
 21
17.913462
 31
0.0
  0
LINE
  5
2FD
330
1F
100
AcDbEntity
  8
GR1-1
  6
CONTINUOUS
 62
     7
100
AcDbLine
 10
338.8019
 20
17.286232
 30
0.0
 11
339.42913
 21
17.913462
 31
0.0
  0
LINE
  5
2FE
330
1F
100
AcDbEntity
  8
GR1-1
  6
CONTINUOUS
 62
     7
100
AcDbLine
 10
338.8019
 20
17.356942
 30
0.0
 11
339.358419
 21
17.913462
 31
0.0
  0
LINE
  5
2FF
330
1F
100
AcDbEntity
  8
GR1-1
  6
CONTINUOUS
 62
     7
100
AcDbLine
 10
338.8019
 20
17.427653
 30
0.0
 11
339.287708
 21
17.913462
 31
0.0
  0
LINE
  5
300
330
1F
100
AcDbEntity
  8
GR1-1
  6
CONTINUOUS
 62
     7
100
AcDbLine
 10
338.8019
 20
17.498364
 30
0.0
 11
339.216998
 21
17.913462
 31
0.0
  0
LINE
  5
301
330
1F
100
AcDbEntity
  8
GR1-1
  6
CONTINUOUS
 62
     7
100
AcDbLine
 10
338.8019
 20
17.569074
 30
0.0
 11
339.146287
 21
17.913462
 31
0.0
  0
LINE
  5
302
330
1F
100
AcDbEntity
  8
GR1-1
  6
CONTINUOUS
 62
     7
100
AcDbLine
 10
338.8019
 20
17.639785
 30
0.0
 11
339.075576
 21
17.913462
 31
0.0
  0
LINE
  5
303
330
1F
100
AcDbEntity
  8
GR1-1
  6
CONTINUOUS
 62
     7
100
AcDbLine
 10
338.8019
 20
17.710496
 30
0.0
 11
339.004866
 21
17.913462
 31
0.0
  0
LINE
  5
304
330
1F
100
AcDbEntity
  8
GR1-1
  6
CONTINUOUS
 62
     7
100
AcDbLine
 10
338.8019
 20
17.781206
 30
0.0
 11
338.934155
 21
17.913462
 31
0.0
  0
LINE
  5
305
330
1F
100
AcDbEntity
  8
GR1-1
  6
CONTINUOUS
 62
     7
100
AcDbLine
 10
338.8019
 20
17.851917
 30
0.0
 11
338.863444
 21
17.913462
 31
0.0
  0
LINE
  5
306
330
1F
100
AcDbEntity
  8
GR1-1
  6
CONTINUOUS
 62
     7
100
AcDbLine
 10
339.793091
 20
11.913462
 30
0.0
 11
340.869611
 21
12.989981
 31
0.0
  0
LINE
  5
307
330
1F
100
AcDbEntity
  8
GR1-1
  6
CONTINUOUS
 62
     7
100
AcDbLine
 10
341.685957
 20
13.806328
 30
0.0
 11
342.014245
 21
14.134615
 31
0.0
  0
LINE
  5
308
330
1F
100
AcDbEntity
  8
GR1-1
  6
CONTINUOUS
 62
     7
100
AcDbLine
 10
342.879629
 20
15.0
 30
0.0
 11
343.225783
 21
15.346154
 31
0.0
  0
LINE
  5
309
330
1F
100
AcDbEntity
  8
GR1-1
  6
CONTINUOUS
 62
     7
100
AcDbLine
 10
343.72538
 20
15.845751
 30
0.0
 11
344.8019
 21
16.922271
 31
0.0
  0
LINE
  5
30A
330
1F
100
AcDbEntity
  8
GR1-1
  6
CONTINUOUS
 62
     7
100
AcDbLine
 10
339.863801
 20
11.913462
 30
0.0
 11
340.904966
 21
12.954626
 31
0.0
  0
LINE
  5
30B
330
1F
100
AcDbEntity
  8
GR1-1
  6
CONTINUOUS
 62
     7
100
AcDbLine
 10
341.721312
 20
13.770972
 30
0.0
 11
342.084955
 21
14.134615
 31
0.0
  0
LINE
  5
30C
330
1F
100
AcDbEntity
  8
GR1-1
  6
CONTINUOUS
 62
     7
100
AcDbLine
 10
342.95034
 20
15.0
 30
0.0
 11
343.296494
 21
15.346154
 31
0.0
  0
LINE
  5
30D
330
1F
100
AcDbEntity
  8
GR1-1
  6
CONTINUOUS
 62
     7
100
AcDbLine
 10
343.760735
 20
15.810395
 30
0.0
 11
344.8019
 21
16.85156
 31
0.0
  0
LINE
  5
30E
330
1F
100
AcDbEntity
  8
GR1-1
  6
CONTINUOUS
 62
     7
100
AcDbLine
 10
339.934512
 20
11.913462
 30
0.0
 11
340.940321
 21
12.919271
 31
0.0
  0
LINE
  5
30F
330
1F
100
AcDbEntity
  8
GR1-1
  6
CONTINUOUS
 62
     7
100
AcDbLine
 10
341.756667
 20
13.735617
 30
0.0
 11
342.155666
 21
14.134615
 31
0.0
  0
LINE
  5
310
330
1F
100
AcDbEntity
  8
GR1-1
  6
CONTINUOUS
 62
     7
100
AcDbLine
 10
343.02105
 20
15.0
 30
0.0
 11
343.367204
 21
15.346154
 31
0.0
  0
LINE
  5
311
330
1F
100
AcDbEntity
  8
GR1-1
  6
CONTINUOUS
 62
     7
100
AcDbLine
 10
343.79609
 20
15.77504
 30
0.0
 11
344.8019
 21
16.780849
 31
0.0
  0
LINE
  5
312
330
1F
100
AcDbEntity
  8
GR1-1
  6
CONTINUOUS
 62
     7
100
AcDbLine
 10
340.005223
 20
11.913462
 30
0.0
 11
340.975677
 21
12.883915
 31
0.0
  0
LINE
  5
313
330
1F
100
AcDbEntity
  8
GR1-1
  6
CONTINUOUS
 62
     7
100
AcDbLine
 10
341.792023
 20
13.700262
 30
0.0
 11
342.226377
 21
14.134615
 31
0.0
  0
LINE
  5
314
330
1F
100
AcDbEntity
  8
GR1-1
  6
CONTINUOUS
 62
     7
100
AcDbLine
 10
343.091761
 20
15.0
 30
0.0
 11
343.437915
 21
15.346154
 31
0.0
  0
LINE
  5
315
330
1F
100
AcDbEntity
  8
GR1-1
  6
CONTINUOUS
 62
     7
100
AcDbLine
 10
343.831446
 20
15.739685
 30
0.0
 11
344.8019
 21
16.710139
 31
0.0
  0
LINE
  5
316
330
1F
100
AcDbEntity
  8
GR1-1
  6
CONTINUOUS
 62
     7
100
AcDbLine
 10
340.075933
 20
11.913462
 30
0.0
 11
341.011032
 21
12.84856
 31
0.0
  0
LINE
  5
317
330
1F
100
AcDbEntity
  8
GR1-1
  6
CONTINUOUS
 62
     7
100
AcDbLine
 10
343.162472
 20
15.0
 30
0.0
 11
343.508626
 21
15.346154
 31
0.0
  0
LINE
  5
318
330
1F
100
AcDbEntity
  8
GR1-1
  6
CONTINUOUS
 62
     7
100
AcDbLine
 10
343.866801
 20
15.704329
 30
0.0
 11
344.8019
 21
16.639428
 31
0.0
  0
LINE
  5
319
330
1F
100
AcDbEntity
  8
GR1-1
  6
CONTINUOUS
 62
     7
100
AcDbLine
 10
340.146644
 20
11.913462
 30
0.0
 11
341.046387
 21
12.813205
 31
0.0
  0
LINE
  5
31A
330
1F
100
AcDbEntity
  8
GR1-1
  6
CONTINUOUS
 62
     7
100
AcDbLine
 10
343.233183
 20
15.0
 30
0.0
 11
343.579336
 21
15.346154
 31
0.0
  0
LINE
  5
31B
330
1F
100
AcDbEntity
  8
GR1-1
  6
CONTINUOUS
 62
     7
100
AcDbLine
 10
343.902157
 20
15.668974
 30
0.0
 11
344.8019
 21
16.568717
 31
0.0
  0
LINE
  5
31C
330
1F
100
AcDbEntity
  8
GR1-1
  6
CONTINUOUS
 62
     7
100
AcDbLine
 10
340.217355
 20
11.913462
 30
0.0
 11
341.081743
 21
12.777849
 31
0.0
  0
LINE
  5
31D
330
1F
100
AcDbEntity
  8
GR1-1
  6
CONTINUOUS
 62
     7
100
AcDbLine
 10
343.303893
 20
15.0
 30
0.0
 11
343.650047
 21
15.346154
 31
0.0
  0
LINE
  5
31E
330
1F
100
AcDbEntity
  8
GR1-1
  6
CONTINUOUS
 62
     7
100
AcDbLine
 10
343.937512
 20
15.633619
 30
0.0
 11
344.8019
 21
16.498007
 31
0.0
  0
LINE
  5
31F
330
1F
100
AcDbEntity
  8
GR1-1
  6
CONTINUOUS
 62
     7
100
AcDbLine
 10
340.288065
 20
11.913462
 30
0.0
 11
341.117098
 21
12.742494
 31
0.0
  0
LINE
  5
320
330
1F
100
AcDbEntity
  8
GR1-1
  6
CONTINUOUS
 62
     7
100
AcDbLine
 10
343.374604
 20
15.0
 30
0.0
 11
343.720758
 21
15.346154
 31
0.0
  0
LINE
  5
321
330
1F
100
AcDbEntity
  8
GR1-1
  6
CONTINUOUS
 62
     7
100
AcDbLine
 10
343.972867
 20
15.598263
 30
0.0
 11
344.8019
 21
16.427296
 31
0.0
  0
LINE
  5
322
330
1F
100
AcDbEntity
  8
GR1-1
  6
CONTINUOUS
 62
     7
100
AcDbLine
 10
340.358776
 20
11.913462
 30
0.0
 11
341.152453
 21
12.707139
 31
0.0
  0
LINE
  5
323
330
1F
100
AcDbEntity
  8
GR1-1
  6
CONTINUOUS
 62
     7
100
AcDbLine
 10
343.445315
 20
15.0
 30
0.0
 11
343.791468
 21
15.346154
 31
0.0
  0
LINE
  5
324
330
1F
100
AcDbEntity
  8
GR1-1
  6
CONTINUOUS
 62
     7
100
AcDbLine
 10
344.008223
 20
15.562908
 30
0.0
 11
344.8019
 21
16.356585
 31
0.0
  0
LINE
  5
325
330
1F
100
AcDbEntity
  8
GR1-1
  6
CONTINUOUS
 62
     7
100
AcDbLine
 10
340.429487
 20
11.913462
 30
0.0
 11
341.187809
 21
12.671783
 31
0.0
  0
LINE
  5
326
330
1F
100
AcDbEntity
  8
GR1-1
  6
CONTINUOUS
 62
     7
100
AcDbLine
 10
343.516025
 20
15.0
 30
0.0
 11
343.862179
 21
15.346154
 31
0.0
  0
LINE
  5
327
330
1F
100
AcDbEntity
  8
GR1-1
  6
CONTINUOUS
 62
     7
100
AcDbLine
 10
344.043578
 20
15.527553
 30
0.0
 11
344.8019
 21
16.285875
 31
0.0
  0
LINE
  5
328
330
1F
100
AcDbEntity
  8
GR1-1
  6
CONTINUOUS
 62
     7
100
AcDbLine
 10
340.500197
 20
11.913462
 30
0.0
 11
341.223164
 21
12.636428
 31
0.0
  0
LINE
  5
329
330
1F
100
AcDbEntity
  8
GR1-1
  6
CONTINUOUS
 62
     7
100
AcDbLine
 10
343.586736
 20
15.0
 30
0.0
 11
343.93289
 21
15.346154
 31
0.0
  0
LINE
  5
32A
330
1F
100
AcDbEntity
  8
GR1-1
  6
CONTINUOUS
 62
     7
100
AcDbLine
 10
344.078933
 20
15.492197
 30
0.0
 11
344.8019
 21
16.215164
 31
0.0
  0
LINE
  5
32B
330
1F
100
AcDbEntity
  8
GR1-1
  6
CONTINUOUS
 62
     7
100
AcDbLine
 10
340.570908
 20
11.913462
 30
0.0
 11
341.258519
 21
12.601073
 31
0.0
  0
LINE
  5
32C
330
1F
100
AcDbEntity
  8
GR1-1
  6
CONTINUOUS
 62
     7
100
AcDbLine
 10
343.657447
 20
15.0
 30
0.0
 11
344.0036
 21
15.346154
 31
0.0
  0
LINE
  5
32D
330
1F
100
AcDbEntity
  8
GR1-1
  6
CONTINUOUS
 62
     7
100
AcDbLine
 10
344.114289
 20
15.456842
 30
0.0
 11
344.8019
 21
16.144453
 31
0.0
  0
LINE
  5
32E
330
1F
100
AcDbEntity
  8
GR1-1
  6
CONTINUOUS
 62
     7
100
AcDbLine
 10
340.641619
 20
11.913462
 30
0.0
 11
341.293875
 21
12.565717
 31
0.0
  0
LINE
  5
32F
330
1F
100
AcDbEntity
  8
GR1-1
  6
CONTINUOUS
 62
     7
100
AcDbLine
 10
343.728157
 20
15.0
 30
0.0
 11
344.074311
 21
15.346154
 31
0.0
  0
LINE
  5
330
330
1F
100
AcDbEntity
  8
GR1-1
  6
CONTINUOUS
 62
     7
100
AcDbLine
 10
344.149644
 20
15.421487
 30
0.0
 11
344.8019
 21
16.073743
 31
0.0
  0
LINE
  5
331
330
1F
100
AcDbEntity
  8
GR1-1
  6
CONTINUOUS
 62
     7
100
AcDbLine
 10
340.712329
 20
11.913462
 30
0.0
 11
341.32923
 21
12.530362
 31
0.0
  0
LINE
  5
332
330
1F
100
AcDbEntity
  8
GR1-1
  6
CONTINUOUS
 62
     7
100
AcDbLine
 10
343.798868
 20
15.0
 30
0.0
 11
344.145022
 21
15.346154
 31
0.0
  0
LINE
  5
333
330
1F
100
AcDbEntity
  8
GR1-1
  6
CONTINUOUS
 62
     7
100
AcDbLine
 10
344.184999
 20
15.386131
 30
0.0
 11
344.8019
 21
16.003032
 31
0.0
  0
LINE
  5
334
330
1F
100
AcDbEntity
  8
GR1-1
  6
CONTINUOUS
 62
     7
100
AcDbLine
 10
340.78304
 20
11.913462
 30
0.0
 11
341.364585
 21
12.495007
 31
0.0
  0
LINE
  5
335
330
1F
100
AcDbEntity
  8
GR1-1
  6
CONTINUOUS
 62
     7
100
AcDbLine
 10
343.869579
 20
15.0
 30
0.0
 11
344.215732
 21
15.346154
 31
0.0
  0
LINE
  5
336
330
1F
100
AcDbEntity
  8
GR1-1
  6
CONTINUOUS
 62
     7
100
AcDbLine
 10
344.220355
 20
15.350776
 30
0.0
 11
344.8019
 21
15.932321
 31
0.0
  0
LINE
  5
337
330
1F
100
AcDbEntity
  8
GR1-1
  6
CONTINUOUS
 62
     7
100
AcDbLine
 10
340.853751
 20
11.913462
 30
0.0
 11
341.399941
 21
12.459651
 31
0.0
  0
LINE
  5
338
330
1F
100
AcDbEntity
  8
GR1-1
  6
CONTINUOUS
 62
     7
100
AcDbLine
 10
343.940289
 20
15.0
 30
0.0
 11
344.8019
 21
15.86161
 31
0.0
  0
LINE
  5
339
330
1F
100
AcDbEntity
  8
GR1-1
  6
CONTINUOUS
 62
     7
100
AcDbLine
 10
340.924461
 20
11.913462
 30
0.0
 11
341.435296
 21
12.424296
 31
0.0
  0
LINE
  5
33A
330
1F
100
AcDbEntity
  8
GR1-1
  6
CONTINUOUS
 62
     7
100
AcDbLine
 10
344.011
 20
15.0
 30
0.0
 11
344.8019
 21
15.7909
 31
0.0
  0
LINE
  5
33B
330
1F
100
AcDbEntity
  8
GR1-1
  6
CONTINUOUS
 62
     7
100
AcDbLine
 10
340.995172
 20
11.913462
 30
0.0
 11
341.470651
 21
12.388941
 31
0.0
  0
LINE
  5
33C
330
1F
100
AcDbEntity
  8
GR1-1
  6
CONTINUOUS
 62
     7
100
AcDbLine
 10
344.081711
 20
15.0
 30
0.0
 11
344.8019
 21
15.720189
 31
0.0
  0
LINE
  5
33D
330
1F
100
AcDbEntity
  8
GR1-1
  6
CONTINUOUS
 62
     7
100
AcDbLine
 10
341.065883
 20
11.913462
 30
0.0
 11
341.506007
 21
12.353585
 31
0.0
  0
LINE
  5
33E
330
1F
100
AcDbEntity
  8
GR1-1
  6
CONTINUOUS
 62
     7
100
AcDbLine
 10
344.152421
 20
15.0
 30
0.0
 11
344.8019
 21
15.649478
 31
0.0
  0
LINE
  5
33F
330
1F
100
AcDbEntity
  8
GR1-1
  6
CONTINUOUS
 62
     7
100
AcDbLine
 10
341.136594
 20
11.913462
 30
0.0
 11
341.541362
 21
12.31823
 31
0.0
  0
LINE
  5
340
330
1F
100
AcDbEntity
  8
GR1-1
  6
CONTINUOUS
 62
     7
100
AcDbLine
 10
344.223132
 20
15.0
 30
0.0
 11
344.8019
 21
15.578768
 31
0.0
  0
LINE
  5
341
330
1F
100
AcDbEntity
  8
GR1-1
  6
CONTINUOUS
 62
     7
100
AcDbLine
 10
341.207304
 20
11.913462
 30
0.0
 11
341.576717
 21
12.282875
 31
0.0
  0
LINE
  5
342
330
1F
100
AcDbEntity
  8
GR1-1
  6
CONTINUOUS
 62
     7
100
AcDbLine
 10
344.224977
 20
14.931134
 30
0.0
 11
344.8019
 21
15.508057
 31
0.0
  0
LINE
  5
343
330
1F
100
AcDbEntity
  8
GR1-1
  6
CONTINUOUS
 62
     7
100
AcDbLine
 10
341.278015
 20
11.913462
 30
0.0
 11
341.612073
 21
12.247519
 31
0.0
  0
LINE
  5
344
330
1F
100
AcDbEntity
  8
GR1-1
  6
CONTINUOUS
 62
     7
100
AcDbLine
 10
344.224977
 20
14.860423
 30
0.0
 11
344.8019
 21
15.437346
 31
0.0
  0
LINE
  5
345
330
1F
100
AcDbEntity
  8
GR1-1
  6
CONTINUOUS
 62
     7
100
AcDbLine
 10
341.348726
 20
11.913462
 30
0.0
 11
341.647428
 21
12.212164
 31
0.0
  0
LINE
  5
346
330
1F
100
AcDbEntity
  8
GR1-1
  6
CONTINUOUS
 62
     7
100
AcDbLine
 10
344.224977
 20
14.789713
 30
0.0
 11
344.8019
 21
15.366636
 31
0.0
  0
LINE
  5
347
330
1F
100
AcDbEntity
  8
GR1-1
  6
CONTINUOUS
 62
     7
100
AcDbLine
 10
341.419436
 20
11.913462
 30
0.0
 11
341.682783
 21
12.176809
 31
0.0
  0
LINE
  5
348
330
1F
100
AcDbEntity
  8
GR1-1
  6
CONTINUOUS
 62
     7
100
AcDbLine
 10
344.224977
 20
14.719002
 30
0.0
 11
344.8019
 21
15.295925
 31
0.0
  0
LINE
  5
349
330
1F
100
AcDbEntity
  8
GR1-1
  6
CONTINUOUS
 62
     7
100
AcDbLine
 10
341.490147
 20
11.913462
 30
0.0
 11
341.718139
 21
12.141453
 31
0.0
  0
LINE
  5
34A
330
1F
100
AcDbEntity
  8
GR1-1
  6
CONTINUOUS
 62
     7
100
AcDbLine
 10
344.224977
 20
14.648291
 30
0.0
 11
344.8019
 21
15.225214
 31
0.0
  0
LINE
  5
34B
330
1F
100
AcDbEntity
  8
GR1-1
  6
CONTINUOUS
 62
     7
100
AcDbLine
 10
341.560858
 20
11.913462
 30
0.0
 11
341.753494
 21
12.106098
 31
0.0
  0
LINE
  5
34C
330
1F
100
AcDbEntity
  8
GR1-1
  6
CONTINUOUS
 62
     7
100
AcDbLine
 10
344.224977
 20
14.577581
 30
0.0
 11
344.8019
 21
15.154504
 31
0.0
  0
LINE
  5
34D
330
1F
100
AcDbEntity
  8
GR1-1
  6
CONTINUOUS
 62
     7
100
AcDbLine
 10
341.631568
 20
11.913462
 30
0.0
 11
341.788849
 21
12.070743
 31
0.0
  0
LINE
  5
34E
330
1F
100
AcDbEntity
  8
GR1-1
  6
CONTINUOUS
 62
     7
100
AcDbLine
 10
344.224977
 20
14.50687
 30
0.0
 11
344.8019
 21
15.083793
 31
0.0
  0
LINE
  5
34F
330
1F
100
AcDbEntity
  8
GR1-1
  6
CONTINUOUS
 62
     7
100
AcDbLine
 10
341.702279
 20
11.913462
 30
0.0
 11
343.359592
 21
13.570775
 31
0.0
  0
LINE
  5
350
330
1F
100
AcDbEntity
  8
GR1-1
  6
CONTINUOUS
 62
     7
100
AcDbLine
 10
344.224977
 20
14.436159
 30
0.0
 11
344.8019
 21
15.013082
 31
0.0
  0
LINE
  5
351
330
1F
100
AcDbEntity
  8
GR1-1
  6
CONTINUOUS
 62
     7
100
AcDbLine
 10
341.77299
 20
11.913462
 30
0.0
 11
343.359592
 21
13.500064
 31
0.0
  0
LINE
  5
352
330
1F
100
AcDbEntity
  8
GR1-1
  6
CONTINUOUS
 62
     7
100
AcDbLine
 10
344.224977
 20
14.365449
 30
0.0
 11
344.8019
 21
14.942372
 31
0.0
  0
LINE
  5
353
330
1F
100
AcDbEntity
  8
GR1-1
  6
CONTINUOUS
 62
     7
100
AcDbLine
 10
341.8437
 20
11.913462
 30
0.0
 11
343.359592
 21
13.429353
 31
0.0
  0
LINE
  5
354
330
1F
100
AcDbEntity
  8
GR1-1
  6
CONTINUOUS
 62
     7
100
AcDbLine
 10
344.224977
 20
14.294738
 30
0.0
 11
344.8019
 21
14.871661
 31
0.0
  0
LINE
  5
355
330
1F
100
AcDbEntity
  8
GR1-1
  6
CONTINUOUS
 62
     7
100
AcDbLine
 10
341.914411
 20
11.913462
 30
0.0
 11
343.359592
 21
13.358643
 31
0.0
  0
LINE
  5
356
330
1F
100
AcDbEntity
  8
GR1-1
  6
CONTINUOUS
 62
     7
100
AcDbLine
 10
344.224977
 20
14.224027
 30
0.0
 11
344.8019
 21
14.80095
 31
0.0
  0
LINE
  5
357
330
1F
100
AcDbEntity
  8
GR1-1
  6
CONTINUOUS
 62
     7
100
AcDbLine
 10
341.985122
 20
11.913462
 30
0.0
 11
343.359592
 21
13.287932
 31
0.0
  0
LINE
  5
358
330
1F
100
AcDbEntity
  8
GR1-1
  6
CONTINUOUS
 62
     7
100
AcDbLine
 10
344.224977
 20
14.153317
 30
0.0
 11
344.8019
 21
14.73024
 31
0.0
  0
LINE
  5
359
330
1F
100
AcDbEntity
  8
GR1-1
  6
CONTINUOUS
 62
     7
100
AcDbLine
 10
342.055832
 20
11.913462
 30
0.0
 11
343.359592
 21
13.217221
 31
0.0
  0
LINE
  5
35A
330
1F
100
AcDbEntity
  8
GR1-1
  6
CONTINUOUS
 62
     7
100
AcDbLine
 10
344.224977
 20
14.082606
 30
0.0
 11
344.8019
 21
14.659529
 31
0.0
  0
LINE
  5
35B
330
1F
100
AcDbEntity
  8
GR1-1
  6
CONTINUOUS
 62
     7
100
AcDbLine
 10
342.126543
 20
11.913462
 30
0.0
 11
343.359592
 21
13.146511
 31
0.0
  0
LINE
  5
35C
330
1F
100
AcDbEntity
  8
GR1-1
  6
CONTINUOUS
 62
     7
100
AcDbLine
 10
344.224977
 20
14.011895
 30
0.0
 11
344.8019
 21
14.588818
 31
0.0
  0
LINE
  5
35D
330
1F
100
AcDbEntity
  8
GR1-1
  6
CONTINUOUS
 62
     7
100
AcDbLine
 10
342.197254
 20
11.913462
 30
0.0
 11
343.359592
 21
13.0758
 31
0.0
  0
LINE
  5
35E
330
1F
100
AcDbEntity
  8
GR1-1
  6
CONTINUOUS
 62
     7
100
AcDbLine
 10
344.224977
 20
13.941185
 30
0.0
 11
344.8019
 21
14.518108
 31
0.0
  0
LINE
  5
35F
330
1F
100
AcDbEntity
  8
GR1-1
  6
CONTINUOUS
 62
     7
100
AcDbLine
 10
342.267964
 20
11.913462
 30
0.0
 11
343.359592
 21
13.005089
 31
0.0
  0
LINE
  5
360
330
1F
100
AcDbEntity
  8
GR1-1
  6
CONTINUOUS
 62
     7
100
AcDbLine
 10
344.224977
 20
13.870474
 30
0.0
 11
344.8019
 21
14.447397
 31
0.0
  0
LINE
  5
361
330
1F
100
AcDbEntity
  8
GR1-1
  6
CONTINUOUS
 62
     7
100
AcDbLine
 10
342.338675
 20
11.913462
 30
0.0
 11
343.405983
 21
12.980769
 31
0.0
  0
LINE
  5
362
330
1F
100
AcDbEntity
  8
GR1-1
  6
CONTINUOUS
 62
     7
100
AcDbLine
 10
344.224977
 20
13.799763
 30
0.0
 11
344.8019
 21
14.376686
 31
0.0
  0
LINE
  5
363
330
1F
100
AcDbEntity
  8
GR1-1
  6
CONTINUOUS
 62
     7
100
AcDbLine
 10
342.409386
 20
11.913462
 30
0.0
 11
343.476693
 21
12.980769
 31
0.0
  0
LINE
  5
364
330
1F
100
AcDbEntity
  8
GR1-1
  6
CONTINUOUS
 62
     7
100
AcDbLine
 10
344.224977
 20
13.729052
 30
0.0
 11
344.8019
 21
14.305976
 31
0.0
  0
LINE
  5
365
330
1F
100
AcDbEntity
  8
GR1-1
  6
CONTINUOUS
 62
     7
100
AcDbLine
 10
342.480096
 20
11.913462
 30
0.0
 11
343.547404
 21
12.980769
 31
0.0
  0
LINE
  5
366
330
1F
100
AcDbEntity
  8
GR1-1
  6
CONTINUOUS
 62
     7
100
AcDbLine
 10
344.224977
 20
13.658342
 30
0.0
 11
344.8019
 21
14.235265
 31
0.0
  0
LINE
  5
367
330
1F
100
AcDbEntity
  8
GR1-1
  6
CONTINUOUS
 62
     7
100
AcDbLine
 10
342.550807
 20
11.913462
 30
0.0
 11
343.618115
 21
12.980769
 31
0.0
  0
LINE
  5
368
330
1F
100
AcDbEntity
  8
GR1-1
  6
CONTINUOUS
 62
     7
100
AcDbLine
 10
344.224977
 20
13.587631
 30
0.0
 11
344.8019
 21
14.164554
 31
0.0
  0
LINE
  5
369
330
1F
100
AcDbEntity
  8
GR1-1
  6
CONTINUOUS
 62
     7
100
AcDbLine
 10
342.621518
 20
11.913462
 30
0.0
 11
343.688825
 21
12.980769
 31
0.0
  0
LINE
  5
36A
330
1F
100
AcDbEntity
  8
GR1-1
  6
CONTINUOUS
 62
     7
100
AcDbLine
 10
344.224977
 20
13.51692
 30
0.0
 11
344.8019
 21
14.093844
 31
0.0
  0
LINE
  5
36B
330
1F
100
AcDbEntity
  8
GR1-1
  6
CONTINUOUS
 62
     7
100
AcDbLine
 10
342.692228
 20
11.913462
 30
0.0
 11
343.759536
 21
12.980769
 31
0.0
  0
LINE
  5
36C
330
1F
100
AcDbEntity
  8
GR1-1
  6
CONTINUOUS
 62
     7
100
AcDbLine
 10
344.224977
 20
13.44621
 30
0.0
 11
344.8019
 21
14.023133
 31
0.0
  0
LINE
  5
36D
330
1F
100
AcDbEntity
  8
GR1-1
  6
CONTINUOUS
 62
     7
100
AcDbLine
 10
342.762939
 20
11.913462
 30
0.0
 11
343.830247
 21
12.980769
 31
0.0
  0
LINE
  5
36E
330
1F
100
AcDbEntity
  8
GR1-1
  6
CONTINUOUS
 62
     7
100
AcDbLine
 10
344.224977
 20
13.375499
 30
0.0
 11
344.8019
 21
13.952422
 31
0.0
  0
LINE
  5
36F
330
1F
100
AcDbEntity
  8
GR1-1
  6
CONTINUOUS
 62
     7
100
AcDbLine
 10
342.83365
 20
11.913462
 30
0.0
 11
343.900958
 21
12.980769
 31
0.0
  0
LINE
  5
370
330
1F
100
AcDbEntity
  8
GR1-1
  6
CONTINUOUS
 62
     7
100
AcDbLine
 10
344.224977
 20
13.304788
 30
0.0
 11
344.8019
 21
13.881712
 31
0.0
  0
LINE
  5
371
330
1F
100
AcDbEntity
  8
GR1-1
  6
CONTINUOUS
 62
     7
100
AcDbLine
 10
342.90436
 20
11.913462
 30
0.0
 11
343.971668
 21
12.980769
 31
0.0
  0
LINE
  5
372
330
1F
100
AcDbEntity
  8
GR1-1
  6
CONTINUOUS
 62
     7
100
AcDbLine
 10
344.224977
 20
13.234078
 30
0.0
 11
344.8019
 21
13.811001
 31
0.0
  0
LINE
  5
373
330
1F
100
AcDbEntity
  8
GR1-1
  6
CONTINUOUS
 62
     7
100
AcDbLine
 10
342.975071
 20
11.913462
 30
0.0
 11
344.042379
 21
12.980769
 31
0.0
  0
LINE
  5
374
330
1F
100
AcDbEntity
  8
GR1-1
  6
CONTINUOUS
 62
     7
100
AcDbLine
 10
344.224977
 20
13.163367
 30
0.0
 11
344.8019
 21
13.74029
 31
0.0
  0
LINE
  5
375
330
1F
100
AcDbEntity
  8
GR1-1
  6
CONTINUOUS
 62
     7
100
AcDbLine
 10
343.045782
 20
11.913462
 30
0.0
 11
344.11309
 21
12.980769
 31
0.0
  0
LINE
  5
376
330
1F
100
AcDbEntity
  8
GR1-1
  6
CONTINUOUS
 62
     7
100
AcDbLine
 10
344.224977
 20
13.092656
 30
0.0
 11
344.8019
 21
13.669579
 31
0.0
  0
LINE
  5
377
330
1F
100
AcDbEntity
  8
GR1-1
  6
CONTINUOUS
 62
     7
100
AcDbLine
 10
343.116493
 20
11.913462
 30
0.0
 11
344.1838
 21
12.980769
 31
0.0
  0
LINE
  5
378
330
1F
100
AcDbEntity
  8
GR1-1
  6
CONTINUOUS
 62
     7
100
AcDbLine
 10
344.224977
 20
13.021946
 30
0.0
 11
344.8019
 21
13.598869
 31
0.0
  0
LINE
  5
379
330
1F
100
AcDbEntity
  8
GR1-1
  6
CONTINUOUS
 62
     7
100
AcDbLine
 10
343.187203
 20
11.913462
 30
0.0
 11
344.8019
 21
13.528158
 31
0.0
  0
LINE
  5
37A
330
1F
100
AcDbEntity
  8
GR1-1
  6
CONTINUOUS
 62
     7
100
AcDbLine
 10
343.257914
 20
11.913462
 30
0.0
 11
344.8019
 21
13.457447
 31
0.0
  0
LINE
  5
37B
330
1F
100
AcDbEntity
  8
GR1-1
  6
CONTINUOUS
 62
     7
100
AcDbLine
 10
343.328625
 20
11.913462
 30
0.0
 11
344.8019
 21
13.386737
 31
0.0
  0
LINE
  5
37C
330
1F
100
AcDbEntity
  8
GR1-1
  6
CONTINUOUS
 62
     7
100
AcDbLine
 10
343.399335
 20
11.913462
 30
0.0
 11
344.8019
 21
13.316026
 31
0.0
  0
LINE
  5
37D
330
1F
100
AcDbEntity
  8
GR1-1
  6
CONTINUOUS
 62
     7
100
AcDbLine
 10
343.470046
 20
11.913462
 30
0.0
 11
344.8019
 21
13.245315
 31
0.0
  0
LINE
  5
37E
330
1F
100
AcDbEntity
  8
GR1-1
  6
CONTINUOUS
 62
     7
100
AcDbLine
 10
343.540757
 20
11.913462
 30
0.0
 11
344.8019
 21
13.174605
 31
0.0
  0
LINE
  5
37F
330
1F
100
AcDbEntity
  8
GR1-1
  6
CONTINUOUS
 62
     7
100
AcDbLine
 10
343.611467
 20
11.913462
 30
0.0
 11
344.8019
 21
13.103894
 31
0.0
  0
LINE
  5
380
330
1F
100
AcDbEntity
  8
GR1-1
  6
CONTINUOUS
 62
     7
100
AcDbLine
 10
343.682178
 20
11.913462
 30
0.0
 11
344.8019
 21
13.033183
 31
0.0
  0
LINE
  5
381
330
1F
100
AcDbEntity
  8
GR1-1
  6
CONTINUOUS
 62
     7
100
AcDbLine
 10
343.752889
 20
11.913462
 30
0.0
 11
344.8019
 21
12.962473
 31
0.0
  0
LINE
  5
382
330
1F
100
AcDbEntity
  8
GR1-1
  6
CONTINUOUS
 62
     7
100
AcDbLine
 10
343.823599
 20
11.913462
 30
0.0
 11
344.8019
 21
12.891762
 31
0.0
  0
LINE
  5
383
330
1F
100
AcDbEntity
  8
GR1-1
  6
CONTINUOUS
 62
     7
100
AcDbLine
 10
343.89431
 20
11.913462
 30
0.0
 11
344.8019
 21
12.821051
 31
0.0
  0
LINE
  5
384
330
1F
100
AcDbEntity
  8
GR1-1
  6
CONTINUOUS
 62
     7
100
AcDbLine
 10
343.965021
 20
11.913462
 30
0.0
 11
344.8019
 21
12.750341
 31
0.0
  0
LINE
  5
385
330
1F
100
AcDbEntity
  8
GR1-1
  6
CONTINUOUS
 62
     7
100
AcDbLine
 10
344.035731
 20
11.913462
 30
0.0
 11
344.8019
 21
12.67963
 31
0.0
  0
LINE
  5
386
330
1F
100
AcDbEntity
  8
GR1-1
  6
CONTINUOUS
 62
     7
100
AcDbLine
 10
344.106442
 20
11.913462
 30
0.0
 11
344.8019
 21
12.608919
 31
0.0
  0
LINE
  5
387
330
1F
100
AcDbEntity
  8
GR1-1
  6
CONTINUOUS
 62
     7
100
AcDbLine
 10
344.177153
 20
11.913462
 30
0.0
 11
344.8019
 21
12.538209
 31
0.0
  0
LINE
  5
388
330
1F
100
AcDbEntity
  8
GR1-1
  6
CONTINUOUS
 62
     7
100
AcDbLine
 10
344.247863
 20
11.913462
 30
0.0
 11
344.8019
 21
12.467498
 31
0.0
  0
LINE
  5
389
330
1F
100
AcDbEntity
  8
GR1-1
  6
CONTINUOUS
 62
     7
100
AcDbLine
 10
344.318574
 20
11.913462
 30
0.0
 11
344.8019
 21
12.396787
 31
0.0
  0
LINE
  5
38A
330
1F
100
AcDbEntity
  8
GR1-1
  6
CONTINUOUS
 62
     7
100
AcDbLine
 10
344.389285
 20
11.913462
 30
0.0
 11
344.8019
 21
12.326077
 31
0.0
  0
LINE
  5
38B
330
1F
100
AcDbEntity
  8
GR1-1
  6
CONTINUOUS
 62
     7
100
AcDbLine
 10
344.459995
 20
11.913462
 30
0.0
 11
344.8019
 21
12.255366
 31
0.0
  0
LINE
  5
38C
330
1F
100
AcDbEntity
  8
GR1-1
  6
CONTINUOUS
 62
     7
100
AcDbLine
 10
344.530706
 20
11.913462
 30
0.0
 11
344.8019
 21
12.184655
 31
0.0
  0
LINE
  5
38D
330
1F
100
AcDbEntity
  8
GR1-1
  6
CONTINUOUS
 62
     7
100
AcDbLine
 10
344.601417
 20
11.913462
 30
0.0
 11
344.8019
 21
12.113945
 31
0.0
  0
LINE
  5
38E
330
1F
100
AcDbEntity
  8
GR1-1
  6
CONTINUOUS
 62
     7
100
AcDbLine
 10
344.672127
 20
11.913462
 30
0.0
 11
344.8019
 21
12.043234
 31
0.0
  0
LINE
  5
38F
330
1F
100
AcDbEntity
  8
GR1-1
  6
CONTINUOUS
 62
     7
100
AcDbLine
 10
344.742838
 20
11.913462
 30
0.0
 11
344.8019
 21
11.972523
 31
0.0
  0
LINE
  5
390
330
1F
100
AcDbEntity
  8
LAYERGROUP-1
  6
CENTER
 62
     6
100
AcDbLine
 10
245.0
 20
151.184498
 30
0.0
 11
245.0
 21
138.131361
 31
0.0
  0
LINE
  5
391
330
1F
100
AcDbEntity
  8
LAYERGROUP-1
  6
CENTER
 62
     6
100
AcDbLine
 10
190.0
 20
151.184498
 30
0.0
 11
190.0
 21
138.131361
 31
0.0
  0
LINE
  5
392
330
1F
100
AcDbEntity
  8
GR1-1
  6
CENTER
 62
     6
100
AcDbLine
 10
129.291022
 20
150.694135
 30
0.0
 11
129.291022
 21
138.131361
 31
0.0
  0
LINE
  5
393
330
1F
100
AcDbEntity
  8
GR1-1
  6
CENTER
 62
     6
100
AcDbLine
 10
101.291022
 20
150.694135
 30
0.0
 11
101.291022
 21
138.131361
 31
0.0
  0
LINE
  5
394
330
1F
100
AcDbEntity
  8
GR1-1
  6
CONTINUOUS
 62
     3
100
AcDbLine
 10
220.0
 20
248.9
 30
0.0
 11
215.0
 21
248.9
 31
0.0
  0
ARC
  5
395
330
1F
100
AcDbEntity
  8
LAYERGROUP-1
  6
CONTINUOUS
 62
     3
100
AcDbCircle
 10
220.0
 20
246.8184
 30
0.0
 40
2.081600000000037
100
AcDbArc
 50
2.246605
 51
90.0
  0
ARC
  5
396
330
1F
100
AcDbEntity
  8
LAYERGROUP-1
  6
CONTINUOUS
 62
     3
100
AcDbCircle
 10
215.0
 20
246.8184
 30
0.0
 40
2.081600000000037
100
AcDbArc
 50
90.0
 51
177.753395
  0
LINE
  5
397
330
1F
100
AcDbEntity
  8
GR1-1
  6
CONTINUOUS
 62
     3
100
AcDbLine
 10
94.991022
 20
98.5
 30
0.0
 11
94.991022
 21
93.5
 31
0.0
  0
ARC
  5
398
330
1F
100
AcDbEntity
  8
LAYERGROUP-1
  6
CONTINUOUS
 62
     3
100
AcDbCircle
 10
97.072622
 20
98.5
 30
0.0
 40
2.081600000000037
100
AcDbArc
 50
92.246605
 51
180.0
  0
ARC
  5
399
330
1F
100
AcDbEntity
  8
LAYERGROUP-1
  6
CONTINUOUS
 62
     3
100
AcDbCircle
 10
97.072622
 20
93.5
 30
0.0
 40
2.081600000000037
100
AcDbArc
 50
180.0
 51
267.753395
  0
ENDSEC
  0
SECTION
  2
OBJECTS
  0
DICTIONARY
  5
C
330
0
100
AcDbDictionary
  3
ACAD_GROUP
350
D
  3
ACAD_LAYOUT
350
1A
  3
ACAD_MLINESTYLE
350
17
  3
ACAD_PLOTSETTINGS
350
19
  3
ACDBHEADERROUNDTRIPXREC
350
39A
  0
DICTIONARY
  5
D
102
{ACAD_REACTORS
330
C
102
}
330
C
100
AcDbDictionary
  0
DICTIONARY
  5
1A
102
{ACAD_REACTORS
330
C
102
}
330
C
100
AcDbDictionary
  0
DICTIONARY
  5
17
102
{ACAD_REACTORS
330
C
102
}
330
C
100
AcDbDictionary
  3
STANDARD
350
18
  0
DICTIONARY
  5
19
102
{ACAD_REACTORS
330
C
102
}
330
C
100
AcDbDictionary
  0
DICTIONARY
  5
39A
102
{ACAD_REACTORS
330
C
102
}
330
C
100
AcDbDictionary
  3
CEPSNTYPE
350
3A3
  3
DIMSTYLEDATA
350
3B9
  3
FINGERPRINTGUID
350
3A4
  3
HYPERLINKBASE
350
39D
  3
INSUNITS
350
3A2
  3
LAYOUTDICT
350
39F
  3
LWETCUNION
350
3A1
  3
PLOTSETDICT
350
3A0
  3
PSVPSCALE
350
3A6
  3
PUCSBASE
350
3A9
  3
PUCSORGBACK
350
3AF
  3
PUCSORGBOTTOM
350
3AB
  3
PUCSORGFRONT
350
3AE
  3
PUCSORGLEFT
350
3AC
  3
PUCSORGRIGHT
350
3AD
  3
PUCSORGTOP
350
3AA
  3
PUCSORTHOREF
350
3A7
  3
PUCSORTHOVIEW
350
3A8
  3
STYLESHEET
350
39E
  3
TSTACKALIGN
350
39B
  3
TSTACKSIZE
350
39C
  3
UCSBASE
350
3B2
  3
UCSORGBACK
350
3B8
  3
UCSORGBOTTOM
350
3B4
  3
UCSORGFRONT
350
3B7
  3
UCSORGLEFT
350
3B5
  3
UCSORGRIGHT
350
3B6
  3
UCSORGTOP
350
3B3
  3
UCSORTHOREF
350
3B0
  3
UCSORTHOVIEW
350
3B1
  3
VERSIONGUID
350
3A5
  0
MLINESTYLE
  5
18
102
{ACAD_REACTORS
330
17
102
}
330
17
100
AcDbMlineStyle
  2
Standard
 70
     0
  3

 62
   256
 51
90.0
 52
90.0
 71
     2
 49
0.5
 62
   256
  6
BYLAYER
 49
-0.5
 62
   256
  6
BYLAYER
  0
XRECORD
  5
3A3
102
{ACAD_REACTORS
330
39A
102
}
330
39A
100
AcDbXrecord
 90
        0
  0
XRECORD
  5
3B9
102
{ACAD_REACTORS
330
39A
102
}
330
39A
100
AcDbXrecord
1000
DSTYLE
1002
{
1070
   179
 70
     2
1070
   171
 70
     3
1070
   143
 40
0.03937
1070
   274
 70
     3
1070
    41
 40
4.0
1070
   343
340
41
1070
   344
340
47
1070
   141
 40
2.5
1070
   176
 70
     7
1070
   177
 70
     7
1070
   178
 70
     7
1070
   271
 70
     2
1070
    46
 40
6.0
1070
    43
 40
10.0
1070
    44
 40
1.0
1070
    42
 40
1.0
1070
   147
 40
1.0
1070
   341
340
41
1070
   173
 70
     1
1070
    77
 70
     1
1070
   272
 70
     2
1070
    73
 70
     0
1070
   172
 70
     1
1070
    74
 70
     0
1070
   283
 70
     0
1070
   340
340
3F
1070
   140
 40
4.0
1070
   284
 70
     8
1070
    78
 70
     8
1002
}
  0
XRECORD
  5
3A4
102
{ACAD_REACTORS
330
39A
102
}
330
39A
100
AcDbXrecord
  1
{9B99E32A-F2E4-4E21-B425-4FB905A17996}
  0
XRECORD
  5
39D
102
{ACAD_REACTORS
330
39A
102
}
330
39A
100
AcDbXrecord
  1

  0
XRECORD
  5
3A2
102
{ACAD_REACTORS
330
39A
102
}
330
39A
100
AcDbXrecord
 90
        1
  0
XRECORD
  5
39F
102
{ACAD_REACTORS
330
39A
102
}
330
39A
100
AcDbXrecord
340
1A
  0
XRECORD
  5
3A1
102
{ACAD_REACTORS
330
39A
102
}
330
39A
100
AcDbXrecord
 90
    10781
  0
XRECORD
  5
3A0
102
{ACAD_REACTORS
330
39A
102
}
330
39A
100
AcDbXrecord
340
19
  0
XRECORD
  5
3A6
102
{ACAD_REACTORS
330
39A
102
}
330
39A
100
AcDbXrecord
 40
0.0
  0
XRECORD
  5
3A9
102
{ACAD_REACTORS
330
39A
102
}
330
39A
100
AcDbXrecord
340
0
  0
XRECORD
  5
3AF
102
{ACAD_REACTORS
330
39A
102
}
330
39A
100
AcDbXrecord
 10
0.0
 20
0.0
 30
0.0
  0
XRECORD
  5
3AB
102
{ACAD_REACTORS
330
39A
102
}
330
39A
100
AcDbXrecord
 10
0.0
 20
0.0
 30
0.0
  0
XRECORD
  5
3AE
102
{ACAD_REACTORS
330
39A
102
}
330
39A
100
AcDbXrecord
 10
0.0
 20
0.0
 30
0.0
  0
XRECORD
  5
3AC
102
{ACAD_REACTORS
330
39A
102
}
330
39A
100
AcDbXrecord
 10
0.0
 20
0.0
 30
0.0
  0
XRECORD
  5
3AD
102
{ACAD_REACTORS
330
39A
102
}
330
39A
100
AcDbXrecord
 10
0.0
 20
0.0
 30
0.0
  0
XRECORD
  5
3AA
102
{ACAD_REACTORS
330
39A
102
}
330
39A
100
AcDbXrecord
 10
0.0
 20
0.0
 30
0.0
  0
XRECORD
  5
3A7
102
{ACAD_REACTORS
330
39A
102
}
330
39A
100
AcDbXrecord
340
0
  0
XRECORD
  5
3A8
102
{ACAD_REACTORS
330
39A
102
}
330
39A
100
AcDbXrecord
 70
     0
  0
XRECORD
  5
39E
102
{ACAD_REACTORS
330
39A
102
}
330
39A
100
AcDbXrecord
  1

  0
XRECORD
  5
39B
102
{ACAD_REACTORS
330
39A
102
}
330
39A
100
AcDbXrecord
 90
        1
  0
XRECORD
  5
39C
102
{ACAD_REACTORS
330
39A
102
}
330
39A
100
AcDbXrecord
 90
       70
  0
XRECORD
  5
3B2
102
{ACAD_REACTORS
330
39A
102
}
330
39A
100
AcDbXrecord
340
0
  0
XRECORD
  5
3B8
102
{ACAD_REACTORS
330
39A
102
}
330
39A
100
AcDbXrecord
 10
0.0
 20
0.0
 30
0.0
  0
XRECORD
  5
3B4
102
{ACAD_REACTORS
330
39A
102
}
330
39A
100
AcDbXrecord
 10
0.0
 20
0.0
 30
0.0
  0
XRECORD
  5
3B7
102
{ACAD_REACTORS
330
39A
102
}
330
39A
100
AcDbXrecord
 10
0.0
 20
0.0
 30
0.0
  0
XRECORD
  5
3B5
102
{ACAD_REACTORS
330
39A
102
}
330
39A
100
AcDbXrecord
 10
0.0
 20
0.0
 30
0.0
  0
XRECORD
  5
3B6
102
{ACAD_REACTORS
330
39A
102
}
330
39A
100
AcDbXrecord
 10
0.0
 20
0.0
 30
0.0
  0
XRECORD
  5
3B3
102
{ACAD_REACTORS
330
39A
102
}
330
39A
100
AcDbXrecord
 10
0.0
 20
0.0
 30
0.0
  0
XRECORD
  5
3B0
102
{ACAD_REACTORS
330
39A
102
}
330
39A
100
AcDbXrecord
340
0
  0
XRECORD
  5
3B1
102
{ACAD_REACTORS
330
39A
102
}
330
39A
100
AcDbXrecord
 70
     0
  0
XRECORD
  5
3A5
102
{ACAD_REACTORS
330
39A
102
}
330
39A
100
AcDbXrecord
  1
{FAEB1C32-E019-11D5-929B-00C0DF256EC4}
  0
ENDSEC
  0
EOF
