  0
SECTION
  2
HEADER
  9
$ACADVER
  1
AC1014
  9
$ACADMAINTVER
 70
     9
  9
$DWGCODEPAGE
  3
ANSI_932
  9
$INSBASE
 10
0.0
 20
0.0
 30
0.0
  9
$EXTMIN
 10
0.0
 20
0.0
 30
0.0
  9
$EXTMAX
 10
594.0
 20
420.0
 30
0.0
  9
$LIMMIN
 10
0.0
 20
0.0
  9
$LIMMAX
 10
594.0
 20
420.0
  9
$ORTHOMODE
 70
     0
  9
$REGENMODE
 70
     1
  9
$FILLMODE
 70
     1
  9
$QTEXTMODE
 70
     0
  9
$MIRRTEXT
 70
     1
  9
$DRAGMODE
 70
     2
  9
$LTSCALE
 40
1.0
  9
$OSMODE
 70
    37
  9
$ATTMODE
 70
     1
  9
$TEXTSIZE
 40
0.2
  9
$TRACEWID
 40
0.05
  9
$TEXTSTYLE
  7
STYLE1
  9
$CLAYER
  8
0
  9
$CELTYPE
  6
BYLAYER
  9
$CECOLOR
 62
   256
  9
$CELTSCALE
 40
1.0
  9
$DELOBJ
 70
     1
  9
$DISPSILH
 70
     0
  9
$DIMSCALE
 40
1.0
  9
$DIMASZ
 40
4.0
  9
$DIMEXO
 40
1.0
  9
$DIMDLI
 40
10.0
  9
$DIMRND
 40
0.0
  9
$DIMDLE
 40
6.0
  9
$DIMEXE
 40
1.0
  9
$DIMTP
 40
0.0
  9
$DIMTM
 40
0.0
  9
$DIMTXT
 40
4.0
  9
$DIMCEN
 40
2.5
  9
$DIMTSZ
 40
0.0
  9
$DIMTOL
 70
     0
  9
$DIMLIM
 70
     0
  9
$DIMTIH
 70
     0
  9
$DIMTOH
 70
     0
  9
$DIMSE1
 70
     0
  9
$DIMSE2
 70
     0
  9
$DIMTAD
 70
     1
  9
$DIMZIN
 70
     8
  9
$DIMBLK
  1

  9
$DIMASO
 70
     1
  9
$DIMSHO
 70
     1
  9
$DIMPOST
  1

  9
$DIMAPOST
  1

  9
$DIMALT
 70
     0
  9
$DIMALTD
 70
     3
  9
$DIMALTF
 40
0.03937
  9
$DIMLFAC
 40
1.0
  9
$DIMTOFL
 70
     1
  9
$DIMTVP
 40
0.0
  9
$DIMTIX
 70
     0
  9
$DIMSOXD
 70
     0
  9
$DIMSAH
 70
     1
  9
$DIMBLK1
  1

  9
$DIMBLK2
  1
FXTIP_ARROW_E
  9
$DIMSTYLE
  2
FXDIMINFO
  9
$DIMCLRD
 70
     7
  9
$DIMCLRE
 70
     7
  9
$DIMCLRT
 70
     7
  9
$DIMTFAC
 40
1.0
  9
$DIMGAP
 40
1.0
  9
$DIMJUST
 70
     0
  9
$DIMSD1
 70
     0
  9
$DIMSD2
 70
     0
  9
$DIMTOLJ
 70
     0
  9
$DIMTZIN
 70
     8
  9
$DIMALTZ
 70
     0
  9
$DIMALTTZ
 70
     0
  9
$DIMFIT
 70
     3
  9
$DIMUPT
 70
     0
  9
$DIMUNIT
 70
     2
  9
$DIMDEC
 70
     2
  9
$DIMTDEC
 70
     2
  9
$DIMALTU
 70
     2
  9
$DIMALTTD
 70
     3
  9
$DIMTXSTY
  7
STYLE1
  9
$DIMAUNIT
 70
     0
  9
$LUNITS
 70
     2
  9
$LUPREC
 70
     4
  9
$SKETCHINC
 40
0.1
  9
$FILLETRAD
 40
0.5
  9
$AUNITS
 70
     0
  9
$AUPREC
 70
     0
  9
$MENU
  1
.
  9
$ELEVATION
 40
0.0
  9
$PELEVATION
 40
0.0
  9
$THICKNESS
 40
0.0
  9
$LIMCHECK
 70
     0
  9
$CHAMFERA
 40
0.5
  9
$CHAMFERB
 40
0.5
  9
$CHAMFERC
 40
1.0
  9
$CHAMFERD
 40
0.0
  9
$SKPOLY
 70
     0
  9
$TDCREATE
 40
2455307.659432986
  9
$TDUPDATE
 40
2455307.659432998
  9
$TDINDWG
 40
0.0000000116
  9
$TDUSRTIMER
 40
0.0000000116
  9
$USRTIMER
 70
     1
  9
$ANGBASE
 50
0.0
  9
$ANGDIR
 70
     0
  9
$PDMODE
 70
     0
  9
$PDSIZE
 40
0.0
  9
$PLINEWID
 40
0.0
  9
$COORDS
 70
     1
  9
$SPLFRAME
 70
     0
  9
$SPLINETYPE
 70
     6
  9
$SPLINESEGS
 70
     8
  9
$ATTDIA
 70
     0
  9
$ATTREQ
 70
     1
  9
$HANDLING
 70
     1
  9
$HANDSEED
  5
451
  9
$SURFTAB1
 70
     6
  9
$SURFTAB2
 70
     6
  9
$SURFTYPE
 70
     6
  9
$SURFU
 70
     6
  9
$SURFV
 70
     6
  9
$UCSNAME
  2

  9
$UCSORG
 10
0.0
 20
0.0
 30
0.0
  9
$UCSXDIR
 10
1.0
 20
0.0
 30
0.0
  9
$UCSYDIR
 10
0.0
 20
1.0
 30
0.0
  9
$PUCSNAME
  2

  9
$PUCSORG
 10
0.0
 20
0.0
 30
0.0
  9
$PUCSXDIR
 10
1.0
 20
0.0
 30
0.0
  9
$PUCSYDIR
 10
0.0
 20
1.0
 30
0.0
  9
$USERI1
 70
     0
  9
$USERI2
 70
     0
  9
$USERI3
 70
     0
  9
$USERI4
 70
     0
  9
$USERI5
 70
     0
  9
$USERR1
 40
0.0
  9
$USERR2
 40
0.0
  9
$USERR3
 40
0.0
  9
$USERR4
 40
0.0
  9
$USERR5
 40
0.0
  9
$WORLDVIEW
 70
     1
  9
$SHADEDGE
 70
     3
  9
$SHADEDIF
 70
    70
  9
$TILEMODE
 70
     1
  9
$MAXACTVP
 70
    64
  9
$PINSBASE
 10
0.0
 20
0.0
 30
0.0
  9
$PLIMCHECK
 70
     0
  9
$PEXTMIN
 10
1.000000E+20
 20
1.000000E+20
 30
1.000000E+20
  9
$PEXTMAX
 10
-1.000000E+20
 20
-1.000000E+20
 30
-1.000000E+20
  9
$PLIMMIN
 10
0.0
 20
0.0
  9
$PLIMMAX
 10
12.0
 20
9.0
  9
$UNITMODE
 70
     0
  9
$VISRETAIN
 70
     1
  9
$PLINEGEN
 70
     0
  9
$PSLTSCALE
 70
     1
  9
$TREEDEPTH
 70
  3020
  9
$PICKSTYLE
 70
     1
  9
$CMLSTYLE
  2
STANDARD
  9
$CMLJUST
 70
     0
  9
$CMLSCALE
 40
1.0
  9
$PROXYGRAPHICS
 70
     1
  9
$MEASUREMENT
 70
     0
  0
ENDSEC
  0
SECTION
  2
CLASSES
  0
CLASS
  1
ACDBDICTIONARYWDFLT
  2
AcDbDictionaryWithDefault
  3
ObjectDBX Classes
 90
        0
280
     0
281
     0
  0
CLASS
  1
XRECORD
  2
AcDbXrecord
  3
AutoCAD 2000
 90
        0
280
     0
281
     0
  0
CLASS
  1
LWPOLYLINE
  2
AcDbPolyline
  3
AutoCAD 2000
 90
        0
280
     0
281
     1
  0
CLASS
  1
HATCH
  2
AcDbHatch
  3
AutoCAD 2000
 90
        0
280
     0
281
     1
  0
CLASS
  1
ACDBPLACEHOLDER
  2
AcDbPlaceHolder
  3
ObjectDBX Classes
 90
        0
280
     0
281
     0
  0
CLASS
  1
LAYOUT
  2
AcDbLayout
  3
ObjectDBX Classes
 90
        0
280
     0
281
     0
  0
ENDSEC
  0
SECTION
  2
TABLES
  0
TABLE
  2
VPORT
  5
8
330
0
100
AcDbSymbolTable
 70
     1
  0
VPORT
  5
29
330
8
100
AcDbSymbolTableRecord
100
AcDbViewportTableRecord
  2
*ACTIVE
 70
     0
 10
0.0
 20
0.0
 11
1.0
 21
1.0
 12
297.0
 22
210.0
 13
0.0
 23
0.0
 14
0.5
 24
0.5
 15
0.5
 25
0.5
 16
0.0
 26
0.0
 36
1.0
 17
0.0
 27
0.0
 37
0.0
 40
420.0
 41
1.414286
 42
50.0
 43
0.0
 44
0.0
 50
0.0
 51
0.0
 71
     0
 72
   100
 73
     1
 74
     3
 75
     0
 76
     0
 77
     0
 78
     0
  0
ENDTAB
  0
TABLE
  2
LTYPE
  5
5
330
0
100
AcDbSymbolTable
 70
     4
  0
LTYPE
  5
14
330
5
100
AcDbSymbolTableRecord
100
AcDbLinetypeTableRecord
  2
BYBLOCK
 70
     0
  3

 72
    65
 73
     0
 40
0.0
  0
LTYPE
  5
15
330
5
100
AcDbSymbolTableRecord
100
AcDbLinetypeTableRecord
  2
BYLAYER
 70
     0
  3

 72
    65
 73
     0
 40
0.0
  0
LTYPE
  5
16
330
5
100
AcDbSymbolTableRecord
100
AcDbLinetypeTableRecord
  2
CONTINUOUS
 70
     0
  3
--------------------
 72
    65
 73
     0
 40
0.0
  0
LTYPE
  5
2A
330
5
100
AcDbSymbolTableRecord
100
AcDbLinetypeTableRecord
  2
CENTER
 70
     0
  3
Center ____ _ ____ _ ____ _ ____ _ ____ _ ____
 72
    65
 73
     4
 40
13.0
 49
10.0
 74
     0
 49
-1.0
 74
     0
 49
1.0
 74
     0
 49
-1.0
 74
     0
  0
ENDTAB
  0
TABLE
  2
LAYER
  5
2
330
0
100
AcDbSymbolTable
 70
    20
  0
LAYER
  5
10
330
2
100
AcDbSymbolTableRecord
100
AcDbLayerTableRecord
  2
0
 70
     0
 62
     7
  6
CONTINUOUS
  0
LAYER
  5
2D
330
2
100
AcDbSymbolTableRecord
100
AcDbLayerTableRecord
  2
LAYERGROUP-1
 70
     0
 62
     3
  6
CONTINUOUS
  0
LAYER
  5
3D
330
2
100
AcDbSymbolTableRecord
100
AcDbLayerTableRecord
  2
}}ﾊﾊGG血CCТ
 70
     0
 62
     3
  6
CONTINUOUS
  0
LAYER
  5
A8
330
2
100
AcDbSymbolTableRecord
100
AcDbLayerTableRecord
  2
GR1-1
 70
     0
 62
     7
  6
CONTINUOUS
  0
LAYER
  5
2C5
330
2
100
AcDbSymbolTableRecord
100
AcDbLayerTableRecord
  2
0-1
 70
     0
 62
     7
  6
CONTINUOUS
  0
ENDTAB
  0
TABLE
  2
STYLE
  5
3
330
0
100
AcDbSymbolTable
 70
     4
  0
STYLE
  5
11
330
3
100
AcDbSymbolTableRecord
100
AcDbTextStyleTableRecord
  2
STANDARD
 70
     0
 40
0.0
 41
1.0
 50
0.0
 71
     0
 42
0.2
  3
txt
  4

  0
STYLE
  5
3F
330
3
100
AcDbSymbolTableRecord
100
AcDbTextStyleTableRecord
  2
STYLE1
 70
     0
 40
0.0
 41
1.0
 50
0.0
 71
     0
 42
0.2
  3
MONOTXT.SHX
  4
extfont.shx
  0
STYLE
  5
40
330
3
100
AcDbSymbolTableRecord
100
AcDbTextStyleTableRecord
  2
FX_VECTOR
 70
     0
 40
0.0
 41
1.0
 50
0.0
 71
     0
 42
0.2
  3
MONOTXT.SHX
  4
BIGFONT.SHX
  0
ENDTAB
  0
TABLE
  2
VIEW
  5
6
330
0
100
AcDbSymbolTable
 70
     0
  0
ENDTAB
  0
TABLE
  2
UCS
  5
7
330
0
100
AcDbSymbolTable
 70
     0
  0
ENDTAB
  0
TABLE
  2
APPID
  5
9
330
0
100
AcDbSymbolTable
 70
     1
  0
APPID
  5
12
330
9
100
AcDbSymbolTableRecord
100
AcDbRegAppTableRecord
  2
ACAD
 70
     0
  0
ENDTAB
  0
TABLE
  2
DIMSTYLE
  5
A
330
0
100
AcDbSymbolTable
 70
     2
  0
DIMSTYLE
105
27
330
A
100
AcDbSymbolTableRecord
100
AcDbDimStyleTableRecord
  2
STANDARD
 70
     0
  3

  4

  5

  6

  7

 40
1.0
 41
0.18
 42
0.0625
 43
0.38
 44
0.18
 45
0.0
 46
0.0
 47
0.0
 48
0.0
140
0.18
141
0.09
142
0.0
143
25.4
144
1.0
145
0.0
146
1.0
147
0.09
 71
     0
 72
     0
 73
     1
 74
     1
 75
     0
 76
     0
 77
     0
 78
     0
170
     0
171
     2
172
     0
173
     0
174
     0
175
     0
176
     0
177
     0
178
     0
270
     2
271
     4
272
     4
273
     2
274
     2
340
11
275
     0
280
     0
281
     0
282
     0
283
     1
284
     0
285
     0
286
     0
287
     3
288
     0
  0
DIMSTYLE
105
A7
330
A
100
AcDbSymbolTableRecord
100
AcDbDimStyleTableRecord
  2
FXDIMINFO
 70
     0
  3

  4

  5

  6

  7
FXTIP_ARROW_E
 40
1.0
 41
4.0
 42
1.0
 43
10.0
 44
1.0
 45
0.0
 46
6.0
 47
0.0
 48
0.0
140
4.0
141
2.5
142
0.0
143
0.03937
144
1.0
145
0.0
146
1.0
147
1.0
 71
     0
 72
     0
 73
     0
 74
     0
 75
     0
 76
     0
 77
     1
 78
     8
170
     0
171
     3
172
     1
173
     1
174
     0
175
     0
176
     7
177
     7
178
     7
179
     2
270
     2
271
     2
272
     2
273
     2
274
     3
340
3F
275
     0
280
     0
281
     0
282
     0
283
     0
284
     8
285
     0
286
     0
287
     3
288
     0
  0
ENDTAB
  0
TABLE
  2
BLOCK_RECORD
  5
1
330
0
100
AcDbSymbolTable
 70
    19
  0
BLOCK_RECORD
  5
1F
330
1
100
AcDbSymbolTableRecord
100
AcDbBlockTableRecord
  2
*MODEL_SPACE
  0
BLOCK_RECORD
  5
1B
330
1
100
AcDbSymbolTableRecord
100
AcDbBlockTableRecord
  2
*PAPER_SPACE
  0
BLOCK_RECORD
  5
41
330
1
100
AcDbSymbolTableRecord
100
AcDbBlockTableRecord
  2
FXTIP_ARROW_S
  0
BLOCK_RECORD
  5
47
330
1
100
AcDbSymbolTableRecord
100
AcDbBlockTableRecord
  2
FXTIP_ARROW_E
  0
BLOCK_RECORD
  5
4D
330
1
100
AcDbSymbolTableRecord
100
AcDbBlockTableRecord
  2
FXTIP_BLACKDOT_S
  0
BLOCK_RECORD
  5
53
330
1
100
AcDbSymbolTableRecord
100
AcDbBlockTableRecord
  2
FXTIP_BLACKDOT_E
  0
BLOCK_RECORD
  5
59
330
1
100
AcDbSymbolTableRecord
100
AcDbBlockTableRecord
  2
FXTIP_TRIANGLE_S
  0
BLOCK_RECORD
  5
60
330
1
100
AcDbSymbolTableRecord
100
AcDbBlockTableRecord
  2
FXTIP_TRIANGLE_E
  0
BLOCK_RECORD
  5
67
330
1
100
AcDbSymbolTableRecord
100
AcDbBlockTableRecord
  2
FXTIP_ARCHITECT_S
  0
BLOCK_RECORD
  5
6D
330
1
100
AcDbSymbolTableRecord
100
AcDbBlockTableRecord
  2
FXTIP_ARCHITECT_E
  0
BLOCK_RECORD
  5
73
330
1
100
AcDbSymbolTableRecord
100
AcDbBlockTableRecord
  2
FXTIP_CIVIL_S
  0
BLOCK_RECORD
  5
79
330
1
100
AcDbSymbolTableRecord
100
AcDbBlockTableRecord
  2
FXTIP_CIVIL_E
  0
BLOCK_RECORD
  5
7F
330
1
100
AcDbSymbolTableRecord
100
AcDbBlockTableRecord
  2
FXTIP_WHITEDOT_S
  0
BLOCK_RECORD
  5
84
330
1
100
AcDbSymbolTableRecord
100
AcDbBlockTableRecord
  2
FXTIP_WHITEDOT_E
  0
BLOCK_RECORD
  5
89
330
1
100
AcDbSymbolTableRecord
100
AcDbBlockTableRecord
  2
FXTIP_UPARROW_S
  0
BLOCK_RECORD
  5
8E
330
1
100
AcDbSymbolTableRecord
100
AcDbBlockTableRecord
  2
FXTIP_UPARROW_E
  0
BLOCK_RECORD
  5
93
330
1
100
AcDbSymbolTableRecord
100
AcDbBlockTableRecord
  2
FXTIP_DOWNARROW_S
  0
BLOCK_RECORD
  5
98
330
1
100
AcDbSymbolTableRecord
100
AcDbBlockTableRecord
  2
FXTIP_DOWNARROW_E
  0
BLOCK_RECORD
  5
9D
330
1
100
AcDbSymbolTableRecord
100
AcDbBlockTableRecord
  2
FXTIP_BLACKTRIANGLE_S
  0
BLOCK_RECORD
  5
A2
330
1
100
AcDbSymbolTableRecord
100
AcDbBlockTableRecord
  2
FXTIP_BLACKTRIANGLE_E
  0
ENDTAB
  0
ENDSEC
  0
SECTION
  2
BLOCKS
  0
BLOCK
  5
20
330
1F
100
AcDbEntity
  8
0
100
AcDbBlockBegin
  2
*MODEL_SPACE
 70
     0
 71
     0
 10
0.0
 20
0.0
 30
0.0
  3
*MODEL_SPACE
  1

  0
ENDBLK
  5
21
330
1F
100
AcDbEntity
  8
0
100
AcDbBlockEnd
  0
BLOCK
  5
1C
330
1B
100
AcDbEntity
 67
     1
  8
0
100
AcDbBlockBegin
  2
*PAPER_SPACE
 70
     0
 71
     0
 10
0.0
 20
0.0
 30
0.0
  3
*PAPER_SPACE
  1

  0
ENDBLK
  5
1D
330
1B
100
AcDbEntity
 67
     1
  8
0
100
AcDbBlockEnd
  0
BLOCK
  5
42
330
41
100
AcDbEntity
  8
0
100
AcDbBlockBegin
  2
FXTIP_ARROW_S
 70
     0
 71
     0
 10
0.0
 20
0.0
 30
0.0
  3
FXTIP_ARROW_S
  1

  0
LINE
  5
44
330
41
100
AcDbEntity
  8
0
  6
CONTINUOUS
 62
     0
100
AcDbLine
 10
0.0
 20
0.0
 30
0.0
 11
-1.0
 21
0.0
 31
0.0
  0
LINE
  5
45
330
41
100
AcDbEntity
  8
0
  6
CONTINUOUS
 62
     0
100
AcDbLine
 10
0.0
 20
0.0
 30
0.0
 11
-0.965926
 21
-0.258819
 31
0.0
  0
LINE
  5
46
330
41
100
AcDbEntity
  8
0
  6
CONTINUOUS
 62
     0
100
AcDbLine
 10
0.0
 20
0.0
 30
0.0
 11
-0.965926
 21
0.258819
 31
0.0
  0
ENDBLK
  5
43
330
41
100
AcDbEntity
  8
0
100
AcDbBlockEnd
  0
BLOCK
  5
48
330
47
100
AcDbEntity
  8
0
100
AcDbBlockBegin
  2
FXTIP_ARROW_E
 70
     0
 71
     0
 10
0.0
 20
0.0
 30
0.0
  3
FXTIP_ARROW_E
  1

  0
LINE
  5
4A
330
47
100
AcDbEntity
  8
0
  6
CONTINUOUS
 62
     0
100
AcDbLine
 10
0.0
 20
0.0
 30
0.0
 11
-1.0
 21
0.0
 31
0.0
  0
LINE
  5
4B
330
47
100
AcDbEntity
  8
0
  6
CONTINUOUS
 62
     0
100
AcDbLine
 10
0.0
 20
0.0
 30
0.0
 11
-0.965926
 21
0.258819
 31
0.0
  0
LINE
  5
4C
330
47
100
AcDbEntity
  8
0
  6
CONTINUOUS
 62
     0
100
AcDbLine
 10
0.0
 20
0.0
 30
0.0
 11
-0.965926
 21
-0.258819
 31
0.0
  0
ENDBLK
  5
49
330
47
100
AcDbEntity
  8
0
100
AcDbBlockEnd
  0
BLOCK
  5
4E
330
4D
100
AcDbEntity
  8
0
100
AcDbBlockBegin
  2
FXTIP_BLACKDOT_S
 70
     0
 71
     0
 10
0.0
 20
0.0
 30
0.0
  3
FXTIP_BLACKDOT_S
  1

  0
LINE
  5
50
330
4D
100
AcDbEntity
  8
0
  6
CONTINUOUS
 62
     0
100
AcDbLine
 10
0.0
 20
0.0
 30
0.0
 11
-1.0
 21
0.0
 31
0.0
  0
LWPOLYLINE
  5
51
330
4D
100
AcDbEntity
  8
0
  6
CONTINUOUS
 62
     0
100
AcDbPolyline
 90
        2
 70
     1
 10
-0.25
 20
0.0
 40
0.5
 41
0.5
 42
1.0
 10
0.25
 20
0.0
 40
0.5
 41
0.5
 42
1.0
  0
CIRCLE
  5
52
330
4D
100
AcDbEntity
  8
0
  6
CONTINUOUS
 62
     0
100
AcDbCircle
 10
0.0
 20
0.0
 30
0.0
 40
0.5
  0
ENDBLK
  5
4F
330
4D
100
AcDbEntity
  8
0
100
AcDbBlockEnd
  0
BLOCK
  5
54
330
53
100
AcDbEntity
  8
0
100
AcDbBlockBegin
  2
FXTIP_BLACKDOT_E
 70
     0
 71
     0
 10
0.0
 20
0.0
 30
0.0
  3
FXTIP_BLACKDOT_E
  1

  0
LINE
  5
56
330
53
100
AcDbEntity
  8
0
  6
CONTINUOUS
 62
     0
100
AcDbLine
 10
0.0
 20
0.0
 30
0.0
 11
-1.0
 21
0.0
 31
0.0
  0
LWPOLYLINE
  5
57
330
53
100
AcDbEntity
  8
0
  6
CONTINUOUS
 62
     0
100
AcDbPolyline
 90
        2
 70
     1
 10
-0.25
 20
0.0
 40
0.5
 41
0.5
 42
1.0
 10
0.25
 20
0.0
 40
0.5
 41
0.5
 42
1.0
  0
CIRCLE
  5
58
330
53
100
AcDbEntity
  8
0
  6
CONTINUOUS
 62
     0
100
AcDbCircle
 10
0.0
 20
0.0
 30
0.0
 40
0.5
  0
ENDBLK
  5
55
330
53
100
AcDbEntity
  8
0
100
AcDbBlockEnd
  0
BLOCK
  5
5A
330
59
100
AcDbEntity
  8
0
100
AcDbBlockBegin
  2
FXTIP_TRIANGLE_S
 70
     0
 71
     0
 10
0.0
 20
0.0
 30
0.0
  3
FXTIP_TRIANGLE_S
  1

  0
LINE
  5
5C
330
59
100
AcDbEntity
  8
0
  6
CONTINUOUS
 62
     0
100
AcDbLine
 10
0.0
 20
0.0
 30
0.0
 11
-1.0
 21
0.0
 31
0.0
  0
LINE
  5
5D
330
59
100
AcDbEntity
  8
0
  6
CONTINUOUS
 62
     0
100
AcDbLine
 10
0.0
 20
0.0
 30
0.0
 11
-0.965926
 21
-0.258819
 31
0.0
  0
LINE
  5
5E
330
59
100
AcDbEntity
  8
0
  6
CONTINUOUS
 62
     0
100
AcDbLine
 10
0.0
 20
0.0
 30
0.0
 11
-0.965926
 21
0.258819
 31
0.0
  0
LINE
  5
5F
330
59
100
AcDbEntity
  8
0
  6
CONTINUOUS
 62
     0
100
AcDbLine
 10
-0.965926
 20
-0.258819
 30
0.0
 11
-0.965926
 21
0.258819
 31
0.0
  0
ENDBLK
  5
5B
330
59
100
AcDbEntity
  8
0
100
AcDbBlockEnd
  0
BLOCK
  5
61
330
60
100
AcDbEntity
  8
0
100
AcDbBlockBegin
  2
FXTIP_TRIANGLE_E
 70
     0
 71
     0
 10
0.0
 20
0.0
 30
0.0
  3
FXTIP_TRIANGLE_E
  1

  0
LINE
  5
63
330
60
100
AcDbEntity
  8
0
  6
CONTINUOUS
 62
     0
100
AcDbLine
 10
0.0
 20
0.0
 30
0.0
 11
-1.0
 21
0.0
 31
0.0
  0
LINE
  5
64
330
60
100
AcDbEntity
  8
0
  6
CONTINUOUS
 62
     0
100
AcDbLine
 10
0.0
 20
0.0
 30
0.0
 11
-0.965926
 21
0.258819
 31
0.0
  0
LINE
  5
65
330
60
100
AcDbEntity
  8
0
  6
CONTINUOUS
 62
     0
100
AcDbLine
 10
0.0
 20
0.0
 30
0.0
 11
-0.965926
 21
-0.258819
 31
0.0
  0
LINE
  5
66
330
60
100
AcDbEntity
  8
0
  6
CONTINUOUS
 62
     0
100
AcDbLine
 10
-0.965926
 20
0.258819
 30
0.0
 11
-0.965926
 21
-0.258819
 31
0.0
  0
ENDBLK
  5
62
330
60
100
AcDbEntity
  8
0
100
AcDbBlockEnd
  0
BLOCK
  5
68
330
67
100
AcDbEntity
  8
0
100
AcDbBlockBegin
  2
FXTIP_ARCHITECT_S
 70
     0
 71
     0
 10
0.0
 20
0.0
 30
0.0
  3
FXTIP_ARCHITECT_S
  1

  0
LINE
  5
6A
330
67
100
AcDbEntity
  8
0
  6
CONTINUOUS
 62
     0
100
AcDbLine
 10
0.0
 20
0.0
 30
0.0
 11
-1.0
 21
0.0
 31
0.0
  0
LINE
  5
6B
330
67
100
AcDbEntity
  8
0
  6
CONTINUOUS
 62
     0
100
AcDbLine
 10
0.0
 20
0.0
 30
0.0
 11
-0.707107
 21
-0.707107
 31
0.0
  0
LINE
  5
6C
330
67
100
AcDbEntity
  8
0
  6
CONTINUOUS
 62
     0
100
AcDbLine
 10
0.0
 20
0.0
 30
0.0
 11
0.707107
 21
0.707107
 31
0.0
  0
ENDBLK
  5
69
330
67
100
AcDbEntity
  8
0
100
AcDbBlockEnd
  0
BLOCK
  5
6E
330
6D
100
AcDbEntity
  8
0
100
AcDbBlockBegin
  2
FXTIP_ARCHITECT_E
 70
     0
 71
     0
 10
0.0
 20
0.0
 30
0.0
  3
FXTIP_ARCHITECT_E
  1

  0
LINE
  5
70
330
6D
100
AcDbEntity
  8
0
  6
CONTINUOUS
 62
     0
100
AcDbLine
 10
0.0
 20
0.0
 30
0.0
 11
-1.0
 21
0.0
 31
0.0
  0
LINE
  5
71
330
6D
100
AcDbEntity
  8
0
  6
CONTINUOUS
 62
     0
100
AcDbLine
 10
0.0
 20
0.0
 30
0.0
 11
0.707107
 21
0.707107
 31
0.0
  0
LINE
  5
72
330
6D
100
AcDbEntity
  8
0
  6
CONTINUOUS
 62
     0
100
AcDbLine
 10
0.0
 20
0.0
 30
0.0
 11
-0.707107
 21
-0.707107
 31
0.0
  0
ENDBLK
  5
6F
330
6D
100
AcDbEntity
  8
0
100
AcDbBlockEnd
  0
BLOCK
  5
74
330
73
100
AcDbEntity
  8
0
100
AcDbBlockBegin
  2
FXTIP_CIVIL_S
 70
     0
 71
     0
 10
0.0
 20
0.0
 30
0.0
  3
FXTIP_CIVIL_S
  1

  0
LINE
  5
76
330
73
100
AcDbEntity
  8
0
  6
CONTINUOUS
 62
     0
100
AcDbLine
 10
0.0
 20
0.0
 30
0.0
 11
-1.0
 21
0.0
 31
0.0
  0
LINE
  5
77
330
73
100
AcDbEntity
  8
0
  6
CONTINUOUS
 62
     0
100
AcDbLine
 10
0.0
 20
-0.0625
 30
0.0
 11
-1.0
 21
-0.0625
 31
0.0
  0
LINE
  5
78
330
73
100
AcDbEntity
  8
0
  6
CONTINUOUS
 62
     0
100
AcDbLine
 10
0.0
 20
-0.125
 30
0.0
 11
-1.0
 21
-0.125
 31
0.0
  0
ENDBLK
  5
75
330
73
100
AcDbEntity
  8
0
100
AcDbBlockEnd
  0
BLOCK
  5
7A
330
79
100
AcDbEntity
  8
0
100
AcDbBlockBegin
  2
FXTIP_CIVIL_E
 70
     0
 71
     0
 10
0.0
 20
0.0
 30
0.0
  3
FXTIP_CIVIL_E
  1

  0
LINE
  5
7C
330
79
100
AcDbEntity
  8
0
  6
CONTINUOUS
 62
     0
100
AcDbLine
 10
0.0
 20
0.0
 30
0.0
 11
-1.0
 21
0.0
 31
0.0
  0
LINE
  5
7D
330
79
100
AcDbEntity
  8
0
  6
CONTINUOUS
 62
     0
100
AcDbLine
 10
0.0
 20
0.0625
 30
0.0
 11
-1.0
 21
0.0625
 31
0.0
  0
LINE
  5
7E
330
79
100
AcDbEntity
  8
0
  6
CONTINUOUS
 62
     0
100
AcDbLine
 10
0.0
 20
0.125
 30
0.0
 11
-1.0
 21
0.125
 31
0.0
  0
ENDBLK
  5
7B
330
79
100
AcDbEntity
  8
0
100
AcDbBlockEnd
  0
BLOCK
  5
80
330
7F
100
AcDbEntity
  8
0
100
AcDbBlockBegin
  2
FXTIP_WHITEDOT_S
 70
     0
 71
     0
 10
0.0
 20
0.0
 30
0.0
  3
FXTIP_WHITEDOT_S
  1

  0
LINE
  5
82
330
7F
100
AcDbEntity
  8
0
  6
CONTINUOUS
 62
     0
100
AcDbLine
 10
0.0
 20
0.0
 30
0.0
 11
-1.0
 21
0.0
 31
0.0
  0
CIRCLE
  5
83
330
7F
100
AcDbEntity
  8
0
  6
CONTINUOUS
 62
     0
100
AcDbCircle
 10
0.0
 20
0.0
 30
0.0
 40
0.5
  0
ENDBLK
  5
81
330
7F
100
AcDbEntity
  8
0
100
AcDbBlockEnd
  0
BLOCK
  5
85
330
84
100
AcDbEntity
  8
0
100
AcDbBlockBegin
  2
FXTIP_WHITEDOT_E
 70
     0
 71
     0
 10
0.0
 20
0.0
 30
0.0
  3
FXTIP_WHITEDOT_E
  1

  0
LINE
  5
87
330
84
100
AcDbEntity
  8
0
  6
CONTINUOUS
 62
     0
100
AcDbLine
 10
0.0
 20
0.0
 30
0.0
 11
-1.0
 21
0.0
 31
0.0
  0
CIRCLE
  5
88
330
84
100
AcDbEntity
  8
0
  6
CONTINUOUS
 62
     0
100
AcDbCircle
 10
0.0
 20
0.0
 30
0.0
 40
0.5
  0
ENDBLK
  5
86
330
84
100
AcDbEntity
  8
0
100
AcDbBlockEnd
  0
BLOCK
  5
8A
330
89
100
AcDbEntity
  8
0
100
AcDbBlockBegin
  2
FXTIP_UPARROW_S
 70
     0
 71
     0
 10
0.0
 20
0.0
 30
0.0
  3
FXTIP_UPARROW_S
  1

  0
LINE
  5
8C
330
89
100
AcDbEntity
  8
0
  6
CONTINUOUS
 62
     0
100
AcDbLine
 10
0.0
 20
0.0
 30
0.0
 11
-1.0
 21
0.0
 31
0.0
  0
LINE
  5
8D
330
89
100
AcDbEntity
  8
0
  6
CONTINUOUS
 62
     0
100
AcDbLine
 10
0.0
 20
0.0
 30
0.0
 11
-0.965926
 21
-0.258819
 31
0.0
  0
ENDBLK
  5
8B
330
89
100
AcDbEntity
  8
0
100
AcDbBlockEnd
  0
BLOCK
  5
8F
330
8E
100
AcDbEntity
  8
0
100
AcDbBlockBegin
  2
FXTIP_UPARROW_E
 70
     0
 71
     0
 10
0.0
 20
0.0
 30
0.0
  3
FXTIP_UPARROW_E
  1

  0
LINE
  5
91
330
8E
100
AcDbEntity
  8
0
  6
CONTINUOUS
 62
     0
100
AcDbLine
 10
0.0
 20
0.0
 30
0.0
 11
-1.0
 21
0.0
 31
0.0
  0
LINE
  5
92
330
8E
100
AcDbEntity
  8
0
  6
CONTINUOUS
 62
     0
100
AcDbLine
 10
0.0
 20
0.0
 30
0.0
 11
-0.965926
 21
0.258819
 31
0.0
  0
ENDBLK
  5
90
330
8E
100
AcDbEntity
  8
0
100
AcDbBlockEnd
  0
BLOCK
  5
94
330
93
100
AcDbEntity
  8
0
100
AcDbBlockBegin
  2
FXTIP_DOWNARROW_S
 70
     0
 71
     0
 10
0.0
 20
0.0
 30
0.0
  3
FXTIP_DOWNARROW_S
  1

  0
LINE
  5
96
330
93
100
AcDbEntity
  8
0
  6
CONTINUOUS
 62
     0
100
AcDbLine
 10
0.0
 20
0.0
 30
0.0
 11
-1.0
 21
0.0
 31
0.0
  0
LINE
  5
97
330
93
100
AcDbEntity
  8
0
  6
CONTINUOUS
 62
     0
100
AcDbLine
 10
0.0
 20
0.0
 30
0.0
 11
-0.965926
 21
0.258819
 31
0.0
  0
ENDBLK
  5
95
330
93
100
AcDbEntity
  8
0
100
AcDbBlockEnd
  0
BLOCK
  5
99
330
98
100
AcDbEntity
  8
0
100
AcDbBlockBegin
  2
FXTIP_DOWNARROW_E
 70
     0
 71
     0
 10
0.0
 20
0.0
 30
0.0
  3
FXTIP_DOWNARROW_E
  1

  0
LINE
  5
9B
330
98
100
AcDbEntity
  8
0
  6
CONTINUOUS
 62
     0
100
AcDbLine
 10
0.0
 20
0.0
 30
0.0
 11
-1.0
 21
0.0
 31
0.0
  0
LINE
  5
9C
330
98
100
AcDbEntity
  8
0
  6
CONTINUOUS
 62
     0
100
AcDbLine
 10
0.0
 20
0.0
 30
0.0
 11
-0.965926
 21
-0.258819
 31
0.0
  0
ENDBLK
  5
9A
330
98
100
AcDbEntity
  8
0
100
AcDbBlockEnd
  0
BLOCK
  5
9E
330
9D
100
AcDbEntity
  8
0
100
AcDbBlockBegin
  2
FXTIP_BLACKTRIANGLE_S
 70
     0
 71
     0
 10
0.0
 20
0.0
 30
0.0
  3
FXTIP_BLACKTRIANGLE_S
  1

  0
LINE
  5
A0
330
9D
100
AcDbEntity
  8
0
  6
CONTINUOUS
 62
     0
100
AcDbLine
 10
0.0
 20
0.0
 30
0.0
 11
-1.0
 21
0.0
 31
0.0
  0
SOLID
  5
A1
330
9D
100
AcDbEntity
  8
0
  6
CONTINUOUS
 62
     0
100
AcDbTrace
 10
0.0
 20
0.0
 30
0.0
 11
-0.965926
 21
-0.258819
 31
0.0
 12
-0.965926
 22
0.258819
 32
0.0
 13
-0.965926
 23
0.258819
 33
0.0
  0
ENDBLK
  5
9F
330
9D
100
AcDbEntity
  8
0
100
AcDbBlockEnd
  0
BLOCK
  5
A3
330
A2
100
AcDbEntity
  8
0
100
AcDbBlockBegin
  2
FXTIP_BLACKTRIANGLE_E
 70
     0
 71
     0
 10
0.0
 20
0.0
 30
0.0
  3
FXTIP_BLACKTRIANGLE_E
  1

  0
LINE
  5
A5
330
A2
100
AcDbEntity
  8
0
  6
CONTINUOUS
 62
     0
100
AcDbLine
 10
0.0
 20
0.0
 30
0.0
 11
-1.0
 21
0.0
 31
0.0
  0
SOLID
  5
A6
330
A2
100
AcDbEntity
  8
0
  6
CONTINUOUS
 62
     0
100
AcDbTrace
 10
0.0
 20
0.0
 30
0.0
 11
-0.965926
 21
0.258819
 31
0.0
 12
-0.965926
 22
-0.258819
 32
0.0
 13
-0.965926
 23
-0.258819
 33
0.0
  0
ENDBLK
  5
A4
330
A2
100
AcDbEntity
  8
0
100
AcDbBlockEnd
  0
ENDSEC
  0
SECTION
  2
ENTITIES
  0
LINE
  5
A9
330
1F
100
AcDbEntity
  8
GR1-1
  6
CONTINUOUS
 62
     3
100
AcDbLine
 10
115.660372
 20
197.5
 30
0.0
 11
185.560372
 21
197.5
 31
0.0
  0
ARC
  5
AA
330
1F
100
AcDbEntity
  8
GR1-1
  6
CONTINUOUS
 62
     3
100
AcDbCircle
 10
185.560372
 20
196.5
 30
0.0
 40
3.5
100
AcDbArc
 50
0.0
 51
90.0
  0
LINE
  5
AB
330
1F
100
AcDbEntity
  8
GR1-1
  6
CONTINUOUS
 62
     3
100
AcDbLine
 10
185.560372
 20
200.0
 30
0.0
 11
115.560372
 21
200.0
 31
0.0
  0
ARC
  5
AC
330
1F
100
AcDbEntity
  8
GR1-1
  6
CONTINUOUS
 62
     3
100
AcDbCircle
 10
115.560372
 20
196.5
 30
0.0
 40
3.5
100
AcDbArc
 50
90.0
 51
180.0
  0
LINE
  5
AD
330
1F
100
AcDbEntity
  8
GR1-1
  6
CONTINUOUS
 62
     3
100
AcDbLine
 10
174.835505
 20
194.9
 30
0.0
 11
126.285238
 21
194.9
 31
0.0
  0
LINE
  5
AE
330
1F
100
AcDbEntity
  8
GR1-1
  6
CONTINUOUS
 62
     3
100
AcDbLine
 10
125.310372
 20
100.8
 30
0.0
 11
125.310372
 21
114.8
 31
0.0
  0
LINE
  5
AF
330
1F
100
AcDbEntity
  8
GR1-1
  6
CONTINUOUS
 62
     3
100
AcDbLine
 10
345.71517
 20
357.35
 30
0.0
 11
344.71517
 21
356.35
 31
0.0
  0
LINE
  5
B0
330
1F
100
AcDbEntity
  8
GR1-1
  6
CONTINUOUS
 62
     3
100
AcDbLine
 10
344.71517
 20
356.35
 30
0.0
 11
344.71517
 21
355.65
 31
0.0
  0
LINE
  5
B1
330
1F
100
AcDbEntity
  8
GR1-1
  6
CONTINUOUS
 62
     3
100
AcDbLine
 10
345.71517
 20
357.35
 30
0.0
 11
355.71517
 21
357.35
 31
0.0
  0
LINE
  5
B2
330
1F
100
AcDbEntity
  8
GR1-1
  6
CONTINUOUS
 62
     3
100
AcDbLine
 10
355.71517
 20
357.35
 30
0.0
 11
356.71517
 21
356.35
 31
0.0
  0
LINE
  5
B3
330
1F
100
AcDbEntity
  8
GR1-1
  6
CONTINUOUS
 62
     3
100
AcDbLine
 10
356.71517
 20
356.35
 30
0.0
 11
356.71517
 21
355.65
 31
0.0
  0
ARC
  5
B4
330
1F
100
AcDbEntity
  8
GR1-1
  6
CONTINUOUS
 62
     3
100
AcDbCircle
 10
364.88853
 20
357.15
 30
0.0
 40
11.5
100
AcDbArc
 50
270.0
 51
308.59465
  0
LINE
  5
B5
330
1F
100
AcDbEntity
  8
GR1-1
  6
CONTINUOUS
 62
     3
100
AcDbLine
 10
372.062306
 20
348.161845
 30
0.0
 11
382.27853
 21
356.315787
 31
0.0
  0
LINE
  5
B6
330
1F
100
AcDbEntity
  8
GR1-1
  6
CONTINUOUS
 62
     3
100
AcDbLine
 10
388.516596
 20
358.5
 30
0.0
 11
396.71517
 21
358.5
 31
0.0
  0
LINE
  5
B7
330
1F
100
AcDbEntity
  8
GR1-1
  6
CONTINUOUS
 62
     3
100
AcDbLine
 10
397.21517
 20
358.0
 30
0.0
 11
397.21517
 21
357.5
 31
0.0
  0
ARC
  5
B8
330
1F
100
AcDbEntity
  8
GR1-1
  6
CONTINUOUS
 62
     3
100
AcDbCircle
 10
398.21517
 20
357.5
 30
0.0
 40
1.0
100
AcDbArc
 50
180.0
 51
270.0
  0
ARC
  5
B9
330
1F
100
AcDbEntity
  8
GR1-1
  6
CONTINUOUS
 62
     3
100
AcDbCircle
 10
396.71517
 20
358.0
 30
0.0
 40
0.5
100
AcDbArc
 50
0.0
 51
90.0
  0
ARC
  5
BA
330
1F
100
AcDbEntity
  8
GR1-1
  6
CONTINUOUS
 62
     3
100
AcDbCircle
 10
388.516596
 20
348.5
 30
0.0
 40
10.0
100
AcDbArc
 50
90.0
 51
128.59465
  0
ARC
  5
BB
330
1F
100
AcDbEntity
  8
GR1-1
  6
CONTINUOUS
 62
     3
100
AcDbCircle
 10
390.71517
 20
342.5
 30
0.0
 40
5.5
100
AcDbArc
 50
116.565051
 51
296.565051
  0
LINE
  5
BC
330
1F
100
AcDbEntity
  8
GR1-1
  6
CONTINUOUS
 62
     3
100
AcDbLine
 10
393.174845
 20
337.58065
 30
0.0
 11
398.215253
 21
340.100855
 31
0.0
  0
ARC
  5
BD
330
1F
100
AcDbEntity
  8
GR1-1
  6
CONTINUOUS
 62
     3
100
AcDbCircle
 10
395.71517
 20
345.0
 30
0.0
 40
5.5
100
AcDbArc
 50
-62.965291
 51
116.565051
  0
LINE
  5
BE
330
1F
100
AcDbEntity
  8
GR1-1
  6
CONTINUOUS
 62
     3
100
AcDbLine
 10
393.255496
 20
349.91935
 30
0.0
 11
388.255496
 21
347.41935
 31
0.0
  0
LINE
  5
BF
330
1F
100
AcDbEntity
  8
GR1-1
  6
CONTINUOUS
 62
     3
100
AcDbLine
 10
405.71517
 20
349.0
 30
0.0
 11
405.71517
 21
291.0
 31
0.0
  0
ARC
  5
C0
330
1F
100
AcDbEntity
  8
GR1-1
  6
CONTINUOUS
 62
     3
100
AcDbCircle
 10
398.21517
 20
291.0
 30
0.0
 40
7.5
100
AcDbArc
 50
270.0
 51
360.0
  0
ARC
  5
C1
330
1F
100
AcDbEntity
  8
GR1-1
  6
CONTINUOUS
 62
     3
100
AcDbCircle
 10
398.21517
 20
282.5
 30
0.0
 40
1.0
100
AcDbArc
 50
90.0
 51
180.0
  0
LINE
  5
C2
330
1F
100
AcDbEntity
  8
GR1-1
  6
CONTINUOUS
 62
     3
100
AcDbLine
 10
397.21517
 20
282.5
 30
0.0
 11
397.21517
 21
282.0
 31
0.0
  0
ARC
  5
C3
330
1F
100
AcDbEntity
  8
GR1-1
  6
CONTINUOUS
 62
     3
100
AcDbCircle
 10
396.71517
 20
282.0
 30
0.0
 40
0.5
100
AcDbArc
 50
270.0
 51
360.0
  0
LINE
  5
C4
330
1F
100
AcDbEntity
  8
GR1-1
  6
CONTINUOUS
 62
     3
100
AcDbLine
 10
396.71517
 20
281.5
 30
0.0
 11
388.516596
 21
281.5
 31
0.0
  0
ARC
  5
C5
330
1F
100
AcDbEntity
  8
GR1-1
  6
CONTINUOUS
 62
     3
100
AcDbCircle
 10
388.516596
 20
291.5
 30
0.0
 40
10.0
100
AcDbArc
 50
231.40535
 51
270.0
  0
LINE
  5
C6
330
1F
100
AcDbEntity
  8
GR1-1
  6
CONTINUOUS
 62
     3
100
AcDbLine
 10
382.27853
 20
283.684213
 30
0.0
 11
372.062306
 21
291.838155
 31
0.0
  0
ARC
  5
C7
330
1F
100
AcDbEntity
  8
GR1-1
  6
CONTINUOUS
 62
     3
100
AcDbCircle
 10
364.88853
 20
282.85
 30
0.0
 40
11.5
100
AcDbArc
 50
51.40535
 51
90.0
  0
LINE
  5
C8
330
1F
100
AcDbEntity
  8
GR1-1
  6
CONTINUOUS
 62
     3
100
AcDbLine
 10
364.88853
 20
294.35
 30
0.0
 11
336.54181
 21
294.35
 31
0.0
  0
ARC
  5
C9
330
1F
100
AcDbEntity
  8
GR1-1
  6
CONTINUOUS
 62
     3
100
AcDbCircle
 10
336.54181
 20
282.85
 30
0.0
 40
11.5
100
AcDbArc
 50
90.0
 51
128.59465
  0
LINE
  5
CA
330
1F
100
AcDbEntity
  8
GR1-1
  6
CONTINUOUS
 62
     3
100
AcDbLine
 10
329.368034
 20
291.838155
 30
0.0
 11
319.15181
 21
283.684213
 31
0.0
  0
LINE
  5
CB
330
1F
100
AcDbEntity
  8
GR1-1
  6
CONTINUOUS
 62
     3
100
AcDbLine
 10
312.913744
 20
281.5
 30
0.0
 11
304.71517
 21
281.5
 31
0.0
  0
LINE
  5
CC
330
1F
100
AcDbEntity
  8
GR1-1
  6
CONTINUOUS
 62
     3
100
AcDbLine
 10
304.21517
 20
282.0
 30
0.0
 11
304.21517
 21
282.5
 31
0.0
  0
ARC
  5
CD
330
1F
100
AcDbEntity
  8
GR1-1
  6
CONTINUOUS
 62
     3
100
AcDbCircle
 10
303.21517
 20
282.5
 30
0.0
 40
1.0
100
AcDbArc
 50
0.0
 51
90.0
  0
ARC
  5
CE
330
1F
100
AcDbEntity
  8
GR1-1
  6
CONTINUOUS
 62
     3
100
AcDbCircle
 10
304.71517
 20
282.0
 30
0.0
 40
0.5
100
AcDbArc
 50
180.0
 51
270.0
  0
ARC
  5
CF
330
1F
100
AcDbEntity
  8
GR1-1
  6
CONTINUOUS
 62
     3
100
AcDbCircle
 10
312.913744
 20
291.5
 30
0.0
 40
10.0
100
AcDbArc
 50
270.0
 51
308.59465
  0
ARC
  5
D0
330
1F
100
AcDbEntity
  8
GR1-1
  6
CONTINUOUS
 62
     3
100
AcDbCircle
 10
310.71517
 20
297.5
 30
0.0
 40
5.5
100
AcDbArc
 50
-63.434949
 51
116.565051
  0
LINE
  5
D1
330
1F
100
AcDbEntity
  8
GR1-1
  6
CONTINUOUS
 62
     3
100
AcDbLine
 10
308.255496
 20
302.41935
 30
0.0
 11
303.215087
 21
299.899145
 31
0.0
  0
ARC
  5
D2
330
1F
100
AcDbEntity
  8
GR1-1
  6
CONTINUOUS
 62
     3
100
AcDbCircle
 10
305.71517
 20
295.0
 30
0.0
 40
5.5
100
AcDbArc
 50
117.034709
 51
296.565051
  0
LINE
  5
D3
330
1F
100
AcDbEntity
  8
GR1-1
  6
CONTINUOUS
 62
     3
100
AcDbLine
 10
308.174845
 20
290.08065
 30
0.0
 11
313.174845
 21
292.58065
 31
0.0
  0
ARC
  5
D4
330
1F
100
AcDbEntity
  8
GR1-1
  6
CONTINUOUS
 62
     3
100
AcDbCircle
 10
303.21517
 20
291.0
 30
0.0
 40
7.5
100
AcDbArc
 50
180.0
 51
270.0
  0
LINE
  5
D5
330
1F
100
AcDbEntity
  8
GR1-1
  6
CONTINUOUS
 62
     3
100
AcDbLine
 10
295.71517
 20
291.0
 30
0.0
 11
295.71517
 21
349.0
 31
0.0
  0
ARC
  5
D6
330
1F
100
AcDbEntity
  8
GR1-1
  6
CONTINUOUS
 62
     3
100
AcDbCircle
 10
303.21517
 20
357.5
 30
0.0
 40
1.0
100
AcDbArc
 50
270.0
 51
360.0
  0
LINE
  5
D7
330
1F
100
AcDbEntity
  8
GR1-1
  6
CONTINUOUS
 62
     3
100
AcDbLine
 10
304.21517
 20
357.5
 30
0.0
 11
304.21517
 21
358.0
 31
0.0
  0
LINE
  5
D8
330
1F
100
AcDbEntity
  8
GR1-1
  6
CONTINUOUS
 62
     3
100
AcDbLine
 10
304.71517
 20
358.5
 30
0.0
 11
312.913744
 21
358.5
 31
0.0
  0
ARC
  5
D9
330
1F
100
AcDbEntity
  8
GR1-1
  6
CONTINUOUS
 62
     3
100
AcDbCircle
 10
312.913744
 20
348.5
 30
0.0
 40
10.0
100
AcDbArc
 50
51.40535
 51
90.0
  0
LINE
  5
DA
330
1F
100
AcDbEntity
  8
GR1-1
  6
CONTINUOUS
 62
     3
100
AcDbLine
 10
319.15181
 20
356.315787
 30
0.0
 11
329.368034
 21
348.161845
 31
0.0
  0
ARC
  5
DB
330
1F
100
AcDbEntity
  8
GR1-1
  6
CONTINUOUS
 62
     3
100
AcDbCircle
 10
336.54181
 20
357.15
 30
0.0
 40
11.5
100
AcDbArc
 50
231.40535
 51
270.0
  0
LINE
  5
DC
330
1F
100
AcDbEntity
  8
GR1-1
  6
CONTINUOUS
 62
     3
100
AcDbLine
 10
336.54181
 20
345.65
 30
0.0
 11
364.88853
 21
345.65
 31
0.0
  0
LINE
  5
DD
330
1F
100
AcDbEntity
  8
GR1-1
  6
CONTINUOUS
 62
     3
100
AcDbLine
 10
313.174845
 20
347.41935
 30
0.0
 11
308.174845
 21
349.91935
 31
0.0
  0
ARC
  5
DE
330
1F
100
AcDbEntity
  8
GR1-1
  6
CONTINUOUS
 62
     3
100
AcDbCircle
 10
305.71517
 20
345.0
 30
0.0
 40
5.5
100
AcDbArc
 50
63.434949
 51
242.965291
  0
LINE
  5
DF
330
1F
100
AcDbEntity
  8
GR1-1
  6
CONTINUOUS
 62
     3
100
AcDbLine
 10
303.215087
 20
340.100855
 30
0.0
 11
308.255496
 21
337.58065
 31
0.0
  0
ARC
  5
E0
330
1F
100
AcDbEntity
  8
GR1-1
  6
CONTINUOUS
 62
     3
100
AcDbCircle
 10
310.71517
 20
342.5
 30
0.0
 40
5.5
100
AcDbArc
 50
-116.565051
 51
63.434949
  0
ARC
  5
E1
330
1F
100
AcDbEntity
  8
GR1-1
  6
CONTINUOUS
 62
     3
100
AcDbCircle
 10
303.21517
 20
349.0
 30
0.0
 40
7.5
100
AcDbArc
 50
90.0
 51
180.0
  0
ARC
  5
E2
330
1F
100
AcDbEntity
  8
GR1-1
  6
CONTINUOUS
 62
     3
100
AcDbCircle
 10
304.71517
 20
358.0
 30
0.0
 40
0.5
100
AcDbArc
 50
90.0
 51
180.0
  0
LINE
  5
E3
330
1F
100
AcDbEntity
  8
GR1-1
  6
CONTINUOUS
 62
     3
100
AcDbLine
 10
340.71517
 20
294.35
 30
0.0
 11
340.71517
 21
290.85
 31
0.0
  0
LINE
  5
E4
330
1F
100
AcDbEntity
  8
GR1-1
  6
CONTINUOUS
 62
     3
100
AcDbLine
 10
340.71517
 20
290.85
 30
0.0
 11
342.71517
 21
289.35
 31
0.0
  0
LINE
  5
E5
330
1F
100
AcDbEntity
  8
GR1-1
  6
CONTINUOUS
 62
     3
100
AcDbLine
 10
342.71517
 20
289.35
 30
0.0
 11
358.71517
 21
289.35
 31
0.0
  0
LINE
  5
E6
330
1F
100
AcDbEntity
  8
GR1-1
  6
CONTINUOUS
 62
     3
100
AcDbLine
 10
358.71517
 20
289.35
 30
0.0
 11
360.71517
 21
290.85
 31
0.0
  0
LINE
  5
E7
330
1F
100
AcDbEntity
  8
GR1-1
  6
CONTINUOUS
 62
     3
100
AcDbLine
 10
360.71517
 20
290.85
 30
0.0
 11
360.71517
 21
294.35
 31
0.0
  0
LINE
  5
E8
330
1F
100
AcDbEntity
  8
GR1-1
  6
CONTINUOUS
 62
     3
100
AcDbLine
 10
388.255496
 20
292.58065
 30
0.0
 11
393.255496
 21
290.08065
 31
0.0
  0
ARC
  5
E9
330
1F
100
AcDbEntity
  8
GR1-1
  6
CONTINUOUS
 62
     3
100
AcDbCircle
 10
395.71517
 20
295.0
 30
0.0
 40
5.5
100
AcDbArc
 50
-116.565051
 51
62.965291
  0
LINE
  5
EA
330
1F
100
AcDbEntity
  8
GR1-1
  6
CONTINUOUS
 62
     3
100
AcDbLine
 10
398.215253
 20
299.899145
 30
0.0
 11
393.174845
 21
302.41935
 31
0.0
  0
ARC
  5
EB
330
1F
100
AcDbEntity
  8
GR1-1
  6
CONTINUOUS
 62
     3
100
AcDbCircle
 10
390.71517
 20
297.5
 30
0.0
 40
5.5
100
AcDbArc
 50
63.434949
 51
243.434949
  0
ARC
  5
EC
330
1F
100
AcDbEntity
  8
GR1-1
  6
CONTINUOUS
 62
     3
100
AcDbCircle
 10
398.21517
 20
349.0
 30
0.0
 40
7.5
100
AcDbArc
 50
0.0
 51
90.0
  0
LINE
  5
ED
330
1F
100
AcDbEntity
  8
GR1-1
  6
CONTINUOUS
 62
     3
100
AcDbLine
 10
295.71517
 20
197.5
 30
0.0
 11
295.71517
 21
200.0
 31
0.0
  0
LINE
  5
EE
330
1F
100
AcDbEntity
  8
GR1-1
  6
CONTINUOUS
 62
     3
100
AcDbLine
 10
295.71517
 20
200.0
 30
0.0
 11
328.113335
 21
200.0
 31
0.0
  0
LINE
  5
EF
330
1F
100
AcDbEntity
  8
GR1-1
  6
CONTINUOUS
 62
     3
100
AcDbLine
 10
331.273065
 20
198.452774
 30
0.0
 11
332.012666
 21
197.5
 31
0.0
  0
LINE
  5
F0
330
1F
100
AcDbEntity
  8
GR1-1
  6
CONTINUOUS
 62
     3
100
AcDbLine
 10
332.012666
 20
197.5
 30
0.0
 11
334.500257
 21
197.5
 31
0.0
  0
ARC
  5
F1
330
1F
100
AcDbEntity
  8
GR1-1
  6
CONTINUOUS
 62
     3
100
AcDbCircle
 10
328.113335
 20
196.0
 30
0.0
 40
4.0
100
AcDbArc
 50
37.820774
 51
90.0
  0
LINE
  5
F2
330
1F
100
AcDbEntity
  8
GR1-1
  6
CONTINUOUS
 62
     3
100
AcDbLine
 10
338.292308
 20
199.2
 30
0.0
 11
363.138032
 21
199.2
 31
0.0
  0
LINE
  5
F3
330
1F
100
AcDbEntity
  8
GR1-1
  6
CONTINUOUS
 62
     3
100
AcDbLine
 10
366.930083
 20
197.5
 30
0.0
 11
369.417674
 21
197.5
 31
0.0
  0
LINE
  5
F4
330
1F
100
AcDbEntity
  8
GR1-1
  6
CONTINUOUS
 62
     3
100
AcDbLine
 10
369.417674
 20
197.5
 30
0.0
 11
370.157275
 21
198.452774
 31
0.0
  0
ARC
  5
F5
330
1F
100
AcDbEntity
  8
GR1-1
  6
CONTINUOUS
 62
     3
100
AcDbCircle
 10
363.293966
 20
179.229535
 30
0.0
 40
19.97107423080771
100
AcDbArc
 50
70.767278
 51
90.447368
  0
LINE
  5
F6
330
1F
100
AcDbEntity
  8
GR1-1
  6
CONTINUOUS
 62
     3
100
AcDbLine
 10
373.317006
 20
200.0
 30
0.0
 11
405.71517
 21
200.0
 31
0.0
  0
LINE
  5
F7
330
1F
100
AcDbEntity
  8
GR1-1
  6
CONTINUOUS
 62
     3
100
AcDbLine
 10
397.21517
 20
198.0
 30
0.0
 11
397.21517
 21
195.5
 31
0.0
  0
ARC
  5
F8
330
1F
100
AcDbEntity
  8
GR1-1
  6
CONTINUOUS
 62
     3
100
AcDbCircle
 10
401.871282
 20
180.290735
 30
0.0
 40
13.5
100
AcDbArc
 50
119.64568
 51
164.0
  0
LINE
  5
F9
330
1F
100
AcDbEntity
  8
GR1-1
  6
CONTINUOUS
 62
     3
100
AcDbLine
 10
388.894249
 20
184.011839
 30
0.0
 11
369.048073
 21
114.8
 31
0.0
  0
ARC
  5
FA
330
1F
100
AcDbEntity
  8
GR1-1
  6
CONTINUOUS
 62
     3
100
AcDbCircle
 10
1.67049
 20
252.826959
 30
0.0
 40
392.198469754377
100
AcDbArc
 50
339.893131
 51
348.106869
  0
ARC
  5
FB
330
1F
100
AcDbEntity
  8
GR1-1
  6
CONTINUOUS
 62
     3
100
AcDbCircle
 10
393.21517
 20
195.5
 30
0.0
 40
4.0
100
AcDbArc
 50
299.64568
 51
360.0
  0
ARC
  5
FC
330
1F
100
AcDbEntity
  8
GR1-1
  6
CONTINUOUS
 62
     3
100
AcDbCircle
 10
399.21517
 20
198.0
 30
0.0
 40
2.0
100
AcDbArc
 50
90.0
 51
180.0
  0
ARC
  5
FD
330
1F
100
AcDbEntity
  8
GR1-1
  6
CONTINUOUS
 62
     3
100
AcDbCircle
 10
373.317006
 20
196.0
 30
0.0
 40
4.0
100
AcDbArc
 50
90.0
 51
142.179226
  0
ARC
  5
FE
330
1F
100
AcDbEntity
  8
GR1-1
  6
CONTINUOUS
 62
     3
100
AcDbCircle
 10
338.136375
 20
179.229535
 30
0.0
 40
19.97107423080771
100
AcDbArc
 50
89.552632
 51
109.232722
  0
LINE
  5
FF
330
1F
100
AcDbEntity
  8
GR1-1
  6
CONTINUOUS
 62
     3
100
AcDbLine
 10
312.536092
 20
184.011839
 30
0.0
 11
332.382267
 21
114.8
 31
0.0
  0
ARC
  5
100
330
1F
100
AcDbEntity
  8
GR1-1
  6
CONTINUOUS
 62
     3
100
AcDbCircle
 10
350.71517
 20
119.8
 30
0.0
 40
19.0
100
AcDbArc
 50
195.25546
 51
344.74454
  0
CIRCLE
  5
101
330
1F
100
AcDbEntity
  8
GR1-1
  6
CONTINUOUS
 62
     3
100
AcDbCircle
 10
350.71517
 20
118.0
 30
0.0
 40
10.0
  0
CIRCLE
  5
102
330
1F
100
AcDbEntity
  8
GR1-1
  6
CONTINUOUS
 62
     3
100
AcDbCircle
 10
324.21517
 20
118.000004
 30
0.0
 40
5.0
  0
CIRCLE
  5
103
330
1F
100
AcDbEntity
  8
GR1-1
  6
CONTINUOUS
 62
     3
100
AcDbCircle
 10
324.21517
 20
118.000004
 30
0.0
 40
3.2
  0
ARC
  5
104
330
1F
100
AcDbEntity
  8
GR1-1
  6
CONTINUOUS
 62
     3
100
AcDbCircle
 10
350.71517
 20
118.000004
 30
0.0
 40
34.0
100
AcDbArc
 50
-219.058911
 51
39.058908
  0
CIRCLE
  5
105
330
1F
100
AcDbEntity
  8
GR1-1
  6
CONTINUOUS
 62
     3
100
AcDbCircle
 10
377.21517
 20
118.000004
 30
0.0
 40
3.2
  0
CIRCLE
  5
106
330
1F
100
AcDbEntity
  8
GR1-1
  6
CONTINUOUS
 62
     3
100
AcDbCircle
 10
377.21517
 20
118.000004
 30
0.0
 40
5.0
  0
CIRCLE
  5
107
330
1F
100
AcDbEntity
  8
GR1-1
  6
CONTINUOUS
 62
     3
100
AcDbCircle
 10
369.4535
 20
99.261674
 30
0.0
 40
2.0
  0
CIRCLE
  5
108
330
1F
100
AcDbEntity
  8
GR1-1
  6
CONTINUOUS
 62
     3
100
AcDbCircle
 10
350.71517
 20
91.500004
 30
0.0
 40
3.2
  0
ARC
  5
109
330
1F
100
AcDbEntity
  8
GR1-1
  6
CONTINUOUS
 62
     3
100
AcDbCircle
 10
350.71517
 20
118.000004
 30
0.0
 40
36.00000000000004
100
AcDbArc
 50
-221.204094
 51
41.204092
  0
ARC
  5
10A
330
1F
100
AcDbEntity
  8
GR1-1
  6
CONTINUOUS
 62
     3
100
AcDbCircle
 10
350.71517
 20
118.000004
 30
0.0
 40
50.0
100
AcDbArc
 50
-231.287654
 51
51.287653
  0
ARC
  5
10B
330
1F
100
AcDbEntity
  8
GR1-1
  6
CONTINUOUS
 62
     3
100
AcDbCircle
 10
699.75985
 20
252.826959
 30
0.0
 40
392.198469754377
100
AcDbArc
 50
191.893131
 51
200.106869
  0
LINE
  5
10C
330
1F
100
AcDbEntity
  8
GR1-1
  6
CONTINUOUS
 62
     3
100
AcDbLine
 10
304.21517
 20
195.5
 30
0.0
 11
304.21517
 21
198.0
 31
0.0
  0
ARC
  5
10D
330
1F
100
AcDbEntity
  8
GR1-1
  6
CONTINUOUS
 62
     3
100
AcDbCircle
 10
302.21517
 20
198.0
 30
0.0
 40
2.0
100
AcDbArc
 50
0.0
 51
90.0
  0
TEXT
  5
10E
330
1F
100
AcDbEntity
  8
GR1-1
  6
CONTINUOUS
 62
     7
100
AcDbText
 10
389.174133
 20
111.979034
 30
0.0
 40
5.540185
  1
2
 50
257.5
 41
1.092768
  7
FX_VECTOR
 72
     5
 11
388.11337
 21
107.194239
 31
0.0
100
AcDbText
  0
TEXT
  5
10F
330
1F
100
AcDbEntity
  8
GR1-1
  6
CONTINUOUS
 62
     7
100
AcDbText
 10
316.523926
 20
99.306183
 30
0.0
 40
5.181109
  1
L
 50
114.0
 41
1.226271
  7
FX_VECTOR
 72
     5
 11
314.555028
 21
103.728399
 31
0.0
100
AcDbText
  0
TEXT
  5
110
330
1F
100
AcDbEntity
  8
GR1-1
  6
CONTINUOUS
 62
     7
100
AcDbText
 10
314.370178
 20
103.588593
 30
0.0
 40
5.349136
  1
D
 50
106.0
 41
1.281978
  7
FX_VECTOR
 72
     5
 11
312.750027
 21
109.23873
 31
0.0
100
AcDbText
  0
TEXT
  5
111
330
1F
100
AcDbEntity
  8
GR1-1
  6
CONTINUOUS
 62
     7
100
AcDbText
 10
311.778503
 20
114.320801
 30
0.0
 40
5.331959
  1
C
 50
90.0
 41
1.12043
  7
FX_VECTOR
 72
     5
 11
311.778503
 21
119.441445
 31
0.0
100
AcDbText
  0
TEXT
  5
112
330
1F
100
AcDbEntity
  8
GR1-1
  6
CONTINUOUS
 62
     7
100
AcDbText
 10
323.517609
 20
90.04953
 30
0.0
 40
5.527687
  1
G
 50
130.0
 41
1.177104
  7
FX_VECTOR
 72
     5
 11
319.932693
 21
94.321866
 31
0.0
100
AcDbText
  0
TEXT
  5
113
330
1F
100
AcDbEntity
  8
GR1-1
  6
CONTINUOUS
 62
     7
100
AcDbText
 10
319.741455
 20
94.278961
 30
0.0
 40
5.394396
  1
O
 50
122.0
 41
1.156776
  7
FX_VECTOR
 72
     5
 11
316.74963
 21
99.066883
 31
0.0
100
AcDbText
  0
TEXT
  5
114
330
1F
100
AcDbEntity
  8
GR1-1
  6
CONTINUOUS
 62
     7
100
AcDbText
 10
311.76593
 20
119.680054
 30
0.0
 40
5.403154
  1
A
 50
82.0
 41
1.254194
  7
FX_VECTOR
 72
     5
 11
312.529409
 21
125.112489
 31
0.0
100
AcDbText
  0
TEXT
  5
115
330
1F
100
AcDbEntity
  8
GR1-1
  6
CONTINUOUS
 62
     7
100
AcDbText
 10
312.245392
 20
124.893005
 30
0.0
 40
5.389345
  1
S
 50
74.0
 41
1.212367
  7
FX_VECTOR
 72
     5
 11
313.703326
 21
129.977426
 31
0.0
100
AcDbText
  0
TEXT
  5
116
330
1F
100
AcDbEntity
  8
GR1-1
  6
CONTINUOUS
 62
     7
100
AcDbText
 10
313.669037
 20
130.039276
 30
0.0
 40
5.666542
  1
T
 50
66.0
 41
1.377387
  7
FX_VECTOR
 72
     5
 11
315.9366
 21
135.132306
 31
0.0
100
AcDbText
  0
TEXT
  5
117
330
1F
100
AcDbEntity
  8
GR1-1
  6
CONTINUOUS
 62
     7
100
AcDbText
 10
315.90979
 20
135.595032
 30
0.0
 40
5.715663
  1
E
 50
58.0
 41
1.014916
  7
FX_VECTOR
 72
     5
 11
318.398282
 21
139.577451
 31
0.0
100
AcDbText
  0
TEXT
  5
118
330
1F
100
AcDbEntity
  8
GR1-1
  6
CONTINUOUS
 62
     7
100
AcDbText
 10
389.83255
 20
118.516479
 30
0.0
 40
5.455782
  1
3
 50
266.5
 41
1.213692
  7
FX_VECTOR
 72
     5
 11
389.505307
 21
113.166104
 31
0.0
100
AcDbText
  0
TEXT
  5
119
330
1F
100
AcDbEntity
  8
GR1-1
  6
CONTINUOUS
 62
     7
100
AcDbText
 10
389.758148
 20
123.607452
 30
0.0
 40
4.397401
  1
X
 50
275.5
 41
1.182111
  7
FX_VECTOR
 72
     5
 11
390.161475
 21
119.418747
 31
0.0
100
AcDbText
  0
TEXT
  5
11A
330
1F
100
AcDbEntity
  8
GR1-1
  6
CONTINUOUS
 62
     7
100
AcDbText
 10
387.77713
 20
130.173401
 30
0.0
 40
5.424929
  1
0
 50
284.5
 41
1.245341
  7
FX_VECTOR
 72
     5
 11
389.146471
 21
124.878553
 31
0.0
100
AcDbText
  0
TEXT
  5
11B
330
1F
100
AcDbEntity
  8
GR1-1
  6
CONTINUOUS
 62
     7
100
AcDbText
 10
385.457855
 20
135.856445
 30
0.0
 40
5.480185
  1
0
 50
293.5
 41
1.273862
  7
FX_VECTOR
 72
     5
 11
387.7113
 21
130.673876
 31
0.0
100
AcDbText
  0
TEXT
  5
11C
330
1F
100
AcDbEntity
  8
GR1-1
  6
CONTINUOUS
 62
     7
100
AcDbText
 10
382.020813
 20
141.342407
 30
0.0
 40
5.587932
  1
1
 50
302.5
 41
2.049953
  7
FX_VECTOR
 72
     5
 11
385.244738
 21
136.281859
 31
0.0
100
AcDbText
  0
TEXT
  5
11D
330
1F
100
AcDbEntity
  8
GR1-1
  6
CONTINUOUS
 62
     7
100
AcDbText
 10
318.670624
 20
140.01236
 30
0.0
 40
5.39817
  1
R
 50
50.0
 41
1.165762
  7
FX_VECTOR
 72
     5
 11
322.137809
 21
144.14439
 31
0.0
100
AcDbText
  0
LINE
  5
11E
330
1F
100
AcDbEntity
  8
GR1-1
  6
CONTINUOUS
 62
     7
100
AcDbLine
 10
325.007826
 20
81.95477
 30
0.0
 11
329.587285
 21
79.093206
 31
0.0
  0
LINE
  5
11F
330
1F
100
AcDbEntity
  8
GR1-1
  6
CONTINUOUS
 62
     7
100
AcDbLine
 10
329.587285
 20
79.093206
 30
0.0
 11
332.448849
 21
83.672666
 31
0.0
  0
LINE
  5
120
330
1F
100
AcDbEntity
  8
GR1-1
  6
CONTINUOUS
 62
     7
100
AcDbLine
 10
332.448849
 20
83.672666
 30
0.0
 11
327.86939
 21
86.53423
 31
0.0
  0
LINE
  5
121
330
1F
100
AcDbEntity
  8
GR1-1
  6
CONTINUOUS
 62
     7
100
AcDbLine
 10
327.86939
 20
86.53423
 30
0.0
 11
325.007826
 21
81.95477
 31
0.0
  0
LINE
  5
122
330
1F
100
AcDbEntity
  8
GR1-1
  6
CONTINUOUS
 62
     7
100
AcDbLine
 10
326.655454
 20
83.790621
 30
0.0
 11
327.734843
 21
83.116144
 31
0.0
  0
LINE
  5
123
330
1F
100
AcDbEntity
  8
GR1-1
  6
CONTINUOUS
 62
     7
100
AcDbLine
 10
327.734843
 20
83.116144
 30
0.0
 11
328.05386
 21
81.734329
 31
0.0
  0
LINE
  5
124
330
1F
100
AcDbEntity
  8
GR1-1
  6
CONTINUOUS
 62
     7
100
AcDbLine
 10
328.05386
 20
81.734329
 30
0.0
 11
329.807727
 21
82.139241
 31
0.0
  0
LINE
  5
125
330
1F
100
AcDbEntity
  8
GR1-1
  6
CONTINUOUS
 62
     7
100
AcDbLine
 10
329.807727
 20
82.139241
 30
0.0
 11
329.402815
 21
83.893107
 31
0.0
  0
LINE
  5
126
330
1F
100
AcDbEntity
  8
GR1-1
  6
CONTINUOUS
 62
     7
100
AcDbLine
 10
329.402815
 20
83.893107
 30
0.0
 11
328.480744
 21
83.68023
 31
0.0
  0
ARC
  5
127
330
1F
100
AcDbEntity
  8
GR1-1
  6
CONTINUOUS
 62
     7
100
AcDbCircle
 10
328.50099
 20
83.592537
 30
0.0
 40
0.09
100
AcDbArc
 50
103.0
 51
238.0
  0
LINE
  5
128
330
1F
100
AcDbEntity
  8
GR1-1
  6
CONTINUOUS
 62
     7
100
AcDbLine
 10
328.453297
 20
83.516213
 30
0.0
 11
328.966801
 21
83.19534
 31
0.0
  0
LINE
  5
129
330
1F
100
AcDbEntity
  8
GR1-1
  6
CONTINUOUS
 62
     7
100
AcDbLine
 10
328.966801
 20
83.19534
 30
0.0
 11
328.728338
 21
82.813718
 31
0.0
  0
LINE
  5
12A
330
1F
100
AcDbEntity
  8
GR1-1
  6
CONTINUOUS
 62
     7
100
AcDbLine
 10
328.728338
 20
82.813718
 30
0.0
 11
326.56956
 21
84.162672
 31
0.0
  0
LINE
  5
12B
330
1F
100
AcDbEntity
  8
GR1-1
  6
CONTINUOUS
 62
     7
100
AcDbLine
 10
326.56956
 20
84.162672
 30
0.0
 11
327.535013
 21
85.707721
 31
0.0
  0
LINE
  5
12C
330
1F
100
AcDbEntity
  8
GR1-1
  6
CONTINUOUS
 62
     7
100
AcDbLine
 10
327.535013
 20
85.707721
 30
0.0
 11
328.298257
 21
85.230794
 31
0.0
  0
LINE
  5
12D
330
1F
100
AcDbEntity
  8
GR1-1
  6
CONTINUOUS
 62
     7
100
AcDbLine
 10
328.298257
 20
85.230794
 30
0.0
 11
327.924871
 21
84.633251
 31
0.0
  0
ARC
  5
12E
330
1F
100
AcDbEntity
  8
GR1-1
  6
CONTINUOUS
 62
     7
100
AcDbCircle
 10
328.001195
 20
84.585559
 30
0.0
 40
0.09
100
AcDbArc
 50
148.0
 51
283.0
  0
LINE
  5
12F
330
1F
100
AcDbEntity
  8
GR1-1
  6
CONTINUOUS
 62
     7
100
AcDbLine
 10
328.02144
 20
84.497865
 30
0.0
 11
330.077292
 21
84.972496
 31
0.0
  0
LINE
  5
130
330
1F
100
AcDbEntity
  8
GR1-1
  6
CONTINUOUS
 62
     7
100
AcDbLine
 10
330.077292
 20
84.972496
 30
0.0
 11
330.887116
 21
81.464764
 31
0.0
  0
LINE
  5
131
330
1F
100
AcDbEntity
  8
GR1-1
  6
CONTINUOUS
 62
     7
100
AcDbLine
 10
330.887116
 20
81.464764
 30
0.0
 11
327.379383
 21
80.65494
 31
0.0
  0
LINE
  5
132
330
1F
100
AcDbEntity
  8
GR1-1
  6
CONTINUOUS
 62
     7
100
AcDbLine
 10
327.379383
 20
80.65494
 30
0.0
 11
326.655454
 21
83.790621
 31
0.0
  0
LINE
  5
133
330
1F
100
AcDbEntity
  8
GR1-1
  6
CONTINUOUS
 62
     6
100
AcDbLine
 10
395.71517
 20
287.5
 30
0.0
 11
395.71517
 21
291.5
 31
0.0
  0
LINE
  5
134
330
1F
100
AcDbEntity
  8
GR1-1
  6
CONTINUOUS
 62
     6
100
AcDbLine
 10
395.71517
 20
293.0
 30
0.0
 11
395.71517
 21
297.0
 31
0.0
  0
LINE
  5
135
330
1F
100
AcDbEntity
  8
GR1-1
  6
CONTINUOUS
 62
     6
100
AcDbLine
 10
395.71517
 20
298.5
 30
0.0
 11
395.71517
 21
302.5
 31
0.0
  0
LINE
  5
136
330
1F
100
AcDbEntity
  8
GR1-1
  6
CONTINUOUS
 62
     6
100
AcDbLine
 10
394.21517
 20
297.5
 30
0.0
 11
398.21517
 21
297.5
 31
0.0
  0
LINE
  5
137
330
1F
100
AcDbEntity
  8
GR1-1
  6
CONTINUOUS
 62
     6
100
AcDbLine
 10
397.71517
 20
295.0
 30
0.0
 11
393.71517
 21
295.0
 31
0.0
  0
LINE
  5
138
330
1F
100
AcDbEntity
  8
GR1-1
  6
CONTINUOUS
 62
     6
100
AcDbLine
 10
392.21517
 20
295.0
 30
0.0
 11
388.21517
 21
295.0
 31
0.0
  0
LINE
  5
139
330
1F
100
AcDbEntity
  8
GR1-1
  6
CONTINUOUS
 62
     6
100
AcDbLine
 10
390.71517
 20
295.5
 30
0.0
 11
390.71517
 21
299.5
 31
0.0
  0
LINE
  5
13A
330
1F
100
AcDbEntity
  8
GR1-1
  6
CONTINUOUS
 62
     6
100
AcDbLine
 10
390.71517
 20
301.0
 30
0.0
 11
390.71517
 21
305.0
 31
0.0
  0
LINE
  5
13B
330
1F
100
AcDbEntity
  8
GR1-1
  6
CONTINUOUS
 62
     6
100
AcDbLine
 10
392.71517
 20
297.5
 30
0.0
 11
388.71517
 21
297.5
 31
0.0
  0
LINE
  5
13C
330
1F
100
AcDbEntity
  8
GR1-1
  6
CONTINUOUS
 62
     6
100
AcDbLine
 10
387.21517
 20
297.5
 30
0.0
 11
383.21517
 21
297.5
 31
0.0
  0
LINE
  5
13D
330
1F
100
AcDbEntity
  8
GR1-1
  6
CONTINUOUS
 62
     6
100
AcDbLine
 10
390.71517
 20
294.0
 30
0.0
 11
390.71517
 21
290.0
 31
0.0
  0
LINE
  5
13E
330
1F
100
AcDbEntity
  8
GR1-1
  6
CONTINUOUS
 62
     7
100
AcDbLine
 10
399.21517
 20
295.0
 30
0.0
 11
403.21517
 21
295.0
 31
0.0
  0
LINE
  5
13F
330
1F
100
AcDbEntity
  8
GR1-1
  6
CONTINUOUS
 62
     6
100
AcDbLine
 10
390.71517
 20
335.0
 30
0.0
 11
390.71517
 21
339.0
 31
0.0
  0
LINE
  5
140
330
1F
100
AcDbEntity
  8
GR1-1
  6
CONTINUOUS
 62
     6
100
AcDbLine
 10
390.71517
 20
340.5
 30
0.0
 11
390.71517
 21
344.5
 31
0.0
  0
LINE
  5
141
330
1F
100
AcDbEntity
  8
GR1-1
  6
CONTINUOUS
 62
     6
100
AcDbLine
 10
390.71517
 20
346.0
 30
0.0
 11
390.71517
 21
350.0
 31
0.0
  0
LINE
  5
142
330
1F
100
AcDbEntity
  8
GR1-1
  6
CONTINUOUS
 62
     6
100
AcDbLine
 10
395.71517
 20
348.5
 30
0.0
 11
395.71517
 21
352.5
 31
0.0
  0
LINE
  5
143
330
1F
100
AcDbEntity
  8
GR1-1
  6
CONTINUOUS
 62
     6
100
AcDbLine
 10
395.71517
 20
347.0
 30
0.0
 11
395.71517
 21
343.0
 31
0.0
  0
LINE
  5
144
330
1F
100
AcDbEntity
  8
GR1-1
  6
CONTINUOUS
 62
     6
100
AcDbLine
 10
395.71517
 20
341.5
 30
0.0
 11
395.71517
 21
337.5
 31
0.0
  0
LINE
  5
145
330
1F
100
AcDbEntity
  8
GR1-1
  6
CONTINUOUS
 62
     6
100
AcDbLine
 10
394.21517
 20
342.5
 30
0.0
 11
398.21517
 21
342.5
 31
0.0
  0
LINE
  5
146
330
1F
100
AcDbEntity
  8
GR1-1
  6
CONTINUOUS
 62
     6
100
AcDbLine
 10
397.71517
 20
345.0
 30
0.0
 11
393.71517
 21
345.0
 31
0.0
  0
LINE
  5
147
330
1F
100
AcDbEntity
  8
GR1-1
  6
CONTINUOUS
 62
     6
100
AcDbLine
 10
392.21517
 20
345.0
 30
0.0
 11
388.21517
 21
345.0
 31
0.0
  0
LINE
  5
148
330
1F
100
AcDbEntity
  8
GR1-1
  6
CONTINUOUS
 62
     6
100
AcDbLine
 10
388.71517
 20
342.5
 30
0.0
 11
392.71517
 21
342.5
 31
0.0
  0
LINE
  5
149
330
1F
100
AcDbEntity
  8
GR1-1
  6
CONTINUOUS
 62
     6
100
AcDbLine
 10
387.21517
 20
342.5
 30
0.0
 11
383.21517
 21
342.5
 31
0.0
  0
LINE
  5
14A
330
1F
100
AcDbEntity
  8
GR1-1
  6
CONTINUOUS
 62
     7
100
AcDbLine
 10
399.21517
 20
345.0
 30
0.0
 11
403.21517
 21
345.0
 31
0.0
  0
LINE
  5
14B
330
1F
100
AcDbEntity
  8
GR1-1
  6
CONTINUOUS
 62
     6
100
AcDbLine
 10
318.21517
 20
342.5
 30
0.0
 11
314.21517
 21
342.5
 31
0.0
  0
LINE
  5
14C
330
1F
100
AcDbEntity
  8
GR1-1
  6
CONTINUOUS
 62
     6
100
AcDbLine
 10
312.71517
 20
342.5
 30
0.0
 11
308.71517
 21
342.5
 31
0.0
  0
LINE
  5
14D
330
1F
100
AcDbEntity
  8
GR1-1
  6
CONTINUOUS
 62
     6
100
AcDbLine
 10
307.21517
 20
342.5
 30
0.0
 11
303.21517
 21
342.5
 31
0.0
  0
LINE
  5
14E
330
1F
100
AcDbEntity
  8
GR1-1
  6
CONTINUOUS
 62
     6
100
AcDbLine
 10
305.71517
 20
343.0
 30
0.0
 11
305.71517
 21
347.0
 31
0.0
  0
LINE
  5
14F
330
1F
100
AcDbEntity
  8
GR1-1
  6
CONTINUOUS
 62
     6
100
AcDbLine
 10
305.71517
 20
348.5
 30
0.0
 11
305.71517
 21
352.5
 31
0.0
  0
LINE
  5
150
330
1F
100
AcDbEntity
  8
GR1-1
  6
CONTINUOUS
 62
     6
100
AcDbLine
 10
310.71517
 20
350.0
 30
0.0
 11
310.71517
 21
346.0
 31
0.0
  0
LINE
  5
151
330
1F
100
AcDbEntity
  8
GR1-1
  6
CONTINUOUS
 62
     6
100
AcDbLine
 10
310.71517
 20
344.5
 30
0.0
 11
310.71517
 21
340.5
 31
0.0
  0
LINE
  5
152
330
1F
100
AcDbEntity
  8
GR1-1
  6
CONTINUOUS
 62
     6
100
AcDbLine
 10
310.71517
 20
339.0
 30
0.0
 11
310.71517
 21
335.0
 31
0.0
  0
LINE
  5
153
330
1F
100
AcDbEntity
  8
GR1-1
  6
CONTINUOUS
 62
     6
100
AcDbLine
 10
305.71517
 20
337.5
 30
0.0
 11
305.71517
 21
341.5
 31
0.0
  0
LINE
  5
154
330
1F
100
AcDbEntity
  8
GR1-1
  6
CONTINUOUS
 62
     6
100
AcDbLine
 10
307.71517
 20
345.0
 30
0.0
 11
303.71517
 21
345.0
 31
0.0
  0
LINE
  5
155
330
1F
100
AcDbEntity
  8
GR1-1
  6
CONTINUOUS
 62
     6
100
AcDbLine
 10
302.21517
 20
345.0
 30
0.0
 11
298.21517
 21
345.0
 31
0.0
  0
LINE
  5
156
330
1F
100
AcDbEntity
  8
GR1-1
  6
CONTINUOUS
 62
     6
100
AcDbLine
 10
309.21517
 20
345.0
 30
0.0
 11
313.21517
 21
345.0
 31
0.0
  0
LINE
  5
157
330
1F
100
AcDbEntity
  8
GR1-1
  6
CONTINUOUS
 62
     6
100
AcDbLine
 10
310.71517
 20
305.0
 30
0.0
 11
310.71517
 21
301.0
 31
0.0
  0
LINE
  5
158
330
1F
100
AcDbEntity
  8
GR1-1
  6
CONTINUOUS
 62
     6
100
AcDbLine
 10
310.71517
 20
299.5
 30
0.0
 11
310.71517
 21
295.5
 31
0.0
  0
LINE
  5
159
330
1F
100
AcDbEntity
  8
GR1-1
  6
CONTINUOUS
 62
     6
100
AcDbLine
 10
310.71517
 20
294.0
 30
0.0
 11
310.71517
 21
290.0
 31
0.0
  0
LINE
  5
15A
330
1F
100
AcDbEntity
  8
GR1-1
  6
CONTINUOUS
 62
     6
100
AcDbLine
 10
309.21517
 20
295.0
 30
0.0
 11
313.21517
 21
295.0
 31
0.0
  0
LINE
  5
15B
330
1F
100
AcDbEntity
  8
GR1-1
  6
CONTINUOUS
 62
     6
100
AcDbLine
 10
312.71517
 20
297.5
 30
0.0
 11
308.71517
 21
297.5
 31
0.0
  0
LINE
  5
15C
330
1F
100
AcDbEntity
  8
GR1-1
  6
CONTINUOUS
 62
     6
100
AcDbLine
 10
307.21517
 20
297.5
 30
0.0
 11
303.21517
 21
297.5
 31
0.0
  0
LINE
  5
15D
330
1F
100
AcDbEntity
  8
GR1-1
  6
CONTINUOUS
 62
     6
100
AcDbLine
 10
305.71517
 20
297.0
 30
0.0
 11
305.71517
 21
293.0
 31
0.0
  0
LINE
  5
15E
330
1F
100
AcDbEntity
  8
GR1-1
  6
CONTINUOUS
 62
     6
100
AcDbLine
 10
305.71517
 20
291.5
 30
0.0
 11
305.71517
 21
287.5
 31
0.0
  0
LINE
  5
15F
330
1F
100
AcDbEntity
  8
GR1-1
  6
CONTINUOUS
 62
     6
100
AcDbLine
 10
307.71517
 20
295.0
 30
0.0
 11
303.71517
 21
295.0
 31
0.0
  0
LINE
  5
160
330
1F
100
AcDbEntity
  8
GR1-1
  6
CONTINUOUS
 62
     6
100
AcDbLine
 10
302.21517
 20
295.0
 30
0.0
 11
298.21517
 21
295.0
 31
0.0
  0
LINE
  5
161
330
1F
100
AcDbEntity
  8
GR1-1
  6
CONTINUOUS
 62
     6
100
AcDbLine
 10
305.71517
 20
298.5
 30
0.0
 11
305.71517
 21
302.5
 31
0.0
  0
LINE
  5
162
330
1F
100
AcDbEntity
  8
GR1-1
  6
CONTINUOUS
 62
     6
100
AcDbLine
 10
314.21517
 20
297.5
 30
0.0
 11
318.21517
 21
297.5
 31
0.0
  0
LINE
  5
163
330
1F
100
AcDbEntity
  8
GR1-1
  6
CENTER
 62
     6
100
AcDbLine
 10
183.796768
 20
118.0
 30
0.0
 11
111.14046
 21
118.0
 31
0.0
  0
LINE
  5
164
330
1F
100
AcDbEntity
  8
GR1-1
  6
CENTER
 62
     6
100
AcDbLine
 10
150.560372
 20
65.609275
 30
0.0
 11
150.560372
 21
203.385732
 31
0.0
  0
ARC
  5
165
330
1F
100
AcDbEntity
  8
GR1-1
  6
CONTINUOUS
 62
     6
100
AcDbCircle
 10
173.697938
 20
198.874866
 30
0.0
 40
4.134443050190309
100
AcDbArc
 50
285.970592
 51
340.577007
  0
LINE
  5
166
330
1F
100
AcDbEntity
  8
GR1-1
  6
CENTER
 62
     6
100
AcDbLine
 10
298.119152
 20
118.0
 30
0.0
 11
403.822648
 21
118.0
 31
0.0
  0
LINE
  5
167
330
1F
100
AcDbEntity
  8
GR1-1
  6
CONTINUOUS
 62
     6
100
AcDbLine
 10
368.173878
 20
117.230498
 30
0.0
 11
368.173878
 21
195.627826
 31
0.0
  0
LINE
  5
168
330
1F
100
AcDbEntity
  8
GR1-1
  6
CENTER
 62
     6
100
AcDbLine
 10
350.71517
 20
203.65143
 30
0.0
 11
350.71517
 21
63.268315
 31
0.0
  0
LINE
  5
169
330
1F
100
AcDbEntity
  8
GR1-1
  6
CENTER
 62
     6
100
AcDbLine
 10
371.950419
 20
96.764754
 30
0.0
 11
366.847493
 21
101.867681
 31
0.0
  0
CIRCLE
  5
16A
330
1F
100
AcDbEntity
  8
GR1-1
  6
CONTINUOUS
 62
     6
100
AcDbCircle
 10
350.71517
 20
118.0
 30
0.0
 40
8.0
  0
CIRCLE
  5
16B
330
1F
100
AcDbEntity
  8
GR1-1
  6
CONTINUOUS
 62
     6
100
AcDbCircle
 10
350.71517
 20
118.0
 30
0.0
 40
3.0
  0
LINE
  5
16C
330
1F
100
AcDbEntity
  8
GR1-1
  6
CONTINUOUS
 62
     6
100
AcDbLine
 10
333.256462
 20
117.230498
 30
0.0
 11
333.256462
 21
195.627826
 31
0.0
  0
ARC
  5
16D
330
1F
100
AcDbEntity
  8
GR1-1
  6
CONTINUOUS
 62
     6
100
AcDbCircle
 10
350.71517
 20
118.000004
 30
0.0
 40
33.49999999999997
100
AcDbArc
 50
-218.47814
 51
38.478137
  0
ARC
  5
16E
330
1F
100
AcDbEntity
  8
GR1-1
  6
CONTINUOUS
 62
     6
100
AcDbCircle
 10
350.71517
 20
118.000004
 30
0.0
 40
20.5
100
AcDbArc
 50
-188.102145
 51
8.102145
  0
ARC
  5
16F
330
1F
100
AcDbEntity
  8
GR1-1
  6
CENTER
 62
     6
100
AcDbCircle
 10
350.71517
 20
118.000004
 30
0.0
 40
26.5
100
AcDbArc
 50
-207.510281
 51
26.257105
  0
LINE
  5
170
330
1F
100
AcDbEntity
  8
GR1-1
  6
CENTER
 62
     6
100
AcDbLine
 10
350.71517
 20
285.907082
 30
0.0
 11
350.71517
 21
359.710723
 31
0.0
  0
LINE
  5
171
330
1F
100
AcDbEntity
  8
GR1-1
  6
CONTINUOUS
 62
     6
100
AcDbLine
 10
356.71517
 20
356.35
 30
0.0
 11
344.71517
 21
356.35
 31
0.0
  0
ARC
  5
172
330
1F
100
AcDbEntity
  8
GR1-1
  6
CONTINUOUS
 62
     6
100
AcDbCircle
 10
350.71517
 20
320.0
 30
0.0
 40
30.5
100
AcDbArc
 50
122.116092
 51
237.883908
  0
LINE
  5
173
330
1F
100
AcDbEntity
  8
GR1-1
  6
CONTINUOUS
 62
     6
100
AcDbLine
 10
340.71517
 20
290.85
 30
0.0
 11
360.71517
 21
290.85
 31
0.0
  0
ARC
  5
174
330
1F
100
AcDbEntity
  8
GR1-1
  6
CONTINUOUS
 62
     6
100
AcDbCircle
 10
350.71517
 20
320.0
 30
0.0
 40
30.5
100
AcDbArc
 50
-57.883908
 51
57.883908
  0
ARC
  5
175
330
1F
100
AcDbEntity
  8
GR1-1
  6
CONTINUOUS
 62
     6
100
AcDbCircle
 10
350.71517
 20
320.0
 30
0.0
 40
32.5
100
AcDbArc
 50
11.225994
 51
54.868031
  0
ARC
  5
176
330
1F
100
AcDbEntity
  8
GR1-1
  6
CONTINUOUS
 62
     6
100
AcDbCircle
 10
386.516813
 20
327.105797
 30
0.0
 40
4.0
100
AcDbArc
 50
191.225994
 51
255.0
  0
LINE
  5
177
330
1F
100
AcDbEntity
  8
GR1-1
  6
CONTINUOUS
 62
     6
100
AcDbLine
 10
385.481537
 20
323.242094
 30
0.0
 11
395.71517
 21
320.5
 31
0.0
  0
ARC
  5
178
330
1F
100
AcDbEntity
  8
GR1-1
  6
CONTINUOUS
 62
     6
100
AcDbCircle
 10
395.71517
 20
320.0
 30
0.0
 40
0.5
100
AcDbArc
 50
-90.0
 51
90.0
  0
LINE
  5
179
330
1F
100
AcDbEntity
  8
GR1-1
  6
CONTINUOUS
 62
     6
100
AcDbLine
 10
395.71517
 20
319.5
 30
0.0
 11
385.481537
 21
316.757906
 31
0.0
  0
ARC
  5
17A
330
1F
100
AcDbEntity
  8
GR1-1
  6
CONTINUOUS
 62
     6
100
AcDbCircle
 10
386.516813
 20
312.894203
 30
0.0
 40
4.0
100
AcDbArc
 50
105.0
 51
168.774006
  0
ARC
  5
17B
330
1F
100
AcDbEntity
  8
GR1-1
  6
CONTINUOUS
 62
     6
100
AcDbCircle
 10
350.71517
 20
320.0
 30
0.0
 40
32.5
100
AcDbArc
 50
305.131969
 51
348.774006
  0
LINE
  5
17C
330
1F
100
AcDbEntity
  8
GR1-1
  6
CENTER
 62
     6
100
AcDbLine
 10
408.5
 20
320.0
 30
0.0
 11
290.803406
 21
320.0
 31
0.0
  0
LINE
  5
17D
330
1F
100
AcDbEntity
  8
GR1-1
  6
CONTINUOUS
 62
     6
100
AcDbLine
 10
305.71517
 20
319.5
 30
0.0
 11
315.948803
 21
316.757906
 31
0.0
  0
ARC
  5
17E
330
1F
100
AcDbEntity
  8
GR1-1
  6
CONTINUOUS
 62
     6
100
AcDbCircle
 10
350.71517
 20
320.0
 30
0.0
 40
32.5
100
AcDbArc
 50
191.225994
 51
234.868031
  0
ARC
  5
17F
330
1F
100
AcDbEntity
  8
GR1-1
  6
CONTINUOUS
 62
     6
100
AcDbCircle
 10
314.913527
 20
312.894203
 30
0.0
 40
4.0
100
AcDbArc
 50
11.225994
 51
75.0
  0
ARC
  5
180
330
1F
100
AcDbEntity
  8
GR1-1
  6
CONTINUOUS
 62
     6
100
AcDbCircle
 10
314.913527
 20
327.105797
 30
0.0
 40
4.0
100
AcDbArc
 50
285.0
 51
348.774006
  0
LINE
  5
181
330
1F
100
AcDbEntity
  8
GR1-1
  6
CONTINUOUS
 62
     6
100
AcDbLine
 10
315.948803
 20
323.242094
 30
0.0
 11
305.71517
 21
320.5
 31
0.0
  0
ARC
  5
182
330
1F
100
AcDbEntity
  8
GR1-1
  6
CONTINUOUS
 62
     6
100
AcDbCircle
 10
350.71517
 20
320.0
 30
0.0
 40
32.5
100
AcDbArc
 50
125.131969
 51
168.774006
  0
TEXT
  5
183
330
1F
100
AcDbEntity
  8
GR1-1
  6
CONTINUOUS
 62
     7
100
AcDbText
 10
329.414398
 20
11.987381
 30
0.0
 40
6.0
  1
ＳＵＳ－ＳＫ－１００　ＲＢ
 41
0.787879
  7
FX_VECTOR
 72
     5
 11
381.414398
 21
11.987381
 31
0.0
100
AcDbText
  0
LINE
  5
184
330
1F
100
AcDbEntity
  8
GR1-1
  6
CONTINUOUS
 62
     3
100
AcDbLine
 10
175.810372
 20
108.0
 30
0.0
 11
179.310372
 21
108.0
 31
0.0
  0
LINE
  5
185
330
1F
100
AcDbEntity
  8
GR1-1
  6
CONTINUOUS
 62
     3
100
AcDbLine
 10
179.310372
 20
108.0
 30
0.0
 11
180.810372
 21
110.0
 31
0.0
  0
LINE
  5
186
330
1F
100
AcDbEntity
  8
GR1-1
  6
CONTINUOUS
 62
     3
100
AcDbLine
 10
180.810372
 20
110.0
 30
0.0
 11
180.810372
 21
126.0
 31
0.0
  0
LINE
  5
187
330
1F
100
AcDbEntity
  8
GR1-1
  6
CONTINUOUS
 62
     3
100
AcDbLine
 10
180.810372
 20
126.0
 30
0.0
 11
179.310372
 21
128.0
 31
0.0
  0
LINE
  5
188
330
1F
100
AcDbEntity
  8
GR1-1
  6
CONTINUOUS
 62
     3
100
AcDbLine
 10
179.310372
 20
128.0
 30
0.0
 11
179.107209
 21
128.0
 31
0.0
  0
LINE
  5
189
330
1F
100
AcDbEntity
  8
GR1-1
  6
CONTINUOUS
 62
     3
100
AcDbLine
 10
122.310372
 20
127.200512
 30
0.0
 11
122.310372
 21
108.0
 31
0.0
  0
ARC
  5
18A
330
1F
100
AcDbEntity
  8
GR1-1
  6
CONTINUOUS
 62
     3
100
AcDbCircle
 10
122.810372
 20
108.0
 30
0.0
 40
0.5
100
AcDbArc
 50
180.0
 51
270.0
  0
LINE
  5
18B
330
1F
100
AcDbEntity
  8
GR1-1
  6
CONTINUOUS
 62
     3
100
AcDbLine
 10
122.810372
 20
107.5
 30
0.0
 11
124.810372
 21
107.5
 31
0.0
  0
ARC
  5
18C
330
1F
100
AcDbEntity
  8
GR1-1
  6
CONTINUOUS
 62
     3
100
AcDbCircle
 10
124.810372
 20
108.0
 30
0.0
 40
0.5
100
AcDbArc
 50
270.0
 51
360.0
  0
LINE
  5
18D
330
1F
100
AcDbEntity
  8
GR1-1
  6
CONTINUOUS
 62
     3
100
AcDbLine
 10
115.310372
 20
112.0
 30
0.0
 11
113.810372
 21
112.0
 31
0.0
  0
LINE
  5
18E
330
1F
100
AcDbEntity
  8
GR1-1
  6
CONTINUOUS
 62
     3
100
AcDbLine
 10
113.810372
 20
112.0
 30
0.0
 11
112.810372
 21
113.0
 31
0.0
  0
LINE
  5
18F
330
1F
100
AcDbEntity
  8
GR1-1
  6
CONTINUOUS
 62
     3
100
AcDbLine
 10
112.810372
 20
113.0
 30
0.0
 11
112.810372
 21
123.0
 31
0.0
  0
LINE
  5
190
330
1F
100
AcDbEntity
  8
GR1-1
  6
CONTINUOUS
 62
     3
100
AcDbLine
 10
112.810372
 20
123.0
 30
0.0
 11
113.810372
 21
124.0
 31
0.0
  0
LINE
  5
191
330
1F
100
AcDbEntity
  8
GR1-1
  6
CONTINUOUS
 62
     3
100
AcDbLine
 10
113.810372
 20
124.0
 30
0.0
 11
115.310372
 21
124.0
 31
0.0
  0
LINE
  5
192
330
1F
100
AcDbEntity
  8
GR1-1
  6
CONTINUOUS
 62
     6
100
AcDbLine
 10
179.310372
 20
128.0
 30
0.0
 11
179.310372
 21
108.0
 31
0.0
  0
LINE
  5
193
330
1F
100
AcDbEntity
  8
GR1-1
  6
CONTINUOUS
 62
     6
100
AcDbLine
 10
113.810372
 20
124.0
 30
0.0
 11
113.810372
 21
112.0
 31
0.0
  0
ARC
  5
194
330
1F
100
AcDbEntity
  8
GR1-1
  6
CONTINUOUS
 62
     3
100
AcDbCircle
 10
360.71517
 20
346.15
 30
0.0
 40
0.5
100
AcDbArc
 50
270.0
 51
360.0
  0
LINE
  5
195
330
1F
100
AcDbEntity
  8
GR1-1
  6
CONTINUOUS
 62
     3
100
AcDbLine
 10
361.21517
 20
346.15
 30
0.0
 11
361.21517
 21
348.15
 31
0.0
  0
ARC
  5
196
330
1F
100
AcDbEntity
  8
GR1-1
  6
CONTINUOUS
 62
     3
100
AcDbCircle
 10
360.71517
 20
348.15
 30
0.0
 40
0.5
100
AcDbArc
 50
0.0
 51
90.0
  0
LINE
  5
197
330
1F
100
AcDbEntity
  8
GR1-1
  6
CONTINUOUS
 62
     3
100
AcDbLine
 10
360.71517
 20
348.65
 30
0.0
 11
340.71517
 21
348.65
 31
0.0
  0
ARC
  5
198
330
1F
100
AcDbEntity
  8
GR1-1
  6
CONTINUOUS
 62
     3
100
AcDbCircle
 10
340.71517
 20
348.15
 30
0.0
 40
0.5
100
AcDbArc
 50
90.0
 51
180.0
  0
LINE
  5
199
330
1F
100
AcDbEntity
  8
GR1-1
  6
CONTINUOUS
 62
     3
100
AcDbLine
 10
340.21517
 20
348.15
 30
0.0
 11
340.21517
 21
346.15
 31
0.0
  0
ARC
  5
19A
330
1F
100
AcDbEntity
  8
GR1-1
  6
CONTINUOUS
 62
     3
100
AcDbCircle
 10
340.71517
 20
346.15
 30
0.0
 40
0.5
100
AcDbArc
 50
180.0
 51
270.0
  0
ARC
  5
19B
330
1F
100
AcDbEntity
  8
GR1-1
  6
CONTINUOUS
 62
     6
100
AcDbCircle
 10
305.71517
 20
320.0
 30
0.0
 40
0.5
100
AcDbArc
 50
90.0
 51
270.0
  0
LINE
  5
19C
330
1F
100
AcDbEntity
  8
GR1-1
  6
CONTINUOUS
 62
     3
100
AcDbLine
 10
164.710372
 20
82.0
 30
0.0
 11
161.743493
 21
71.653264
 31
0.0
  0
ARC
  5
19D
330
1F
100
AcDbEntity
  8
GR1-1
  6
CONTINUOUS
 62
     3
100
AcDbCircle
 10
157.898446
 20
72.755814
 30
0.0
 40
4.0
100
AcDbArc
 50
281.761333
 51
344.0
  0
ARC
  5
19E
330
1F
100
AcDbEntity
  8
GR1-1
  6
CONTINUOUS
 62
     3
100
AcDbCircle
 10
157.898446
 20
163.244186
 30
0.0
 40
4.0
100
AcDbArc
 50
16.0
 51
78.238667
  0
ARC
  5
19F
330
1F
100
AcDbEntity
  8
GR1-1
  6
CONTINUOUS
 62
     3
100
AcDbCircle
 10
150.560372
 20
128.0
 30
0.0
 40
40.0
100
AcDbArc
 50
78.238667
 51
101.761333
  0
ARC
  5
1A0
330
1F
100
AcDbEntity
  8
GR1-1
  6
CONTINUOUS
 62
     3
100
AcDbCircle
 10
143.222297
 20
163.244186
 30
0.0
 40
4.0
100
AcDbArc
 50
101.761333
 51
164.0
  0
LINE
  5
1A1
330
1F
100
AcDbEntity
  8
GR1-1
  6
CONTINUOUS
 62
     3
100
AcDbLine
 10
139.37725
 20
164.346736
 30
0.0
 11
136.410372
 21
154.0
 31
0.0
  0
LINE
  5
1A2
330
1F
100
AcDbEntity
  8
GR1-1
  6
CONTINUOUS
 62
     3
100
AcDbLine
 10
136.410372
 20
154.0
 30
0.0
 11
134.560372
 21
154.0
 31
0.0
  0
LINE
  5
1A3
330
1F
100
AcDbEntity
  8
GR1-1
  6
CONTINUOUS
 62
     3
100
AcDbLine
 10
136.410372
 20
82.0
 30
0.0
 11
139.37725
 21
71.653264
 31
0.0
  0
ARC
  5
1A4
330
1F
100
AcDbEntity
  8
GR1-1
  6
CONTINUOUS
 62
     3
100
AcDbCircle
 10
143.222297
 20
72.755814
 30
0.0
 40
4.0
100
AcDbArc
 50
196.0
 51
258.238667
  0
ARC
  5
1A5
330
1F
100
AcDbEntity
  8
GR1-1
  6
CONTINUOUS
 62
     3
100
AcDbCircle
 10
150.560372
 20
108.0
 30
0.0
 40
40.0
100
AcDbArc
 50
258.238667
 51
281.761333
  0
LINE
  5
1A6
330
1F
100
AcDbEntity
  8
GR1-1
  6
CONTINUOUS
 62
     3
100
AcDbLine
 10
134.560372
 20
102.4
 30
0.0
 11
131.060372
 21
102.4
 31
0.0
  0
ARC
  5
1A7
330
1F
100
AcDbEntity
  8
GR1-1
  6
CONTINUOUS
 62
     3
100
AcDbCircle
 10
131.060372
 20
103.4
 30
0.0
 40
1.0
100
AcDbArc
 50
180.0
 51
270.0
  0
LINE
  5
1A8
330
1F
100
AcDbEntity
  8
GR1-1
  6
CONTINUOUS
 62
     3
100
AcDbLine
 10
130.060372
 20
103.4
 30
0.0
 11
130.060372
 21
132.6
 31
0.0
  0
LINE
  5
1A9
330
1F
100
AcDbEntity
  8
GR1-1
  6
CONTINUOUS
 62
     3
100
AcDbLine
 10
131.060372
 20
133.6
 30
0.0
 11
134.560372
 21
133.6
 31
0.0
  0
ARC
  5
1AA
330
1F
100
AcDbEntity
  8
GR1-1
  6
CONTINUOUS
 62
     3
100
AcDbCircle
 10
131.060372
 20
132.6
 30
0.0
 40
1.0
100
AcDbArc
 50
90.0
 51
180.0
  0
ARC
  5
1AB
330
1F
100
AcDbEntity
  8
GR1-1
  6
CONTINUOUS
 62
     3
100
AcDbCircle
 10
130.060372
 20
128.5
 30
0.0
 40
1.5
100
AcDbArc
 50
90.0
 51
182.852474
  0
LINE
  5
1AC
330
1F
100
AcDbEntity
  8
GR1-1
  6
CONTINUOUS
 62
     3
100
AcDbLine
 10
128.562236
 20
128.574762
 30
0.0
 11
128.561426
 21
107.44377
 31
0.0
  0
ARC
  5
1AD
330
1F
100
AcDbEntity
  8
GR1-1
  6
CONTINUOUS
 62
     3
100
AcDbCircle
 10
130.060372
 20
107.5
 30
0.0
 40
1.5
100
AcDbArc
 50
177.847266
 51
270.0
  0
LINE
  5
1AE
330
1F
100
AcDbEntity
  8
GR1-1
  6
CONTINUOUS
 62
     3
100
AcDbLine
 10
128.561562
 20
111.0
 30
0.0
 11
127.910372
 21
111.0
 31
0.0
  0
LINE
  5
1AF
330
1F
100
AcDbEntity
  8
GR1-1
  6
CONTINUOUS
 62
     3
100
AcDbLine
 10
127.910372
 20
111.0
 30
0.0
 11
127.810372
 21
111.1
 31
0.0
  0
LINE
  5
1B0
330
1F
100
AcDbEntity
  8
GR1-1
  6
CONTINUOUS
 62
     3
100
AcDbLine
 10
127.810372
 20
100.8
 30
0.0
 11
127.810372
 21
193.9
 31
0.0
  0
LINE
  5
1B1
330
1F
100
AcDbEntity
  8
GR1-1
  6
CONTINUOUS
 62
     3
100
AcDbLine
 10
127.810372
 20
124.9
 30
0.0
 11
127.910372
 21
125.0
 31
0.0
  0
LINE
  5
1B2
330
1F
100
AcDbEntity
  8
GR1-1
  6
CONTINUOUS
 62
     3
100
AcDbLine
 10
127.910372
 20
125.0
 30
0.0
 11
128.560372
 21
125.0
 31
0.0
  0
LINE
  5
1B3
330
1F
100
AcDbEntity
  8
GR1-1
  6
CONTINUOUS
 62
     3
100
AcDbLine
 10
166.560372
 20
82.0
 30
0.0
 11
166.560372
 21
154.0
 31
0.0
  0
LINE
  5
1B4
330
1F
100
AcDbEntity
  8
GR1-1
  6
CONTINUOUS
 62
     3
100
AcDbLine
 10
166.560372
 20
154.0
 30
0.0
 11
164.710372
 21
154.0
 31
0.0
  0
LINE
  5
1B5
330
1F
100
AcDbEntity
  8
GR1-1
  6
CONTINUOUS
 62
     3
100
AcDbLine
 10
164.710372
 20
154.0
 30
0.0
 11
161.743493
 21
164.346736
 31
0.0
  0
LINE
  5
1B6
330
1F
100
AcDbEntity
  8
GR1-1
  6
CONTINUOUS
 62
     6
100
AcDbLine
 10
160.560372
 20
166.229844
 30
0.0
 11
160.560372
 21
69.770156
 31
0.0
  0
LINE
  5
1B7
330
1F
100
AcDbEntity
  8
GR1-1
  6
CONTINUOUS
 62
     6
100
AcDbLine
 10
164.710372
 20
82.0
 30
0.0
 11
164.710372
 21
154.0
 31
0.0
  0
LINE
  5
1B8
330
1F
100
AcDbEntity
  8
GR1-1
  6
CONTINUOUS
 62
     6
100
AcDbLine
 10
127.910372
 20
111.0
 30
0.0
 11
127.910372
 21
125.0
 31
0.0
  0
LINE
  5
1B9
330
1F
100
AcDbEntity
  8
GR1-1
  6
CONTINUOUS
 62
     3
100
AcDbLine
 10
166.560372
 20
102.4
 30
0.0
 11
170.060372
 21
102.4
 31
0.0
  0
ARC
  5
1BA
330
1F
100
AcDbEntity
  8
GR1-1
  6
CONTINUOUS
 62
     3
100
AcDbCircle
 10
170.060372
 20
103.4
 30
0.0
 40
1.0
100
AcDbArc
 50
-90.0
 51
0.0
  0
LINE
  5
1BB
330
1F
100
AcDbEntity
  8
GR1-1
  6
CONTINUOUS
 62
     3
100
AcDbLine
 10
171.060372
 20
103.4
 30
0.0
 11
171.060372
 21
132.6
 31
0.0
  0
LINE
  5
1BC
330
1F
100
AcDbEntity
  8
GR1-1
  6
CONTINUOUS
 62
     3
100
AcDbLine
 10
170.060372
 20
133.6
 30
0.0
 11
166.560372
 21
133.6
 31
0.0
  0
ARC
  5
1BD
330
1F
100
AcDbEntity
  8
GR1-1
  6
CONTINUOUS
 62
     3
100
AcDbCircle
 10
170.060372
 20
132.6
 30
0.0
 40
1.0
100
AcDbArc
 50
0.0
 51
90.0
  0
ARC
  5
1BE
330
1F
100
AcDbEntity
  8
GR1-1
  6
CONTINUOUS
 62
     3
100
AcDbCircle
 10
171.060372
 20
128.5
 30
0.0
 40
1.5
100
AcDbArc
 50
-2.852474
 51
90.0
  0
LINE
  5
1BF
330
1F
100
AcDbEntity
  8
GR1-1
  6
CONTINUOUS
 62
     3
100
AcDbLine
 10
172.558513
 20
128.425353
 30
0.0
 11
172.559317
 21
107.44377
 31
0.0
  0
ARC
  5
1C0
330
1F
100
AcDbEntity
  8
GR1-1
  6
CONTINUOUS
 62
     3
100
AcDbCircle
 10
171.060372
 20
107.5
 30
0.0
 40
1.5
100
AcDbArc
 50
-90.0
 51
2.152734
  0
LINE
  5
1C1
330
1F
100
AcDbEntity
  8
GR1-1
  6
CONTINUOUS
 62
     3
100
AcDbLine
 10
172.559181
 20
111.0
 30
0.0
 11
173.210372
 21
111.0
 31
0.0
  0
LINE
  5
1C2
330
1F
100
AcDbEntity
  8
GR1-1
  6
CONTINUOUS
 62
     3
100
AcDbLine
 10
173.210372
 20
111.0
 30
0.0
 11
173.310372
 21
111.1
 31
0.0
  0
LINE
  5
1C3
330
1F
100
AcDbEntity
  8
GR1-1
  6
CONTINUOUS
 62
     3
100
AcDbLine
 10
173.310372
 20
100.8
 30
0.0
 11
173.310372
 21
193.9
 31
0.0
  0
LINE
  5
1C4
330
1F
100
AcDbEntity
  8
GR1-1
  6
CONTINUOUS
 62
     3
100
AcDbLine
 10
173.310372
 20
124.9
 30
0.0
 11
173.210372
 21
125.0
 31
0.0
  0
LINE
  5
1C5
330
1F
100
AcDbEntity
  8
GR1-1
  6
CONTINUOUS
 62
     3
100
AcDbLine
 10
173.210372
 20
125.0
 30
0.0
 11
172.560372
 21
125.0
 31
0.0
  0
LINE
  5
1C6
330
1F
100
AcDbEntity
  8
GR1-1
  6
CONTINUOUS
 62
     6
100
AcDbLine
 10
173.210372
 20
111.0
 30
0.0
 11
173.210372
 21
125.0
 31
0.0
  0
LINE
  5
1C7
330
1F
100
AcDbEntity
  8
GR1-1
  6
CONTINUOUS
 62
     3
100
AcDbLine
 10
136.410372
 20
82.0
 30
0.0
 11
134.560372
 21
82.0
 31
0.0
  0
LINE
  5
1C8
330
1F
100
AcDbEntity
  8
GR1-1
  6
CONTINUOUS
 62
     3
100
AcDbLine
 10
166.560372
 20
82.0
 30
0.0
 11
164.710372
 21
82.0
 31
0.0
  0
LINE
  5
1C9
330
1F
100
AcDbEntity
  8
GR1-1
  6
CONTINUOUS
 62
     3
100
AcDbLine
 10
134.560372
 20
82.0
 30
0.0
 11
134.560372
 21
154.0
 31
0.0
  0
LINE
  5
1CA
330
1F
100
AcDbEntity
  8
GR1-1
  6
CONTINUOUS
 62
     6
100
AcDbLine
 10
140.560372
 20
166.229844
 30
0.0
 11
140.560372
 21
69.770156
 31
0.0
  0
LINE
  5
1CB
330
1F
100
AcDbEntity
  8
GR1-1
  6
CONTINUOUS
 62
     6
100
AcDbLine
 10
136.410372
 20
82.0
 30
0.0
 11
136.410372
 21
154.0
 31
0.0
  0
LINE
  5
1CC
330
1F
100
AcDbEntity
  8
LAYERGROUP-1
  6
CONTINUOUS
 62
     3
100
AcDbLine
 10
341.21517
 20
354.801494
 30
0.0
 11
342.684825
 21
355.65
 31
0.0
  0
LINE
  5
1CD
330
1F
100
AcDbEntity
  8
LAYERGROUP-1
  6
CONTINUOUS
 62
     3
100
AcDbLine
 10
360.21517
 20
354.801494
 30
0.0
 11
358.745515
 21
355.65
 31
0.0
  0
LINE
  5
1CE
330
1F
100
AcDbEntity
  8
LAYERGROUP-1
  6
CONTINUOUS
 62
     3
100
AcDbLine
 10
341.21517
 20
349.498506
 30
0.0
 11
342.684825
 21
348.65
 31
0.0
  0
LINE
  5
1CF
330
1F
100
AcDbEntity
  8
LAYERGROUP-1
  6
CONTINUOUS
 62
     3
100
AcDbLine
 10
360.21517
 20
349.498506
 30
0.0
 11
358.745515
 21
348.65
 31
0.0
  0
LINE
  5
1D0
330
1F
100
AcDbEntity
  8
GR1-1
  6
CONTINUOUS
 62
     3
100
AcDbLine
 10
304.21517
 20
197.5
 30
0.0
 11
295.71517
 21
197.5
 31
0.0
  0
LINE
  5
1D1
330
1F
100
AcDbEntity
  8
GR1-1
  6
CONTINUOUS
 62
     3
100
AcDbLine
 10
405.71517
 20
197.5
 30
0.0
 11
405.71517
 21
200.0
 31
0.0
  0
LINE
  5
1D2
330
1F
100
AcDbEntity
  8
GR1-1
  6
CONTINUOUS
 62
     3
100
AcDbLine
 10
397.21517
 20
197.5
 30
0.0
 11
405.71517
 21
197.5
 31
0.0
  0
ARC
  5
1D3
330
1F
100
AcDbEntity
  8
GR1-1
  6
CONTINUOUS
 62
     3
100
AcDbCircle
 10
299.559059
 20
180.290735
 30
0.0
 40
13.5
100
AcDbArc
 50
16.0
 51
60.35432
  0
ARC
  5
1D4
330
1F
100
AcDbEntity
  8
GR1-1
  6
CONTINUOUS
 62
     3
100
AcDbCircle
 10
308.21517
 20
195.5
 30
0.0
 40
4.0
100
AcDbArc
 50
180.0
 51
240.35432
  0
ARC
  5
1D5
330
1F
100
AcDbEntity
  8
LAYERGROUP-1
  6
CONTINUOUS
 62
     3
100
AcDbCircle
 10
185.560372
 20
196.5
 30
0.0
 40
1.0
100
AcDbArc
 50
0.0
 51
90.0
  0
ARC
  5
1D6
330
1F
100
AcDbEntity
  8
LAYERGROUP-1
  6
CONTINUOUS
 62
     3
100
AcDbCircle
 10
172.310372
 20
193.9
 30
0.0
 40
1.0
100
AcDbArc
 50
0.0
 51
90.0
  0
LINE
  5
1D7
330
1F
100
AcDbEntity
  8
GR1-1
  6
CONTINUOUS
 62
     3
100
AcDbLine
 10
127.810372
 20
100.8
 30
0.0
 11
125.310372
 21
100.8
 31
0.0
  0
ARC
  5
1D8
330
1F
100
AcDbEntity
  8
GR1-1
  6
CONTINUOUS
 62
     6
100
AcDbCircle
 10
127.422805
 20
198.874866
 30
0.0
 40
4.134443050190309
100
AcDbArc
 50
199.422993
 51
254.029408
  0
ARC
  5
1D9
330
1F
100
AcDbEntity
  8
LAYERGROUP-1
  6
CONTINUOUS
 62
     3
100
AcDbCircle
 10
115.560372
 20
196.5
 30
0.0
 40
1.0
100
AcDbArc
 50
90.0
 51
180.0
  0
ARC
  5
1DA
330
1F
100
AcDbEntity
  8
LAYERGROUP-1
  6
CONTINUOUS
 62
     3
100
AcDbCircle
 10
128.810372
 20
193.9
 30
0.0
 40
1.0
100
AcDbArc
 50
90.0
 51
180.0
  0
LINE
  5
1DB
330
1F
100
AcDbEntity
  8
LAYERGROUP-1
  6
CONTINUOUS
 62
     3
100
AcDbLine
 10
112.060372
 20
196.5
 30
0.0
 11
112.410372
 21
162.0
 31
0.0
  0
LINE
  5
1DC
330
1F
100
AcDbEntity
  8
GR1-1
  6
CONTINUOUS
 62
     3
100
AcDbLine
 10
175.810372
 20
100.8
 30
0.0
 11
175.810372
 21
114.8
 31
0.0
  0
LINE
  5
1DD
330
1F
100
AcDbEntity
  8
GR1-1
  6
CONTINUOUS
 62
     3
100
AcDbLine
 10
173.310372
 20
100.8
 30
0.0
 11
175.810372
 21
100.8
 31
0.0
  0
LINE
  5
1DE
330
1F
100
AcDbEntity
  8
LAYERGROUP-1
  6
CONTINUOUS
 62
     3
100
AcDbLine
 10
189.060372
 20
196.5
 30
0.0
 11
188.710372
 21
162.0
 31
0.0
  0
LINE
  5
1DF
330
1F
100
AcDbEntity
  8
GR1-1
  6
CONTINUOUS
 62
     6
100
AcDbLine
 10
115.310372
 20
123.053
 30
0.0
 11
112.863372
 21
123.053
 31
0.0
  0
LINE
  5
1E0
330
1F
100
AcDbEntity
  8
GR1-1
  6
CONTINUOUS
 62
     6
100
AcDbLine
 10
115.310372
 20
112.947
 30
0.0
 11
112.863372
 21
112.947
 31
0.0
  0
LINE
  5
1E1
330
1F
100
AcDbEntity
  8
GR1-1
  6
CONTINUOUS
 62
     6
100
AcDbLine
 10
355.76817
 20
355.646654
 30
0.0
 11
355.76817
 21
357.297
 31
0.0
  0
LINE
  5
1E2
330
1F
100
AcDbEntity
  8
GR1-1
  6
CONTINUOUS
 62
     6
100
AcDbLine
 10
345.66217
 20
355.646654
 30
0.0
 11
345.66217
 21
357.297
 31
0.0
  0
LINE
  5
1E3
330
1F
100
AcDbEntity
  8
LAYERGROUP-1
  6
CONTINUOUS
 62
     3
100
AcDbLine
 10
127.810372
 20
100.8
 30
0.0
 11
127.810372
 21
114.941793
 31
0.0
  0
ARC
  5
1E4
330
1F
100
AcDbEntity
  8
LAYERGROUP-1
  6
CONTINUOUS
 62
     3
100
AcDbCircle
 10
59.213091
 20
107.207412
 30
0.0
 40
69.03193167802387
100
AcDbArc
 50
6.432962
 51
9.835674
  0
ARC
  5
1E5
330
1F
100
AcDbEntity
  8
LAYERGROUP-1
  6
CONTINUOUS
 62
     3
100
AcDbCircle
 10
84.508999
 20
111.592996
 30
0.0
 40
43.35867054004483
100
AcDbArc
 50
9.835674
 51
19.651452
  0
ARC
  5
1E6
330
1F
100
AcDbEntity
  8
LAYERGROUP-1
  6
CONTINUOUS
 62
     3
100
AcDbCircle
 10
-58.374945
 20
60.569687
 30
0.0
 40
195.0794657725243
100
AcDbArc
 50
19.651452
 51
21.460639
  0
ARC
  5
1E7
330
1F
100
AcDbEntity
  8
LAYERGROUP-1
  6
CONTINUOUS
 62
     3
100
AcDbCircle
 10
-165.201868
 20
18.574196
 30
0.0
 40
309.8645376202534
100
AcDbArc
 50
21.460639
 51
23.037408
  0
ARC
  5
1E8
330
1F
100
AcDbEntity
  8
LAYERGROUP-1
  6
CONTINUOUS
 62
     3
100
AcDbCircle
 10
164.693877
 20
158.860899
 30
0.0
 40
48.62055584056337
100
AcDbArc
 50
195.842661
 51
203.037408
  0
ARC
  5
1E9
330
1F
100
AcDbEntity
  8
LAYERGROUP-1
  6
CONTINUOUS
 62
     3
100
AcDbCircle
 10
201.945465
 20
169.432
 30
0.0
 40
87.34301650277952
100
AcDbArc
 50
184.804244
 51
195.842661
  0
LINE
  5
1EA
330
1F
100
AcDbEntity
  8
LAYERGROUP-1
  6
CONTINUOUS
 62
     3
100
AcDbLine
 10
114.909314
 20
162.116878
 30
0.0
 11
114.560243
 21
196.525361
 31
0.0
  0
ARC
  5
1EB
330
1F
100
AcDbEntity
  8
LAYERGROUP-1
  6
CONTINUOUS
 62
     3
100
AcDbCircle
 10
241.907652
 20
107.207412
 30
0.0
 40
69.03193167802387
100
AcDbArc
 50
170.164326
 51
173.567038
  0
ARC
  5
1EC
330
1F
100
AcDbEntity
  8
LAYERGROUP-1
  6
CONTINUOUS
 62
     3
100
AcDbCircle
 10
216.611744
 20
111.592996
 30
0.0
 40
43.35867054004483
100
AcDbArc
 50
160.348548
 51
170.164326
  0
ARC
  5
1ED
330
1F
100
AcDbEntity
  8
LAYERGROUP-1
  6
CONTINUOUS
 62
     3
100
AcDbCircle
 10
359.495688
 20
60.569687
 30
0.0
 40
195.0794657725243
100
AcDbArc
 50
158.539361
 51
160.348548
  0
ARC
  5
1EE
330
1F
100
AcDbEntity
  8
LAYERGROUP-1
  6
CONTINUOUS
 62
     3
100
AcDbCircle
 10
466.322611
 20
18.574196
 30
0.0
 40
309.8645376202534
100
AcDbArc
 50
156.962592
 51
158.539361
  0
ARC
  5
1EF
330
1F
100
AcDbEntity
  8
LAYERGROUP-1
  6
CONTINUOUS
 62
     3
100
AcDbCircle
 10
136.426866
 20
158.860899
 30
0.0
 40
48.62055584056337
100
AcDbArc
 50
336.962592
 51
344.157339
  0
ARC
  5
1F0
330
1F
100
AcDbEntity
  8
LAYERGROUP-1
  6
CONTINUOUS
 62
     3
100
AcDbCircle
 10
99.175278
 20
169.432
 30
0.0
 40
87.34301650277952
100
AcDbArc
 50
344.157339
 51
355.195756
  0
LINE
  5
1F1
330
1F
100
AcDbEntity
  8
LAYERGROUP-1
  6
CONTINUOUS
 62
     3
100
AcDbLine
 10
186.211429
 20
162.116878
 30
0.0
 11
186.5605
 21
196.525361
 31
0.0
  0
TEXT
  5
1F2
330
1F
100
AcDbEntity
  8
}}ﾊﾊGG血CCТ
  6
CONTINUOUS
 62
     7
100
AcDbText
 10
429.0
 20
12.0
 30
0.0
 40
6.0
  1
S30H0CAA-C01
 41
0.708861
  7
FX_VECTOR
 72
     5
 11
477.0
 21
12.0
 31
0.0
100
AcDbText
  0
TEXT
  5
1F3
330
1F
100
AcDbEntity
  8
GR1-1
  6
CONTINUOUS
 62
     7
100
AcDbText
 10
414.661041
 20
156.0
 30
0.0
 40
4.0
  1
82
 50
90.0
 41
0.851351
  7
FX_VECTOR
 72
     5
 11
414.661041
 21
162.0
 31
0.0
100
AcDbText
  0
LINE
  5
1F4
330
1F
100
AcDbEntity
  8
GR1-1
  6
CONTINUOUS
 62
     7
100
AcDbLine
 10
404.796873
 20
118.0
 30
0.0
 11
416.661034
 21
118.0
 31
0.0
  0
LINE
  5
1F5
330
1F
100
AcDbEntity
  8
GR1-1
  6
CONTINUOUS
 62
     7
100
AcDbLine
 10
406.71517
 20
200.0
 30
0.0
 11
426.807139
 21
200.0
 31
0.0
  0
LINE
  5
1F6
330
1F
100
AcDbEntity
  8
GR1-1
  6
CONTINUOUS
 62
     7
100
AcDbLine
 10
415.661034
 20
118.0
 30
0.0
 11
415.661034
 21
200.0
 31
0.0
  0
INSERT
  5
1F7
330
1F
100
AcDbEntity
  8
GR1-1
  6
CONTINUOUS
 62
     7
100
AcDbBlockReference
  2
FXTIP_ARROW_S
 10
415.661034
 20
118.0
 30
0.0
 41
4.0
 42
4.0
 50
270.0
  0
INSERT
  5
1F8
330
1F
100
AcDbEntity
  8
GR1-1
  6
CONTINUOUS
 62
     7
100
AcDbBlockReference
  2
FXTIP_ARROW_E
 10
415.661034
 20
200.0
 30
0.0
 41
4.0
 42
4.0
 50
90.0
  0
TEXT
  5
1F9
330
1F
100
AcDbEntity
  8
GR1-1
  6
CONTINUOUS
 62
     7
100
AcDbText
 10
424.807129
 20
129.5
 30
0.0
 40
4.0
  1
132
 50
90.0
 41
0.828947
  7
FX_VECTOR
 72
     5
 11
424.807129
 21
138.5
 31
0.0
100
AcDbText
  0
LINE
  5
1FA
330
1F
100
AcDbEntity
  8
GR1-1
  6
CONTINUOUS
 62
     7
100
AcDbLine
 10
351.71517
 20
68.0
 30
0.0
 11
426.807139
 21
68.0
 31
0.0
  0
LINE
  5
1FB
330
1F
100
AcDbEntity
  8
GR1-1
  6
CONTINUOUS
 62
     7
100
AcDbLine
 10
425.807139
 20
68.0
 30
0.0
 11
425.807139
 21
200.0
 31
0.0
  0
INSERT
  5
1FC
330
1F
100
AcDbEntity
  8
GR1-1
  6
CONTINUOUS
 62
     7
100
AcDbBlockReference
  2
FXTIP_ARROW_S
 10
425.807139
 20
68.0
 30
0.0
 41
4.0
 42
4.0
 50
270.0
  0
INSERT
  5
1FD
330
1F
100
AcDbEntity
  8
GR1-1
  6
CONTINUOUS
 62
     7
100
AcDbBlockReference
  2
FXTIP_ARROW_E
 10
425.807139
 20
200.0
 30
0.0
 41
4.0
 42
4.0
 50
90.0
  0
TEXT
  5
1FE
330
1F
100
AcDbEntity
  8
GR1-1
  6
CONTINUOUS
 62
     7
100
AcDbText
 10
270.836677
 20
337.826613
 30
0.0
 40
4.0
  1
4-11
 50
63.434948
 41
0.818182
  7
FX_VECTOR
 72
     5
 11
276.20324
 21
348.559739
 31
0.0
100
AcDbText
  0
LINE
  5
1FF
330
1F
100
AcDbEntity
  8
GR1-1
  6
CONTINUOUS
 62
     7
100
AcDbLine
 10
307.361068
 20
338.027864
 30
0.0
 11
278.216506
 21
352.600145
 31
0.0
  0
LINE
  5
200
330
1F
100
AcDbEntity
  8
GR1-1
  6
CONTINUOUS
 62
     7
100
AcDbLine
 10
312.280418
 20
347.866563
 30
0.0
 11
283.135856
 21
362.438844
 31
0.0
  0
LINE
  5
201
330
1F
100
AcDbEntity
  8
GR1-1
  6
CONTINUOUS
 62
     7
100
AcDbLine
 10
279.110934
 20
352.152931
 30
0.0
 11
284.030283
 21
361.991631
 31
0.0
  0
LINE
  5
202
330
1F
100
AcDbEntity
  8
GR1-1
  6
CONTINUOUS
 62
     7
100
AcDbLine
 10
286.713565
 20
367.358194
 30
0.0
 11
284.030283
 21
361.991631
 31
0.0
  0
INSERT
  5
203
330
1F
100
AcDbEntity
  8
GR1-1
  6
CONTINUOUS
 62
     7
100
AcDbBlockReference
  2
FXTIP_ARROW_E
 10
284.030283
 20
361.991631
 30
0.0
 41
4.0
 42
4.0
 50
243.434949
  0
LINE
  5
204
330
1F
100
AcDbEntity
  8
GR1-1
  6
CONTINUOUS
 62
     7
100
AcDbLine
 10
271.019975
 20
335.971015
 30
0.0
 11
279.110934
 21
352.152931
 31
0.0
  0
INSERT
  5
205
330
1F
100
AcDbEntity
  8
GR1-1
  6
CONTINUOUS
 62
     7
100
AcDbBlockReference
  2
FXTIP_ARROW_E
 10
279.110934
 20
352.152931
 30
0.0
 41
4.0
 42
4.0
 50
63.434949
  0
LINE
  5
206
330
1F
100
AcDbEntity
  8
GR1-1
  6
CONTINUOUS
 62
     7
100
AcDbLine
 10
328.085267
 20
86.399335
 30
0.0
 11
327.734494
 21
86.318352
 31
0.0
  0
LINE
  5
207
330
1F
100
AcDbEntity
  8
GR1-1
  6
CONTINUOUS
 62
     7
100
AcDbLine
 10
328.301145
 20
86.264439
 30
0.0
 11
327.599599
 21
86.102474
 31
0.0
  0
LINE
  5
208
330
1F
100
AcDbEntity
  8
GR1-1
  6
CONTINUOUS
 62
     7
100
AcDbLine
 10
328.517023
 20
86.129544
 30
0.0
 11
327.464703
 21
85.886597
 31
0.0
  0
LINE
  5
209
330
1F
100
AcDbEntity
  8
GR1-1
  6
CONTINUOUS
 62
     7
100
AcDbLine
 10
328.732901
 20
85.994648
 30
0.0
 11
327.329808
 21
85.670719
 31
0.0
  0
LINE
  5
20A
330
1F
100
AcDbEntity
  8
GR1-1
  6
CONTINUOUS
 62
     7
100
AcDbLine
 10
328.948779
 20
85.859753
 30
0.0
 11
327.73877
 21
85.5804
 31
0.0
  0
LINE
  5
20B
330
1F
100
AcDbEntity
  8
GR1-1
  6
CONTINUOUS
 62
     7
100
AcDbLine
 10
327.407692
 20
85.503965
 30
0.0
 11
327.194913
 21
85.454841
 31
0.0
  0
LINE
  5
20C
330
1F
100
AcDbEntity
  8
GR1-1
  6
CONTINUOUS
 62
     7
100
AcDbLine
 10
329.164656
 20
85.724857
 30
0.0
 11
327.954648
 21
85.445505
 31
0.0
  0
LINE
  5
20D
330
1F
100
AcDbEntity
  8
GR1-1
  6
CONTINUOUS
 62
     7
100
AcDbLine
 10
327.272797
 20
85.288087
 30
0.0
 11
327.060017
 21
85.238963
 31
0.0
  0
LINE
  5
20E
330
1F
100
AcDbEntity
  8
GR1-1
  6
CONTINUOUS
 62
     7
100
AcDbLine
 10
329.380534
 20
85.589962
 30
0.0
 11
328.170525
 21
85.310609
 31
0.0
  0
LINE
  5
20F
330
1F
100
AcDbEntity
  8
GR1-1
  6
CONTINUOUS
 62
     7
100
AcDbLine
 10
327.137901
 20
85.072209
 30
0.0
 11
326.925122
 21
85.023085
 31
0.0
  0
LINE
  5
210
330
1F
100
AcDbEntity
  8
GR1-1
  6
CONTINUOUS
 62
     7
100
AcDbLine
 10
329.596412
 20
85.455067
 30
0.0
 11
328.243177
 21
85.142648
 31
0.0
  0
LINE
  5
211
330
1F
100
AcDbEntity
  8
GR1-1
  6
CONTINUOUS
 62
     7
100
AcDbLine
 10
327.003006
 20
84.856332
 30
0.0
 11
326.790226
 21
84.807208
 31
0.0
  0
LINE
  5
212
330
1F
100
AcDbEntity
  8
GR1-1
  6
CONTINUOUS
 62
     7
100
AcDbLine
 10
329.81229
 20
85.320171
 30
0.0
 11
328.108281
 21
84.92677
 31
0.0
  0
LINE
  5
213
330
1F
100
AcDbEntity
  8
GR1-1
  6
CONTINUOUS
 62
     7
100
AcDbLine
 10
326.868111
 20
84.640454
 30
0.0
 11
326.655331
 21
84.59133
 31
0.0
  0
LINE
  5
214
330
1F
100
AcDbEntity
  8
GR1-1
  6
CONTINUOUS
 62
     7
100
AcDbLine
 10
330.028168
 20
85.185276
 30
0.0
 11
327.973386
 21
84.710892
 31
0.0
  0
LINE
  5
215
330
1F
100
AcDbEntity
  8
GR1-1
  6
CONTINUOUS
 62
     7
100
AcDbLine
 10
326.733215
 20
84.424576
 30
0.0
 11
326.520435
 21
84.375452
 31
0.0
  0
LINE
  5
216
330
1F
100
AcDbEntity
  8
GR1-1
  6
CONTINUOUS
 62
     7
100
AcDbLine
 10
330.244045
 20
85.05038
 30
0.0
 11
327.940975
 21
84.518674
 31
0.0
  0
LINE
  5
217
330
1F
100
AcDbEntity
  8
GR1-1
  6
CONTINUOUS
 62
     7
100
AcDbLine
 10
326.59832
 20
84.208698
 30
0.0
 11
326.38554
 21
84.159574
 31
0.0
  0
LINE
  5
218
330
1F
100
AcDbEntity
  8
GR1-1
  6
CONTINUOUS
 62
     7
100
AcDbLine
 10
330.459923
 20
84.915485
 30
0.0
 11
330.10915
 21
84.834503
 31
0.0
  0
LINE
  5
219
330
1F
100
AcDbEntity
  8
GR1-1
  6
CONTINUOUS
 62
     7
100
AcDbLine
 10
326.739411
 20
84.056537
 30
0.0
 11
326.250645
 21
83.943696
 31
0.0
  0
LINE
  5
21A
330
1F
100
AcDbEntity
  8
GR1-1
  6
CONTINUOUS
 62
     7
100
AcDbLine
 10
330.675801
 20
84.780589
 30
0.0
 11
330.149641
 21
84.659116
 31
0.0
  0
LINE
  5
21B
330
1F
100
AcDbEntity
  8
GR1-1
  6
CONTINUOUS
 62
     7
100
AcDbLine
 10
326.955289
 20
83.921642
 30
0.0
 11
326.115749
 21
83.727819
 31
0.0
  0
LINE
  5
21C
330
1F
100
AcDbEntity
  8
GR1-1
  6
CONTINUOUS
 62
     7
100
AcDbLine
 10
330.891679
 20
84.645694
 30
0.0
 11
330.190132
 21
84.483729
 31
0.0
  0
LINE
  5
21D
330
1F
100
AcDbEntity
  8
GR1-1
  6
CONTINUOUS
 62
     7
100
AcDbLine
 10
327.171167
 20
83.786746
 30
0.0
 11
326.799116
 21
83.700851
 31
0.0
  0
LINE
  5
21E
330
1F
100
AcDbEntity
  8
GR1-1
  6
CONTINUOUS
 62
     7
100
AcDbLine
 10
326.6824
 20
83.673906
 30
0.0
 11
325.980854
 21
83.511941
 31
0.0
  0
LINE
  5
21F
330
1F
100
AcDbEntity
  8
GR1-1
  6
CONTINUOUS
 62
     7
100
AcDbLine
 10
331.107557
 20
84.510799
 30
0.0
 11
330.230624
 21
84.308343
 31
0.0
  0
LINE
  5
220
330
1F
100
AcDbEntity
  8
GR1-1
  6
CONTINUOUS
 62
     7
100
AcDbLine
 10
327.387045
 20
83.651851
 30
0.0
 11
327.014994
 21
83.565956
 31
0.0
  0
LINE
  5
221
330
1F
100
AcDbEntity
  8
GR1-1
  6
CONTINUOUS
 62
     7
100
AcDbLine
 10
326.722891
 20
83.498519
 30
0.0
 11
325.845958
 21
83.296063
 31
0.0
  0
LINE
  5
222
330
1F
100
AcDbEntity
  8
GR1-1
  6
CONTINUOUS
 62
     7
100
AcDbLine
 10
331.323434
 20
84.375903
 30
0.0
 11
330.271115
 21
84.132956
 31
0.0
  0
LINE
  5
223
330
1F
100
AcDbEntity
  8
GR1-1
  6
CONTINUOUS
 62
     7
100
AcDbLine
 10
327.602923
 20
83.516955
 30
0.0
 11
327.230871
 21
83.431061
 31
0.0
  0
LINE
  5
224
330
1F
100
AcDbEntity
  8
GR1-1
  6
CONTINUOUS
 62
     7
100
AcDbLine
 10
326.763383
 20
83.323132
 30
0.0
 11
325.711063
 21
83.080185
 31
0.0
  0
LINE
  5
225
330
1F
100
AcDbEntity
  8
GR1-1
  6
CONTINUOUS
 62
     7
100
AcDbLine
 10
331.539312
 20
84.241008
 30
0.0
 11
330.311606
 21
83.957569
 31
0.0
  0
LINE
  5
226
330
1F
100
AcDbEntity
  8
GR1-1
  6
CONTINUOUS
 62
     7
100
AcDbLine
 10
329.434673
 20
83.755114
 30
0.0
 11
328.440769
 21
83.525653
 31
0.0
  0
LINE
  5
227
330
1F
100
AcDbEntity
  8
GR1-1
  6
CONTINUOUS
 62
     7
100
AcDbLine
 10
327.8188
 20
83.38206
 30
0.0
 11
327.446749
 21
83.296165
 31
0.0
  0
LINE
  5
228
330
1F
100
AcDbEntity
  8
GR1-1
  6
CONTINUOUS
 62
     7
100
AcDbLine
 10
326.803874
 20
83.147746
 30
0.0
 11
325.576167
 21
82.864307
 31
0.0
  0
LINE
  5
229
330
1F
100
AcDbEntity
  8
GR1-1
  6
CONTINUOUS
 62
     7
100
AcDbLine
 10
331.75519
 20
84.106112
 30
0.0
 11
330.352097
 21
83.782183
 31
0.0
  0
LINE
  5
22A
330
1F
100
AcDbEntity
  8
GR1-1
  6
CONTINUOUS
 62
     7
100
AcDbLine
 10
329.475164
 20
83.579727
 30
0.0
 11
328.654764
 21
83.390322
 31
0.0
  0
LINE
  5
22B
330
1F
100
AcDbEntity
  8
GR1-1
  6
CONTINUOUS
 62
     7
100
AcDbLine
 10
328.034678
 20
83.247165
 30
0.0
 11
327.662627
 21
83.16127
 31
0.0
  0
LINE
  5
22C
330
1F
100
AcDbEntity
  8
GR1-1
  6
CONTINUOUS
 62
     7
100
AcDbLine
 10
326.844365
 20
82.972359
 30
0.0
 11
325.441272
 21
82.64843
 31
0.0
  0
LINE
  5
22D
330
1F
100
AcDbEntity
  8
GR1-1
  6
CONTINUOUS
 62
     7
100
AcDbLine
 10
331.971068
 20
83.971217
 30
0.0
 11
330.392588
 21
83.606796
 31
0.0
  0
LINE
  5
22E
330
1F
100
AcDbEntity
  8
GR1-1
  6
CONTINUOUS
 62
     7
100
AcDbLine
 10
329.515655
 20
83.40434
 30
0.0
 11
328.870641
 21
83.255427
 31
0.0
  0
LINE
  5
22F
330
1F
100
AcDbEntity
  8
GR1-1
  6
CONTINUOUS
 62
     7
100
AcDbLine
 10
328.250556
 20
83.112269
 30
0.0
 11
327.761789
 21
82.999428
 31
0.0
  0
LINE
  5
230
330
1F
100
AcDbEntity
  8
GR1-1
  6
CONTINUOUS
 62
     7
100
AcDbLine
 10
326.884856
 20
82.796972
 30
0.0
 11
325.306377
 21
82.432552
 31
0.0
  0
LINE
  5
231
330
1F
100
AcDbEntity
  8
GR1-1
  6
CONTINUOUS
 62
     7
100
AcDbLine
 10
332.186946
 20
83.836322
 30
0.0
 11
330.43308
 21
83.43141
 31
0.0
  0
LINE
  5
232
330
1F
100
AcDbEntity
  8
GR1-1
  6
CONTINUOUS
 62
     7
100
AcDbLine
 10
329.556147
 20
83.228954
 30
0.0
 11
328.891993
 21
83.075622
 31
0.0
  0
LINE
  5
233
330
1F
100
AcDbEntity
  8
GR1-1
  6
CONTINUOUS
 62
     7
100
AcDbLine
 10
328.466434
 20
82.977374
 30
0.0
 11
327.80228
 21
82.824042
 31
0.0
  0
LINE
  5
234
330
1F
100
AcDbEntity
  8
GR1-1
  6
CONTINUOUS
 62
     7
100
AcDbLine
 10
326.925347
 20
82.621586
 30
0.0
 11
325.171481
 21
82.216674
 31
0.0
  0
LINE
  5
235
330
1F
100
AcDbEntity
  8
GR1-1
  6
CONTINUOUS
 62
     7
100
AcDbLine
 10
332.402824
 20
83.701426
 30
0.0
 11
330.473571
 21
83.256023
 31
0.0
  0
LINE
  5
236
330
1F
100
AcDbEntity
  8
GR1-1
  6
CONTINUOUS
 62
     7
100
AcDbLine
 10
329.596638
 20
83.053567
 30
0.0
 11
328.757098
 21
82.859744
 31
0.0
  0
LINE
  5
237
330
1F
100
AcDbEntity
  8
GR1-1
  6
CONTINUOUS
 62
     7
100
AcDbLine
 10
328.682312
 20
82.842478
 30
0.0
 11
327.842772
 21
82.648655
 31
0.0
  0
LINE
  5
238
330
1F
100
AcDbEntity
  8
GR1-1
  6
CONTINUOUS
 62
     7
100
AcDbLine
 10
326.965839
 20
82.446199
 30
0.0
 11
325.036586
 21
82.000796
 31
0.0
  0
LINE
  5
239
330
1F
100
AcDbEntity
  8
GR1-1
  6
CONTINUOUS
 62
     7
100
AcDbLine
 10
332.342714
 20
83.502814
 30
0.0
 11
330.514062
 21
83.080636
 31
0.0
  0
LINE
  5
23A
330
1F
100
AcDbEntity
  8
GR1-1
  6
CONTINUOUS
 62
     7
100
AcDbLine
 10
329.637129
 20
82.87818
 30
0.0
 11
327.883263
 21
82.473269
 31
0.0
  0
LINE
  5
23B
330
1F
100
AcDbEntity
  8
GR1-1
  6
CONTINUOUS
 62
     7
100
AcDbLine
 10
327.00633
 20
82.270813
 30
0.0
 11
325.177678
 21
81.848635
 31
0.0
  0
LINE
  5
23C
330
1F
100
AcDbEntity
  8
GR1-1
  6
CONTINUOUS
 62
     7
100
AcDbLine
 10
332.207819
 20
83.286936
 30
0.0
 11
330.554553
 21
82.90525
 31
0.0
  0
LINE
  5
23D
330
1F
100
AcDbEntity
  8
GR1-1
  6
CONTINUOUS
 62
     7
100
AcDbLine
 10
329.67762
 20
82.702794
 30
0.0
 11
327.923754
 21
82.297882
 31
0.0
  0
LINE
  5
23E
330
1F
100
AcDbEntity
  8
GR1-1
  6
CONTINUOUS
 62
     7
100
AcDbLine
 10
327.046821
 20
82.095426
 30
0.0
 11
325.393555
 21
81.71374
 31
0.0
  0
LINE
  5
23F
330
1F
100
AcDbEntity
  8
GR1-1
  6
CONTINUOUS
 62
     7
100
AcDbLine
 10
332.072923
 20
83.071058
 30
0.0
 11
330.595044
 21
82.729863
 31
0.0
  0
LINE
  5
240
330
1F
100
AcDbEntity
  8
GR1-1
  6
CONTINUOUS
 62
     7
100
AcDbLine
 10
329.718111
 20
82.527407
 30
0.0
 11
327.964245
 21
82.122495
 31
0.0
  0
LINE
  5
241
330
1F
100
AcDbEntity
  8
GR1-1
  6
CONTINUOUS
 62
     7
100
AcDbLine
 10
327.087312
 20
81.920039
 30
0.0
 11
325.609433
 21
81.578844
 31
0.0
  0
LINE
  5
242
330
1F
100
AcDbEntity
  8
GR1-1
  6
CONTINUOUS
 62
     7
100
AcDbLine
 10
331.938028
 20
82.855181
 30
0.0
 11
330.635536
 21
82.554477
 31
0.0
  0
LINE
  5
243
330
1F
100
AcDbEntity
  8
GR1-1
  6
CONTINUOUS
 62
     7
100
AcDbLine
 10
329.758602
 20
82.352021
 30
0.0
 11
328.004736
 21
81.947109
 31
0.0
  0
LINE
  5
244
330
1F
100
AcDbEntity
  8
GR1-1
  6
CONTINUOUS
 62
     7
100
AcDbLine
 10
327.127803
 20
81.744653
 30
0.0
 11
325.825311
 21
81.443949
 31
0.0
  0
LINE
  5
245
330
1F
100
AcDbEntity
  8
GR1-1
  6
CONTINUOUS
 62
     7
100
AcDbLine
 10
331.803132
 20
82.639303
 30
0.0
 11
330.676027
 21
82.37909
 31
0.0
  0
LINE
  5
246
330
1F
100
AcDbEntity
  8
GR1-1
  6
CONTINUOUS
 62
     7
100
AcDbLine
 10
329.799094
 20
82.176634
 30
0.0
 11
328.045228
 21
81.771722
 31
0.0
  0
LINE
  5
247
330
1F
100
AcDbEntity
  8
GR1-1
  6
CONTINUOUS
 62
     7
100
AcDbLine
 10
327.168294
 20
81.569266
 30
0.0
 11
326.041189
 21
81.309053
 31
0.0
  0
LINE
  5
248
330
1F
100
AcDbEntity
  8
GR1-1
  6
CONTINUOUS
 62
     7
100
AcDbLine
 10
331.668237
 20
82.423425
 30
0.0
 11
330.716518
 21
82.203703
 31
0.0
  0
LINE
  5
249
330
1F
100
AcDbEntity
  8
GR1-1
  6
CONTINUOUS
 62
     7
100
AcDbLine
 10
327.208786
 20
81.39388
 30
0.0
 11
326.257067
 21
81.174158
 31
0.0
  0
LINE
  5
24A
330
1F
100
AcDbEntity
  8
GR1-1
  6
CONTINUOUS
 62
     7
100
AcDbLine
 10
331.533342
 20
82.207547
 30
0.0
 11
330.757009
 21
82.028317
 31
0.0
  0
LINE
  5
24B
330
1F
100
AcDbEntity
  8
GR1-1
  6
CONTINUOUS
 62
     7
100
AcDbLine
 10
327.249277
 20
81.218493
 30
0.0
 11
326.472944
 21
81.039262
 31
0.0
  0
LINE
  5
24C
330
1F
100
AcDbEntity
  8
GR1-1
  6
CONTINUOUS
 62
     7
100
AcDbLine
 10
331.398446
 20
81.991669
 30
0.0
 11
330.7975
 21
81.85293
 31
0.0
  0
LINE
  5
24D
330
1F
100
AcDbEntity
  8
GR1-1
  6
CONTINUOUS
 62
     7
100
AcDbLine
 10
327.289768
 20
81.043106
 30
0.0
 11
326.688822
 21
80.904367
 31
0.0
  0
LINE
  5
24E
330
1F
100
AcDbEntity
  8
GR1-1
  6
CONTINUOUS
 62
     7
100
AcDbLine
 10
331.263551
 20
81.775792
 30
0.0
 11
330.837991
 21
81.677544
 31
0.0
  0
LINE
  5
24F
330
1F
100
AcDbEntity
  8
GR1-1
  6
CONTINUOUS
 62
     7
100
AcDbLine
 10
327.330259
 20
80.86772
 30
0.0
 11
326.9047
 21
80.769472
 31
0.0
  0
LINE
  5
250
330
1F
100
AcDbEntity
  8
GR1-1
  6
CONTINUOUS
 62
     7
100
AcDbLine
 10
331.128655
 20
81.559914
 30
0.0
 11
330.878483
 21
81.502157
 31
0.0
  0
LINE
  5
251
330
1F
100
AcDbEntity
  8
GR1-1
  6
CONTINUOUS
 62
     7
100
AcDbLine
 10
327.37075
 20
80.692333
 30
0.0
 11
327.120578
 21
80.634576
 31
0.0
  0
LINE
  5
252
330
1F
100
AcDbEntity
  8
GR1-1
  6
CONTINUOUS
 62
     7
100
AcDbLine
 10
330.99376
 20
81.344036
 30
0.0
 11
327.336456
 21
80.499681
 31
0.0
  0
LINE
  5
253
330
1F
100
AcDbEntity
  8
GR1-1
  6
CONTINUOUS
 62
     7
100
AcDbLine
 10
330.858864
 20
81.128158
 30
0.0
 11
327.552333
 21
80.364785
 31
0.0
  0
LINE
  5
254
330
1F
100
AcDbEntity
  8
GR1-1
  6
CONTINUOUS
 62
     7
100
AcDbLine
 10
330.723969
 20
80.91228
 30
0.0
 11
327.768211
 21
80.22989
 31
0.0
  0
LINE
  5
255
330
1F
100
AcDbEntity
  8
GR1-1
  6
CONTINUOUS
 62
     7
100
AcDbLine
 10
330.589074
 20
80.696403
 30
0.0
 11
327.984089
 21
80.094995
 31
0.0
  0
LINE
  5
256
330
1F
100
AcDbEntity
  8
GR1-1
  6
CONTINUOUS
 62
     7
100
AcDbLine
 10
330.454178
 20
80.480525
 30
0.0
 11
328.199967
 21
79.960099
 31
0.0
  0
LINE
  5
257
330
1F
100
AcDbEntity
  8
GR1-1
  6
CONTINUOUS
 62
     7
100
AcDbLine
 10
330.319283
 20
80.264647
 30
0.0
 11
328.415845
 21
79.825204
 31
0.0
  0
LINE
  5
258
330
1F
100
AcDbEntity
  8
GR1-1
  6
CONTINUOUS
 62
     7
100
AcDbLine
 10
330.184387
 20
80.048769
 30
0.0
 11
328.631722
 21
79.690308
 31
0.0
  0
LINE
  5
259
330
1F
100
AcDbEntity
  8
GR1-1
  6
CONTINUOUS
 62
     7
100
AcDbLine
 10
330.049492
 20
79.832891
 30
0.0
 11
328.8476
 21
79.555413
 31
0.0
  0
LINE
  5
25A
330
1F
100
AcDbEntity
  8
GR1-1
  6
CONTINUOUS
 62
     7
100
AcDbLine
 10
329.914597
 20
79.617014
 30
0.0
 11
329.063478
 21
79.420517
 31
0.0
  0
LINE
  5
25B
330
1F
100
AcDbEntity
  8
GR1-1
  6
CONTINUOUS
 62
     7
100
AcDbLine
 10
329.779701
 20
79.401136
 30
0.0
 11
329.279356
 21
79.285622
 31
0.0
  0
LINE
  5
25C
330
1F
100
AcDbEntity
  8
GR1-1
  6
CONTINUOUS
 62
     7
100
AcDbLine
 10
329.644806
 20
79.185258
 30
0.0
 11
329.495234
 21
79.150727
 31
0.0
  0
TEXT
  5
25D
330
1F
100
AcDbEntity
  8
GR1-1
  6
CONTINUOUS
 62
     7
100
AcDbText
 10
434.508728
 20
317.0
 30
0.0
 40
4.0
  1
77
 50
90.0
 41
0.851351
  7
FX_VECTOR
 72
     5
 11
434.508728
 21
323.0
 31
0.0
100
AcDbText
  0
LINE
  5
25E
330
1F
100
AcDbEntity
  8
GR1-1
  6
CONTINUOUS
 62
     7
100
AcDbLine
 10
397.71517
 20
281.5
 30
0.0
 11
436.508732
 21
281.5
 31
0.0
  0
LINE
  5
25F
330
1F
100
AcDbEntity
  8
GR1-1
  6
CONTINUOUS
 62
     7
100
AcDbLine
 10
397.71517
 20
358.5
 30
0.0
 11
436.508732
 21
358.5
 31
0.0
  0
LINE
  5
260
330
1F
100
AcDbEntity
  8
GR1-1
  6
CONTINUOUS
 62
     7
100
AcDbLine
 10
435.508732
 20
281.5
 30
0.0
 11
435.508732
 21
358.5
 31
0.0
  0
INSERT
  5
261
330
1F
100
AcDbEntity
  8
GR1-1
  6
CONTINUOUS
 62
     7
100
AcDbBlockReference
  2
FXTIP_ARROW_S
 10
435.508732
 20
281.5
 30
0.0
 41
4.0
 42
4.0
 50
270.0
  0
INSERT
  5
262
330
1F
100
AcDbEntity
  8
GR1-1
  6
CONTINUOUS
 62
     7
100
AcDbBlockReference
  2
FXTIP_ARROW_E
 10
435.508732
 20
358.5
 30
0.0
 41
4.0
 42
4.0
 50
90.0
  0
TEXT
  5
263
330
1F
100
AcDbEntity
  8
GR1-1
  6
CONTINUOUS
 62
     7
100
AcDbText
 10
414.508728
 20
317.0
 30
0.0
 40
4.0
  1
45
 50
90.0
 41
0.851351
  7
FX_VECTOR
 72
     5
 11
414.508728
 21
323.0
 31
0.0
100
AcDbText
  0
LINE
  5
264
330
1F
100
AcDbEntity
  8
GR1-1
  6
CONTINUOUS
 62
     7
100
AcDbLine
 10
399.21517
 20
342.5
 30
0.0
 11
416.508732
 21
342.5
 31
0.0
  0
LINE
  5
265
330
1F
100
AcDbEntity
  8
GR1-1
  6
CONTINUOUS
 62
     7
100
AcDbLine
 10
399.21517
 20
297.5
 30
0.0
 11
416.508732
 21
297.5
 31
0.0
  0
LINE
  5
266
330
1F
100
AcDbEntity
  8
GR1-1
  6
CONTINUOUS
 62
     7
100
AcDbLine
 10
415.508732
 20
342.5
 30
0.0
 11
415.508732
 21
297.5
 31
0.0
  0
INSERT
  5
267
330
1F
100
AcDbEntity
  8
GR1-1
  6
CONTINUOUS
 62
     7
100
AcDbBlockReference
  2
FXTIP_ARROW_S
 10
415.508732
 20
342.5
 30
0.0
 41
4.0
 42
4.0
 50
90.0
  0
INSERT
  5
268
330
1F
100
AcDbEntity
  8
GR1-1
  6
CONTINUOUS
 62
     7
100
AcDbBlockReference
  2
FXTIP_ARROW_E
 10
415.508732
 20
297.5
 30
0.0
 41
4.0
 42
4.0
 50
270.0
  0
TEXT
  5
269
330
1F
100
AcDbEntity
  8
GR1-1
  6
CONTINUOUS
 62
     7
100
AcDbText
 10
424.508728
 20
317.0
 30
0.0
 40
4.0
  1
50
 50
90.0
 41
0.851351
  7
FX_VECTOR
 72
     5
 11
424.508728
 21
323.0
 31
0.0
100
AcDbText
  0
LINE
  5
26A
330
1F
100
AcDbEntity
  8
GR1-1
  6
CONTINUOUS
 62
     7
100
AcDbLine
 10
404.21517
 20
345.0
 30
0.0
 11
426.508732
 21
345.0
 31
0.0
  0
LINE
  5
26B
330
1F
100
AcDbEntity
  8
GR1-1
  6
CONTINUOUS
 62
     7
100
AcDbLine
 10
404.21517
 20
295.0
 30
0.0
 11
426.508732
 21
295.0
 31
0.0
  0
LINE
  5
26C
330
1F
100
AcDbEntity
  8
GR1-1
  6
CONTINUOUS
 62
     7
100
AcDbLine
 10
425.508732
 20
345.0
 30
0.0
 11
425.508732
 21
295.0
 31
0.0
  0
INSERT
  5
26D
330
1F
100
AcDbEntity
  8
GR1-1
  6
CONTINUOUS
 62
     7
100
AcDbBlockReference
  2
FXTIP_ARROW_S
 10
425.508732
 20
345.0
 30
0.0
 41
4.0
 42
4.0
 50
90.0
  0
INSERT
  5
26E
330
1F
100
AcDbEntity
  8
GR1-1
  6
CONTINUOUS
 62
     7
100
AcDbBlockReference
  2
FXTIP_ARROW_E
 10
425.508732
 20
295.0
 30
0.0
 41
4.0
 42
4.0
 50
270.0
  0
TEXT
  5
26F
330
1F
100
AcDbEntity
  8
GR1-1
  6
CONTINUOUS
 62
     7
100
AcDbText
 10
347.715179
 20
272.301208
 30
0.0
 40
4.0
  1
80
 41
0.851351
  7
FX_VECTOR
 72
     5
 11
353.715179
 21
272.301208
 31
0.0
100
AcDbText
  0
LINE
  5
270
330
1F
100
AcDbEntity
  8
GR1-1
  6
CONTINUOUS
 62
     7
100
AcDbLine
 10
310.71517
 20
289.0
 30
0.0
 11
310.71517
 21
270.301194
 31
0.0
  0
LINE
  5
271
330
1F
100
AcDbEntity
  8
GR1-1
  6
CONTINUOUS
 62
     7
100
AcDbLine
 10
390.71517
 20
289.0
 30
0.0
 11
390.71517
 21
270.301194
 31
0.0
  0
LINE
  5
272
330
1F
100
AcDbEntity
  8
GR1-1
  6
CONTINUOUS
 62
     7
100
AcDbLine
 10
310.71517
 20
271.301194
 30
0.0
 11
390.71517
 21
271.301194
 31
0.0
  0
INSERT
  5
273
330
1F
100
AcDbEntity
  8
GR1-1
  6
CONTINUOUS
 62
     7
100
AcDbBlockReference
  2
FXTIP_ARROW_S
 10
310.71517
 20
271.301194
 30
0.0
 41
4.0
 42
4.0
 50
180.0
  0
INSERT
  5
274
330
1F
100
AcDbEntity
  8
GR1-1
  6
CONTINUOUS
 62
     7
100
AcDbBlockReference
  2
FXTIP_ARROW_E
 10
390.71517
 20
271.301194
 30
0.0
 41
4.0
 42
4.0
 50
360.0
  0
TEXT
  5
275
330
1F
100
AcDbEntity
  8
GR1-1
  6
CONTINUOUS
 62
     7
100
AcDbText
 10
347.715179
 20
262.301208
 30
0.0
 40
4.0
  1
90
 41
0.851351
  7
FX_VECTOR
 72
     5
 11
353.715179
 21
262.301208
 31
0.0
100
AcDbText
  0
LINE
  5
276
330
1F
100
AcDbEntity
  8
GR1-1
  6
CONTINUOUS
 62
     7
100
AcDbLine
 10
305.71517
 20
286.5
 30
0.0
 11
305.71517
 21
260.301194
 31
0.0
  0
LINE
  5
277
330
1F
100
AcDbEntity
  8
GR1-1
  6
CONTINUOUS
 62
     7
100
AcDbLine
 10
395.71517
 20
286.5
 30
0.0
 11
395.71517
 21
260.301194
 31
0.0
  0
LINE
  5
278
330
1F
100
AcDbEntity
  8
GR1-1
  6
CONTINUOUS
 62
     7
100
AcDbLine
 10
305.71517
 20
261.301194
 30
0.0
 11
395.71517
 21
261.301194
 31
0.0
  0
INSERT
  5
279
330
1F
100
AcDbEntity
  8
GR1-1
  6
CONTINUOUS
 62
     7
100
AcDbBlockReference
  2
FXTIP_ARROW_S
 10
305.71517
 20
261.301194
 30
0.0
 41
4.0
 42
4.0
 50
180.0
  0
INSERT
  5
27A
330
1F
100
AcDbEntity
  8
GR1-1
  6
CONTINUOUS
 62
     7
100
AcDbBlockReference
  2
FXTIP_ARROW_E
 10
395.71517
 20
261.301194
 30
0.0
 41
4.0
 42
4.0
 50
360.0
  0
TEXT
  5
27B
330
1F
100
AcDbEntity
  8
GR1-1
  6
CONTINUOUS
 62
     7
100
AcDbText
 10
346.215179
 20
252.301193
 30
0.0
 40
4.0
  1
110
 41
0.828947
  7
FX_VECTOR
 72
     5
 11
355.215179
 21
252.301193
 31
0.0
100
AcDbText
  0
LINE
  5
27C
330
1F
100
AcDbEntity
  8
GR1-1
  6
CONTINUOUS
 62
     7
100
AcDbLine
 10
295.71517
 20
290.0
 30
0.0
 11
295.71517
 21
250.301194
 31
0.0
  0
LINE
  5
27D
330
1F
100
AcDbEntity
  8
GR1-1
  6
CONTINUOUS
 62
     7
100
AcDbLine
 10
405.71517
 20
290.0
 30
0.0
 11
405.71517
 21
250.301194
 31
0.0
  0
LINE
  5
27E
330
1F
100
AcDbEntity
  8
GR1-1
  6
CONTINUOUS
 62
     7
100
AcDbLine
 10
295.71517
 20
251.301194
 30
0.0
 11
405.71517
 21
251.301194
 31
0.0
  0
INSERT
  5
27F
330
1F
100
AcDbEntity
  8
GR1-1
  6
CONTINUOUS
 62
     7
100
AcDbBlockReference
  2
FXTIP_ARROW_S
 10
295.71517
 20
251.301194
 30
0.0
 41
4.0
 42
4.0
 50
180.0
  0
INSERT
  5
280
330
1F
100
AcDbEntity
  8
GR1-1
  6
CONTINUOUS
 62
     7
100
AcDbBlockReference
  2
FXTIP_ARROW_E
 10
405.71517
 20
251.301194
 30
0.0
 41
4.0
 42
4.0
 50
360.0
  0
ARC
  5
281
330
1F
100
AcDbEntity
  8
GR1-1
  6
CONTINUOUS
 62
     3
100
AcDbCircle
 10
201.945465
 20
169.432
 30
0.0
 40
89.84301650277952
100
AcDbArc
 50
184.745048
 51
195.842661
  0
ARC
  5
282
330
1F
100
AcDbEntity
  8
GR1-1
  6
CONTINUOUS
 62
     3
100
AcDbCircle
 10
164.693877
 20
158.860899
 30
0.0
 40
51.12055584056337
100
AcDbArc
 50
195.842661
 51
203.037408
  0
ARC
  5
283
330
1F
100
AcDbEntity
  8
GR1-1
  6
CONTINUOUS
 62
     3
100
AcDbCircle
 10
-165.201868
 20
18.574196
 30
0.0
 40
307.3645376202534
100
AcDbArc
 50
21.460639
 51
23.037408
  0
ARC
  5
284
330
1F
100
AcDbEntity
  8
GR1-1
  6
CONTINUOUS
 62
     3
100
AcDbCircle
 10
-58.374945
 20
60.569687
 30
0.0
 40
192.5794657725243
100
AcDbArc
 50
19.651452
 51
21.460639
  0
ARC
  5
285
330
1F
100
AcDbEntity
  8
GR1-1
  6
CONTINUOUS
 62
     3
100
AcDbCircle
 10
84.508999
 20
111.592996
 30
0.0
 40
40.85867054004483
100
AcDbArc
 50
9.835674
 51
19.651452
  0
ARC
  5
286
330
1F
100
AcDbEntity
  8
GR1-1
  6
CONTINUOUS
 62
     3
100
AcDbCircle
 10
59.213091
 20
107.207412
 30
0.0
 40
66.53193167802387
100
AcDbArc
 50
6.552839
 51
9.835674
  0
LINE
  5
287
330
1F
100
AcDbEntity
  8
LAYERGROUP-1
  6
CONTINUOUS
 62
     3
100
AcDbLine
 10
116.158877
 20
107.030345
 30
0.0
 11
115.310372
 21
108.5
 31
0.0
  0
LINE
  5
288
330
1F
100
AcDbEntity
  8
LAYERGROUP-1
  6
CONTINUOUS
 62
     3
100
AcDbLine
 10
115.310372
 20
108.5
 30
0.0
 11
115.310372
 21
127.5
 31
0.0
  0
LINE
  5
289
330
1F
100
AcDbEntity
  8
LAYERGROUP-1
  6
CONTINUOUS
 62
     3
100
AcDbLine
 10
115.310372
 20
127.5
 30
0.0
 11
116.158877
 21
128.969655
 31
0.0
  0
ARC
  5
28A
330
1F
100
AcDbEntity
  8
LAYERGROUP-1
  6
CONTINUOUS
 62
     3
100
AcDbCircle
 10
120.166435
 20
109.772759
 30
0.0
 40
4.856063222003973
100
AcDbArc
 50
145.615753
 51
214.384247
  0
ARC
  5
28B
330
1F
100
AcDbEntity
  8
LAYERGROUP-1
  6
CONTINUOUS
 62
     3
100
AcDbCircle
 10
133.461866
 20
118.0
 30
0.0
 40
18.15149422396827
100
AcDbArc
 50
162.412046
 51
197.587954
  0
ARC
  5
28C
330
1F
100
AcDbEntity
  8
LAYERGROUP-1
  6
CONTINUOUS
 62
     3
100
AcDbCircle
 10
120.166435
 20
126.227241
 30
0.0
 40
4.856063222003973
100
AcDbArc
 50
145.615753
 51
214.384247
  0
LINE
  5
28D
330
1F
100
AcDbEntity
  8
LAYERGROUP-1
  6
CONTINUOUS
 62
     3
100
AcDbLine
 10
116.158877
 20
128.969655
 30
0.0
 11
121.461866
 21
128.969655
 31
0.0
  0
LINE
  5
28E
330
1F
100
AcDbEntity
  8
LAYERGROUP-1
  6
CONTINUOUS
 62
     3
100
AcDbLine
 10
121.461866
 20
128.969655
 30
0.0
 11
121.99853
 21
128.040126
 31
0.0
  0
LINE
  5
28F
330
1F
100
AcDbEntity
  8
LAYERGROUP-1
  6
CONTINUOUS
 62
     3
100
AcDbLine
 10
122.310372
 20
127.200512
 30
0.0
 11
122.310372
 21
108.5
 31
0.0
  0
LINE
  5
290
330
1F
100
AcDbEntity
  8
LAYERGROUP-1
  6
CONTINUOUS
 62
     3
100
AcDbLine
 10
122.310372
 20
108.5
 30
0.0
 11
121.461866
 21
107.030345
 31
0.0
  0
LINE
  5
291
330
1F
100
AcDbEntity
  8
LAYERGROUP-1
  6
CONTINUOUS
 62
     3
100
AcDbLine
 10
121.461866
 20
107.030345
 30
0.0
 11
116.158877
 21
107.030345
 31
0.0
  0
ARC
  5
292
330
1F
100
AcDbEntity
  8
LAYERGROUP-1
  6
CONTINUOUS
 62
     3
100
AcDbCircle
 10
117.454308
 20
109.772759
 30
0.0
 40
4.856063222003973
100
AcDbArc
 50
-34.384247
 51
34.384247
  0
ARC
  5
293
330
1F
100
AcDbEntity
  8
LAYERGROUP-1
  6
CONTINUOUS
 62
     3
100
AcDbCircle
 10
104.158877
 20
118.0
 30
0.0
 40
18.15149422396827
100
AcDbArc
 50
-17.587954
 51
17.587954
  0
ARC
  5
294
330
1F
100
AcDbEntity
  8
LAYERGROUP-1
  6
CONTINUOUS
 62
     3
100
AcDbCircle
 10
117.454308
 20
126.227241
 30
0.0
 40
4.856063222003973
100
AcDbArc
 50
-34.384247
 51
34.384247
  0
LINE
  5
295
330
1F
100
AcDbEntity
  8
LAYERGROUP-1
  6
CONTINUOUS
 62
     3
100
AcDbLine
 10
116.158877
 20
112.515172
 30
0.0
 11
121.461866
 21
112.515172
 31
0.0
  0
LINE
  5
296
330
1F
100
AcDbEntity
  8
LAYERGROUP-1
  6
CONTINUOUS
 62
     3
100
AcDbLine
 10
116.158877
 20
123.484828
 30
0.0
 11
121.461866
 21
123.484828
 31
0.0
  0
LINE
  5
297
330
1F
100
AcDbEntity
  8
LAYERGROUP-1
  6
CONTINUOUS
 62
     3
100
AcDbLine
 10
342.684825
 20
355.65
 30
0.0
 11
358.745515
 21
355.65
 31
0.0
  0
LINE
  5
298
330
1F
100
AcDbEntity
  8
LAYERGROUP-1
  6
CONTINUOUS
 62
     3
100
AcDbLine
 10
360.21517
 20
354.801494
 30
0.0
 11
360.21517
 21
349.498506
 31
0.0
  0
LINE
  5
299
330
1F
100
AcDbEntity
  8
LAYERGROUP-1
  6
CONTINUOUS
 62
     3
100
AcDbLine
 10
358.745515
 20
348.65
 30
0.0
 11
342.684825
 21
348.65
 31
0.0
  0
LINE
  5
29A
330
1F
100
AcDbEntity
  8
LAYERGROUP-1
  6
CONTINUOUS
 62
     3
100
AcDbLine
 10
341.21517
 20
349.498506
 30
0.0
 11
341.21517
 21
354.801494
 31
0.0
  0
LINE
  5
29B
330
1F
100
AcDbEntity
  8
LAYERGROUP-1
  6
CONTINUOUS
 62
     3
100
AcDbLine
 10
350.71517
 20
354.801494
 30
0.0
 11
350.71517
 21
349.498506
 31
0.0
  0
ARC
  5
29C
330
1F
100
AcDbEntity
  8
LAYERGROUP-1
  6
CONTINUOUS
 62
     3
100
AcDbCircle
 10
345.96517
 20
341.930316
 30
0.0
 40
13.7196838899801
100
AcDbArc
 50
69.743842
 51
110.256158
  0
ARC
  5
29D
330
1F
100
AcDbEntity
  8
LAYERGROUP-1
  6
CONTINUOUS
 62
     3
100
AcDbCircle
 10
355.46517
 20
341.930316
 30
0.0
 40
13.7196838899801
100
AcDbArc
 50
69.743842
 51
110.256158
  0
ARC
  5
29E
330
1F
100
AcDbEntity
  8
LAYERGROUP-1
  6
CONTINUOUS
 62
     3
100
AcDbCircle
 10
345.96517
 20
362.369684
 30
0.0
 40
13.7196838899801
100
AcDbArc
 50
249.743842
 51
290.256158
  0
ARC
  5
29F
330
1F
100
AcDbEntity
  8
LAYERGROUP-1
  6
CONTINUOUS
 62
     3
100
AcDbCircle
 10
355.46517
 20
362.369684
 30
0.0
 40
13.7196838899801
100
AcDbArc
 50
249.743842
 51
290.256158
  0
TEXT
  5
2A0
330
1F
100
AcDbEntity
  8
LAYERGROUP-1
  6
CONTINUOUS
 62
     7
100
AcDbText
 10
197.976639
 20
112.0
 30
0.0
 40
4.0
  1
%%c100
 50
90.0
 41
0.828947
  7
FX_VECTOR
 72
     5
 11
197.976639
 21
124.0
 31
0.0
100
AcDbText
  0
LINE
  5
2A1
330
1F
100
AcDbEntity
  8
LAYERGROUP-1
  6
CONTINUOUS
 62
     7
100
AcDbLine
 10
198.976635
 20
68.0
 30
0.0
 11
198.976635
 21
168.0
 31
0.0
  0
INSERT
  5
2A2
330
1F
100
AcDbEntity
  8
LAYERGROUP-1
  6
CONTINUOUS
 62
     7
100
AcDbBlockReference
  2
FXTIP_ARROW_S
 10
198.976635
 20
68.0
 30
0.0
 41
4.0
 42
4.0
 50
270.0
  0
INSERT
  5
2A3
330
1F
100
AcDbEntity
  8
LAYERGROUP-1
  6
CONTINUOUS
 62
     7
100
AcDbBlockReference
  2
FXTIP_ARROW_E
 10
198.976635
 20
168.0
 30
0.0
 41
4.0
 42
4.0
 50
90.0
  0
LINE
  5
2A4
330
1F
100
AcDbEntity
  8
LAYERGROUP-1
  6
CONTINUOUS
 62
     7
100
AcDbLine
 10
151.560372
 20
68.0
 30
0.0
 11
199.976635
 21
68.0
 31
0.0
  0
LINE
  5
2A5
330
1F
100
AcDbEntity
  8
LAYERGROUP-1
  6
CONTINUOUS
 62
     7
100
AcDbLine
 10
151.560372
 20
168.0
 30
0.0
 11
199.976635
 21
168.0
 31
0.0
  0
TEXT
  5
2A6
330
1F
100
AcDbEntity
  8
LAYERGROUP-1
  6
CONTINUOUS
 62
     7
100
AcDbText
 10
147.560379
 20
49.487556
 30
0.0
 40
4.0
  1
44
 41
0.828947
  7
FX_VECTOR
 72
     5
 11
153.560379
 21
49.487556
 31
0.0
100
AcDbText
  0
LINE
  5
2A7
330
1F
100
AcDbEntity
  8
LAYERGROUP-1
  6
CONTINUOUS
 62
     7
100
AcDbLine
 10
128.56143
 20
48.487558
 30
0.0
 11
172.559313
 21
48.487558
 31
0.0
  0
INSERT
  5
2A8
330
1F
100
AcDbEntity
  8
LAYERGROUP-1
  6
CONTINUOUS
 62
     7
100
AcDbBlockReference
  2
FXTIP_ARROW_S
 10
128.56143
 20
48.487558
 30
0.0
 41
4.0
 42
4.0
 50
180.0
  0
INSERT
  5
2A9
330
1F
100
AcDbEntity
  8
LAYERGROUP-1
  6
CONTINUOUS
 62
     7
100
AcDbBlockReference
  2
FXTIP_ARROW_E
 10
172.559313
 20
48.487558
 30
0.0
 41
4.0
 42
4.0
 50
360.0
  0
LINE
  5
2AA
330
1F
100
AcDbEntity
  8
LAYERGROUP-1
  6
CONTINUOUS
 62
     7
100
AcDbLine
 10
128.56143
 20
106.556345
 30
0.0
 11
128.56143
 21
47.487558
 31
0.0
  0
LINE
  5
2AB
330
1F
100
AcDbEntity
  8
LAYERGROUP-1
  6
CONTINUOUS
 62
     7
100
AcDbLine
 10
172.559313
 20
106.556345
 30
0.0
 11
172.559313
 21
47.487558
 31
0.0
  0
TEXT
  5
2AC
330
1F
100
AcDbEntity
  8
LAYERGROUP-1
  6
CONTINUOUS
 62
     7
100
AcDbText
 10
147.560379
 20
59.487556
 30
0.0
 40
4.0
  1
32
 41
0.851351
  7
FX_VECTOR
 72
     5
 11
153.560379
 21
59.487556
 31
0.0
100
AcDbText
  0
LINE
  5
2AD
330
1F
100
AcDbEntity
  8
LAYERGROUP-1
  6
CONTINUOUS
 62
     7
100
AcDbLine
 10
134.560372
 20
58.487558
 30
0.0
 11
166.560372
 21
58.487558
 31
0.0
  0
INSERT
  5
2AE
330
1F
100
AcDbEntity
  8
LAYERGROUP-1
  6
CONTINUOUS
 62
     7
100
AcDbBlockReference
  2
FXTIP_ARROW_S
 10
134.560372
 20
58.487558
 30
0.0
 41
4.0
 42
4.0
 50
180.0
  0
INSERT
  5
2AF
330
1F
100
AcDbEntity
  8
LAYERGROUP-1
  6
CONTINUOUS
 62
     7
100
AcDbBlockReference
  2
FXTIP_ARROW_E
 10
166.560372
 20
58.487558
 30
0.0
 41
4.0
 42
4.0
 50
360.0
  0
LINE
  5
2B0
330
1F
100
AcDbEntity
  8
LAYERGROUP-1
  6
CONTINUOUS
 62
     7
100
AcDbLine
 10
134.560372
 20
81.0
 30
0.0
 11
134.560372
 21
57.487558
 31
0.0
  0
LINE
  5
2B1
330
1F
100
AcDbEntity
  8
LAYERGROUP-1
  6
CONTINUOUS
 62
     7
100
AcDbLine
 10
166.560372
 20
81.0
 30
0.0
 11
166.560372
 21
57.487558
 31
0.0
  0
ARC
  5
2B2
330
1F
100
AcDbEntity
  8
GR1-1
  6
CONTINUOUS
 62
     3
100
AcDbCircle
 10
99.175278
 20
169.432
 30
0.0
 40
89.84301650277952
100
AcDbArc
 50
344.157339
 51
355.254952
  0
ARC
  5
2B3
330
1F
100
AcDbEntity
  8
GR1-1
  6
CONTINUOUS
 62
     3
100
AcDbCircle
 10
136.426866
 20
158.860899
 30
0.0
 40
51.12055584056337
100
AcDbArc
 50
336.962592
 51
344.157339
  0
ARC
  5
2B4
330
1F
100
AcDbEntity
  8
GR1-1
  6
CONTINUOUS
 62
     3
100
AcDbCircle
 10
466.322611
 20
18.574196
 30
0.0
 40
307.3645376202534
100
AcDbArc
 50
156.962592
 51
158.539361
  0
ARC
  5
2B5
330
1F
100
AcDbEntity
  8
GR1-1
  6
CONTINUOUS
 62
     3
100
AcDbCircle
 10
359.495688
 20
60.569687
 30
0.0
 40
192.5794657725243
100
AcDbArc
 50
158.539361
 51
160.348548
  0
ARC
  5
2B6
330
1F
100
AcDbEntity
  8
GR1-1
  6
CONTINUOUS
 62
     3
100
AcDbCircle
 10
216.611744
 20
111.592996
 30
0.0
 40
40.85867054004483
100
AcDbArc
 50
160.348548
 51
170.164326
  0
ARC
  5
2B7
330
1F
100
AcDbEntity
  8
GR1-1
  6
CONTINUOUS
 62
     3
100
AcDbCircle
 10
241.907652
 20
107.207412
 30
0.0
 40
66.53193167802387
100
AcDbArc
 50
170.164326
 51
173.447161
  0
LINE
  5
2B8
330
1F
100
AcDbEntity
  8
}}ﾊﾊGG血CCТ
  6
CONTINUOUS
 62
     7
100
AcDbLine
 10
10.0
 20
10.0
 30
0.0
 11
584.0
 21
10.0
 31
0.0
  0
LINE
  5
2B9
330
1F
100
AcDbEntity
  8
}}ﾊﾊGG血CCТ
  6
CONTINUOUS
 62
     7
100
AcDbLine
 10
10.0
 20
10.0
 30
0.0
 11
10.0
 21
410.0
 31
0.0
  0
LINE
  5
2BA
330
1F
100
AcDbEntity
  8
}}ﾊﾊGG血CCТ
  6
CONTINUOUS
 62
     7
100
AcDbLine
 10
10.0
 20
410.0
 30
0.0
 11
584.0
 21
410.0
 31
0.0
  0
LINE
  5
2BB
330
1F
100
AcDbEntity
  8
}}ﾊﾊGG血CCТ
  6
CONTINUOUS
 62
     7
100
AcDbLine
 10
584.0
 20
410.0
 30
0.0
 11
584.0
 21
10.0
 31
0.0
  0
LINE
  5
2BC
330
1F
100
AcDbEntity
  8
}}ﾊﾊGG血CCТ
  6
CONTINUOUS
 62
     7
100
AcDbLine
 10
327.0
 20
10.0
 30
0.0
 11
327.0
 21
20.0
 31
0.0
  0
TEXT
  5
2BD
330
1F
100
AcDbEntity
  8
}}ﾊﾊGG血CCТ
  6
CONTINUOUS
 62
     7
100
AcDbText
 10
311.738831
 20
11.596879
 30
0.0
 40
6.648749
  1
品名
 41
1.083413
  7
FX_VECTOR
 72
     5
 11
323.058371
 21
11.596879
 31
0.0
100
AcDbText
  0
LINE
  5
2BE
330
1F
100
AcDbEntity
  8
}}ﾊﾊGG血CCТ
  6
CONTINUOUS
 62
     7
100
AcDbLine
 10
407.0
 20
20.0
 30
0.0
 11
407.0
 21
10.0
 31
0.0
  0
LINE
  5
2BF
330
1F
100
AcDbEntity
  8
}}ﾊﾊGG血CCТ
  6
CONTINUOUS
 62
     7
100
AcDbLine
 10
307.0
 20
20.0
 30
0.0
 11
584.0
 21
20.0
 31
0.0
  0
TEXT
  5
2C0
330
1F
100
AcDbEntity
  8
}}ﾊﾊGG血CCТ
  6
CONTINUOUS
 62
     7
100
AcDbText
 10
523.225769
 20
11.461285
 30
0.0
 40
6.0
  1
GOLD CASTER
 41
0.719626
  7
FX_VECTOR
 72
     5
 11
567.225769
 21
11.461285
 31
0.0
100
AcDbText
  0
LINE
  5
2C1
330
1F
100
AcDbEntity
  8
}}ﾊﾊGG血CCТ
  6
CONTINUOUS
 62
     7
100
AcDbLine
 10
427.0
 20
10.0
 30
0.0
 11
427.0
 21
20.0
 31
0.0
  0
TEXT
  5
2C2
330
1F
100
AcDbEntity
  8
}}ﾊﾊGG血CCТ
  6
CONTINUOUS
 62
     7
100
AcDbText
 10
411.738831
 20
11.596879
 30
0.0
 40
6.648749
  1
図番
 41
1.083413
  7
FX_VECTOR
 72
     5
 11
423.058371
 21
11.596879
 31
0.0
100
AcDbText
  0
LINE
  5
2C3
330
1F
100
AcDbEntity
  8
}}ﾊﾊGG血CCТ
  6
CONTINUOUS
 62
     7
100
AcDbLine
 10
507.0
 20
20.0
 30
0.0
 11
507.0
 21
10.0
 31
0.0
  0
LINE
  5
2C4
330
1F
100
AcDbEntity
  8
}}ﾊﾊGG血CCТ
  6
CONTINUOUS
 62
     7
100
AcDbLine
 10
307.0
 20
20.0
 30
0.0
 11
307.0
 21
10.0
 31
0.0
  0
LINE
  5
2C6
330
1F
100
AcDbEntity
  8
0-1
  6
CONTINUOUS
 62
     7
100
AcDbLine
 10
518.8019
 20
17.913462
 30
0.0
 11
512.8019
 21
17.913462
 31
0.0
  0
LINE
  5
2C7
330
1F
100
AcDbEntity
  8
0-1
  6
CONTINUOUS
 62
     7
100
AcDbLine
 10
512.8019
 20
17.913462
 30
0.0
 11
512.8019
 21
11.913462
 31
0.0
  0
LINE
  5
2C8
330
1F
100
AcDbEntity
  8
0-1
  6
CONTINUOUS
 62
     7
100
AcDbLine
 10
512.8019
 20
11.913462
 30
0.0
 11
518.8019
 21
11.913462
 31
0.0
  0
LINE
  5
2C9
330
1F
100
AcDbEntity
  8
0-1
  6
CONTINUOUS
 62
     7
100
AcDbLine
 10
518.8019
 20
11.913462
 30
0.0
 11
518.8019
 21
17.913462
 31
0.0
  0
LINE
  5
2CA
330
1F
100
AcDbEntity
  8
0-1
  6
CONTINUOUS
 62
     7
100
AcDbLine
 10
518.224977
 20
15.346154
 30
0.0
 11
515.8019
 21
17.769231
 31
0.0
  0
LINE
  5
2CB
330
1F
100
AcDbEntity
  8
0-1
  6
CONTINUOUS
 62
     7
100
AcDbLine
 10
515.8019
 20
17.769231
 30
0.0
 11
512.946131
 21
14.913462
 31
0.0
  0
LINE
  5
2CC
330
1F
100
AcDbEntity
  8
0-1
  6
CONTINUOUS
 62
     7
100
AcDbLine
 10
512.946131
 20
14.913462
 30
0.0
 11
515.8019
 21
12.057692
 31
0.0
  0
LINE
  5
2CD
330
1F
100
AcDbEntity
  8
0-1
  6
CONTINUOUS
 62
     7
100
AcDbLine
 10
515.8019
 20
12.057692
 30
0.0
 11
517.359592
 21
13.615385
 31
0.0
  0
LINE
  5
2CE
330
1F
100
AcDbEntity
  8
0-1
  6
CONTINUOUS
 62
     7
100
AcDbLine
 10
517.359592
 20
13.615385
 30
0.0
 11
517.359592
 21
12.980769
 31
0.0
  0
LINE
  5
2CF
330
1F
100
AcDbEntity
  8
0-1
  6
CONTINUOUS
 62
     7
100
AcDbLine
 10
517.359592
 20
12.980769
 30
0.0
 11
518.224977
 21
12.980769
 31
0.0
  0
LINE
  5
2D0
330
1F
100
AcDbEntity
  8
0-1
  6
CONTINUOUS
 62
     7
100
AcDbLine
 10
518.224977
 20
12.980769
 30
0.0
 11
518.224977
 21
15.0
 31
0.0
  0
LINE
  5
2D1
330
1F
100
AcDbEntity
  8
0-1
  6
CONTINUOUS
 62
     7
100
AcDbLine
 10
518.224977
 20
15.0
 30
0.0
 11
515.8019
 21
15.0
 31
0.0
  0
LINE
  5
2D2
330
1F
100
AcDbEntity
  8
0-1
  6
CONTINUOUS
 62
     7
100
AcDbLine
 10
515.8019
 20
15.0
 30
0.0
 11
515.8019
 21
14.134615
 31
0.0
  0
LINE
  5
2D3
330
1F
100
AcDbEntity
  8
0-1
  6
CONTINUOUS
 62
     7
100
AcDbLine
 10
515.8019
 20
14.134615
 30
0.0
 11
516.246131
 21
14.134615
 31
0.0
  0
LINE
  5
2D4
330
1F
100
AcDbEntity
  8
0-1
  6
CONTINUOUS
 62
     7
100
AcDbLine
 10
516.246131
 20
14.134615
 30
0.0
 11
515.8019
 21
13.690385
 31
0.0
  0
LINE
  5
2D5
330
1F
100
AcDbEntity
  8
0-1
  6
CONTINUOUS
 62
     7
100
AcDbLine
 10
515.8019
 20
13.690385
 30
0.0
 11
514.578823
 21
14.913462
 31
0.0
  0
LINE
  5
2D6
330
1F
100
AcDbEntity
  8
0-1
  6
CONTINUOUS
 62
     7
100
AcDbLine
 10
514.578823
 20
14.913462
 30
0.0
 11
515.8019
 21
16.136538
 31
0.0
  0
LINE
  5
2D7
330
1F
100
AcDbEntity
  8
0-1
  6
CONTINUOUS
 62
     7
100
AcDbLine
 10
515.8019
 20
16.136538
 30
0.0
 11
516.592284
 21
15.346154
 31
0.0
  0
LINE
  5
2D8
330
1F
100
AcDbEntity
  8
0-1
  6
CONTINUOUS
 62
     7
100
AcDbLine
 10
516.592284
 20
15.346154
 30
0.0
 11
518.224977
 21
15.346154
 31
0.0
  0
LINE
  5
2D9
330
1F
100
AcDbEntity
  8
GR1-1
  6
CONTINUOUS
 62
     7
100
AcDbLine
 10
513.72238
 20
11.913462
 30
0.0
 11
514.834255
 21
13.025337
 31
0.0
  0
LINE
  5
2DA
330
1F
100
AcDbEntity
  8
GR1-1
  6
CONTINUOUS
 62
     7
100
AcDbLine
 10
515.650601
 20
13.841683
 30
0.0
 11
515.943534
 21
14.134615
 31
0.0
  0
LINE
  5
2DB
330
1F
100
AcDbEntity
  8
GR1-1
  6
CONTINUOUS
 62
     7
100
AcDbLine
 10
516.808918
 20
15.0
 30
0.0
 11
517.155072
 21
15.346154
 31
0.0
  0
LINE
  5
2DC
330
1F
100
AcDbEntity
  8
GR1-1
  6
CONTINUOUS
 62
     7
100
AcDbLine
 10
517.690024
 20
15.881106
 30
0.0
 11
518.8019
 21
16.992981
 31
0.0
  0
LINE
  5
2DD
330
1F
100
AcDbEntity
  8
GR1-1
  6
CONTINUOUS
 62
     7
100
AcDbLine
 10
513.651669
 20
11.913462
 30
0.0
 11
514.7989
 21
13.060692
 31
0.0
  0
LINE
  5
2DE
330
1F
100
AcDbEntity
  8
GR1-1
  6
CONTINUOUS
 62
     7
100
AcDbLine
 10
515.615246
 20
13.877038
 30
0.0
 11
515.872823
 21
14.134615
 31
0.0
  0
LINE
  5
2DF
330
1F
100
AcDbEntity
  8
GR1-1
  6
CONTINUOUS
 62
     7
100
AcDbLine
 10
516.738208
 20
15.0
 30
0.0
 11
517.084362
 21
15.346154
 31
0.0
  0
LINE
  5
2E0
330
1F
100
AcDbEntity
  8
GR1-1
  6
CONTINUOUS
 62
     7
100
AcDbLine
 10
517.654669
 20
15.916461
 30
0.0
 11
518.8019
 21
17.063692
 31
0.0
  0
LINE
  5
2E1
330
1F
100
AcDbEntity
  8
GR1-1
  6
CONTINUOUS
 62
     7
100
AcDbLine
 10
513.580959
 20
11.913462
 30
0.0
 11
514.763545
 21
13.096047
 31
0.0
  0
LINE
  5
2E2
330
1F
100
AcDbEntity
  8
GR1-1
  6
CONTINUOUS
 62
     7
100
AcDbLine
 10
515.579891
 20
13.912394
 30
0.0
 11
515.802112
 21
14.134615
 31
0.0
  0
LINE
  5
2E3
330
1F
100
AcDbEntity
  8
GR1-1
  6
CONTINUOUS
 62
     7
100
AcDbLine
 10
516.667497
 20
15.0
 30
0.0
 11
517.013651
 21
15.346154
 31
0.0
  0
LINE
  5
2E4
330
1F
100
AcDbEntity
  8
GR1-1
  6
CONTINUOUS
 62
     7
100
AcDbLine
 10
517.619314
 20
15.951817
 30
0.0
 11
518.8019
 21
17.134403
 31
0.0
  0
LINE
  5
2E5
330
1F
100
AcDbEntity
  8
GR1-1
  6
CONTINUOUS
 62
     7
100
AcDbLine
 10
513.510248
 20
11.913462
 30
0.0
 11
514.728189
 21
13.131403
 31
0.0
  0
LINE
  5
2E6
330
1F
100
AcDbEntity
  8
GR1-1
  6
CONTINUOUS
 62
     7
100
AcDbLine
 10
515.544535
 20
13.947749
 30
0.0
 11
515.8019
 21
14.205113
 31
0.0
  0
LINE
  5
2E7
330
1F
100
AcDbEntity
  8
GR1-1
  6
CONTINUOUS
 62
     7
100
AcDbLine
 10
516.596786
 20
15.0
 30
0.0
 11
516.94294
 21
15.346154
 31
0.0
  0
LINE
  5
2E8
330
1F
100
AcDbEntity
  8
GR1-1
  6
CONTINUOUS
 62
     7
100
AcDbLine
 10
517.583958
 20
15.987172
 30
0.0
 11
518.8019
 21
17.205113
 31
0.0
  0
LINE
  5
2E9
330
1F
100
AcDbEntity
  8
GR1-1
  6
CONTINUOUS
 62
     7
100
AcDbLine
 10
513.439537
 20
11.913462
 30
0.0
 11
514.692834
 21
13.166758
 31
0.0
  0
LINE
  5
2EA
330
1F
100
AcDbEntity
  8
GR1-1
  6
CONTINUOUS
 62
     7
100
AcDbLine
 10
515.50918
 20
13.983104
 30
0.0
 11
515.8019
 21
14.275824
 31
0.0
  0
LINE
  5
2EB
330
1F
100
AcDbEntity
  8
GR1-1
  6
CONTINUOUS
 62
     7
100
AcDbLine
 10
516.526076
 20
15.0
 30
0.0
 11
516.87223
 21
15.346154
 31
0.0
  0
LINE
  5
2EC
330
1F
100
AcDbEntity
  8
GR1-1
  6
CONTINUOUS
 62
     7
100
AcDbLine
 10
517.548603
 20
16.022527
 30
0.0
 11
518.8019
 21
17.275824
 31
0.0
  0
LINE
  5
2ED
330
1F
100
AcDbEntity
  8
GR1-1
  6
CONTINUOUS
 62
     7
100
AcDbLine
 10
513.368827
 20
11.913462
 30
0.0
 11
514.657479
 21
13.202114
 31
0.0
  0
LINE
  5
2EE
330
1F
100
AcDbEntity
  8
GR1-1
  6
CONTINUOUS
 62
     7
100
AcDbLine
 10
515.473825
 20
14.01846
 30
0.0
 11
515.8019
 21
14.346535
 31
0.0
  0
LINE
  5
2EF
330
1F
100
AcDbEntity
  8
GR1-1
  6
CONTINUOUS
 62
     7
100
AcDbLine
 10
516.455365
 20
15.0
 30
0.0
 11
516.801519
 21
15.346154
 31
0.0
  0
LINE
  5
2F0
330
1F
100
AcDbEntity
  8
GR1-1
  6
CONTINUOUS
 62
     7
100
AcDbLine
 10
517.513248
 20
16.057883
 30
0.0
 11
518.8019
 21
17.346535
 31
0.0
  0
LINE
  5
2F1
330
1F
100
AcDbEntity
  8
GR1-1
  6
CONTINUOUS
 62
     7
100
AcDbLine
 10
513.298116
 20
11.913462
 30
0.0
 11
514.622123
 21
13.237469
 31
0.0
  0
LINE
  5
2F2
330
1F
100
AcDbEntity
  8
GR1-1
  6
CONTINUOUS
 62
     7
100
AcDbLine
 10
515.438469
 20
14.053815
 30
0.0
 11
515.8019
 21
14.417245
 31
0.0
  0
LINE
  5
2F3
330
1F
100
AcDbEntity
  8
GR1-1
  6
CONTINUOUS
 62
     7
100
AcDbLine
 10
516.384654
 20
15.0
 30
0.0
 11
516.730808
 21
15.346154
 31
0.0
  0
LINE
  5
2F4
330
1F
100
AcDbEntity
  8
GR1-1
  6
CONTINUOUS
 62
     7
100
AcDbLine
 10
517.477892
 20
16.093238
 30
0.0
 11
518.8019
 21
17.417245
 31
0.0
  0
LINE
  5
2F5
330
1F
100
AcDbEntity
  8
GR1-1
  6
CONTINUOUS
 62
     7
100
AcDbLine
 10
513.227405
 20
11.913462
 30
0.0
 11
514.586768
 21
13.272824
 31
0.0
  0
LINE
  5
2F6
330
1F
100
AcDbEntity
  8
GR1-1
  6
CONTINUOUS
 62
     7
100
AcDbLine
 10
515.403114
 20
14.08917
 30
0.0
 11
515.8019
 21
14.487956
 31
0.0
  0
LINE
  5
2F7
330
1F
100
AcDbEntity
  8
GR1-1
  6
CONTINUOUS
 62
     7
100
AcDbLine
 10
516.313944
 20
15.0
 30
0.0
 11
516.660097
 21
15.346154
 31
0.0
  0
LINE
  5
2F8
330
1F
100
AcDbEntity
  8
GR1-1
  6
CONTINUOUS
 62
     7
100
AcDbLine
 10
517.442537
 20
16.128593
 30
0.0
 11
518.8019
 21
17.487956
 31
0.0
  0
LINE
  5
2F9
330
1F
100
AcDbEntity
  8
GR1-1
  6
CONTINUOUS
 62
     7
100
AcDbLine
 10
513.156695
 20
11.913462
 30
0.0
 11
514.551413
 21
13.30818
 31
0.0
  0
LINE
  5
2FA
330
1F
100
AcDbEntity
  8
GR1-1
  6
CONTINUOUS
 62
     7
100
AcDbLine
 10
515.367759
 20
14.124526
 30
0.0
 11
515.8019
 21
14.558667
 31
0.0
  0
LINE
  5
2FB
330
1F
100
AcDbEntity
  8
GR1-1
  6
CONTINUOUS
 62
     7
100
AcDbLine
 10
516.243233
 20
15.0
 30
0.0
 11
516.590836
 21
15.347603
 31
0.0
  0
LINE
  5
2FC
330
1F
100
AcDbEntity
  8
GR1-1
  6
CONTINUOUS
 62
     7
100
AcDbLine
 10
517.407182
 20
16.163949
 30
0.0
 11
518.8019
 21
17.558667
 31
0.0
  0
LINE
  5
2FD
330
1F
100
AcDbEntity
  8
GR1-1
  6
CONTINUOUS
 62
     7
100
AcDbLine
 10
513.085984
 20
11.913462
 30
0.0
 11
514.516057
 21
13.343535
 31
0.0
  0
LINE
  5
2FE
330
1F
100
AcDbEntity
  8
GR1-1
  6
CONTINUOUS
 62
     7
100
AcDbLine
 10
515.332403
 20
14.159881
 30
0.0
 11
515.8019
 21
14.629377
 31
0.0
  0
LINE
  5
2FF
330
1F
100
AcDbEntity
  8
GR1-1
  6
CONTINUOUS
 62
     7
100
AcDbLine
 10
516.172522
 20
15.0
 30
0.0
 11
516.55548
 21
15.382958
 31
0.0
  0
LINE
  5
300
330
1F
100
AcDbEntity
  8
GR1-1
  6
CONTINUOUS
 62
     7
100
AcDbLine
 10
517.371826
 20
16.199304
 30
0.0
 11
518.8019
 21
17.629377
 31
0.0
  0
LINE
  5
301
330
1F
100
AcDbEntity
  8
GR1-1
  6
CONTINUOUS
 62
     7
100
AcDbLine
 10
513.015273
 20
11.913462
 30
0.0
 11
514.480702
 21
13.37889
 31
0.0
  0
LINE
  5
302
330
1F
100
AcDbEntity
  8
GR1-1
  6
CONTINUOUS
 62
     7
100
AcDbLine
 10
515.297048
 20
14.195236
 30
0.0
 11
515.8019
 21
14.700088
 31
0.0
  0
LINE
  5
303
330
1F
100
AcDbEntity
  8
GR1-1
  6
CONTINUOUS
 62
     7
100
AcDbLine
 10
516.101812
 20
15.0
 30
0.0
 11
516.520125
 21
15.418313
 31
0.0
  0
LINE
  5
304
330
1F
100
AcDbEntity
  8
GR1-1
  6
CONTINUOUS
 62
     7
100
AcDbLine
 10
517.336471
 20
16.234659
 30
0.0
 11
518.8019
 21
17.700088
 31
0.0
  0
LINE
  5
305
330
1F
100
AcDbEntity
  8
GR1-1
  6
CONTINUOUS
 62
     7
100
AcDbLine
 10
512.944563
 20
11.913462
 30
0.0
 11
514.445347
 21
13.414246
 31
0.0
  0
LINE
  5
306
330
1F
100
AcDbEntity
  8
GR1-1
  6
CONTINUOUS
 62
     7
100
AcDbLine
 10
515.261693
 20
14.230592
 30
0.0
 11
515.8019
 21
14.770799
 31
0.0
  0
LINE
  5
307
330
1F
100
AcDbEntity
  8
GR1-1
  6
CONTINUOUS
 62
     7
100
AcDbLine
 10
516.031101
 20
15.0
 30
0.0
 11
516.48477
 21
15.453669
 31
0.0
  0
LINE
  5
308
330
1F
100
AcDbEntity
  8
GR1-1
  6
CONTINUOUS
 62
     7
100
AcDbLine
 10
517.301116
 20
16.270015
 30
0.0
 11
518.8019
 21
17.770799
 31
0.0
  0
LINE
  5
309
330
1F
100
AcDbEntity
  8
GR1-1
  6
CONTINUOUS
 62
     7
100
AcDbLine
 10
512.873852
 20
11.913462
 30
0.0
 11
514.409991
 21
13.449601
 31
0.0
  0
LINE
  5
30A
330
1F
100
AcDbEntity
  8
GR1-1
  6
CONTINUOUS
 62
     7
100
AcDbLine
 10
515.226337
 20
14.265947
 30
0.0
 11
515.8019
 21
14.841509
 31
0.0
  0
LINE
  5
30B
330
1F
100
AcDbEntity
  8
GR1-1
  6
CONTINUOUS
 62
     7
100
AcDbLine
 10
515.96039
 20
15.0
 30
0.0
 11
516.449414
 21
15.489024
 31
0.0
  0
LINE
  5
30C
330
1F
100
AcDbEntity
  8
GR1-1
  6
CONTINUOUS
 62
     7
100
AcDbLine
 10
517.26576
 20
16.30537
 30
0.0
 11
518.8019
 21
17.841509
 31
0.0
  0
LINE
  5
30D
330
1F
100
AcDbEntity
  8
GR1-1
  6
CONTINUOUS
 62
     7
100
AcDbLine
 10
512.803141
 20
11.913462
 30
0.0
 11
514.374636
 21
13.484956
 31
0.0
  0
LINE
  5
30E
330
1F
100
AcDbEntity
  8
GR1-1
  6
CONTINUOUS
 62
     7
100
AcDbLine
 10
515.190982
 20
14.301302
 30
0.0
 11
515.8019
 21
14.91222
 31
0.0
  0
LINE
  5
30F
330
1F
100
AcDbEntity
  8
GR1-1
  6
CONTINUOUS
 62
     7
100
AcDbLine
 10
515.88968
 20
15.0
 30
0.0
 11
516.414059
 21
15.524379
 31
0.0
  0
LINE
  5
310
330
1F
100
AcDbEntity
  8
GR1-1
  6
CONTINUOUS
 62
     7
100
AcDbLine
 10
517.230405
 20
16.340725
 30
0.0
 11
518.8019
 21
17.91222
 31
0.0
  0
LINE
  5
311
330
1F
100
AcDbEntity
  8
GR1-1
  6
CONTINUOUS
 62
     7
100
AcDbLine
 10
512.8019
 20
11.982931
 30
0.0
 11
514.339281
 21
13.520312
 31
0.0
  0
LINE
  5
312
330
1F
100
AcDbEntity
  8
GR1-1
  6
CONTINUOUS
 62
     7
100
AcDbLine
 10
515.155627
 20
14.336658
 30
0.0
 11
515.8019
 21
14.982931
 31
0.0
  0
LINE
  5
313
330
1F
100
AcDbEntity
  8
GR1-1
  6
CONTINUOUS
 62
     7
100
AcDbLine
 10
515.818969
 20
15.0
 30
0.0
 11
516.378704
 21
15.559735
 31
0.0
  0
LINE
  5
314
330
1F
100
AcDbEntity
  8
GR1-1
  6
CONTINUOUS
 62
     7
100
AcDbLine
 10
517.19505
 20
16.376081
 30
0.0
 11
518.73243
 21
17.913462
 31
0.0
  0
LINE
  5
315
330
1F
100
AcDbEntity
  8
GR1-1
  6
CONTINUOUS
 62
     7
100
AcDbLine
 10
512.8019
 20
12.053642
 30
0.0
 11
514.303925
 21
13.555667
 31
0.0
  0
LINE
  5
316
330
1F
100
AcDbEntity
  8
GR1-1
  6
CONTINUOUS
 62
     7
100
AcDbLine
 10
515.120271
 20
14.372013
 30
0.0
 11
516.343348
 21
15.59509
 31
0.0
  0
LINE
  5
317
330
1F
100
AcDbEntity
  8
GR1-1
  6
CONTINUOUS
 62
     7
100
AcDbLine
 10
517.159694
 20
16.411436
 30
0.0
 11
518.66172
 21
17.913462
 31
0.0
  0
LINE
  5
318
330
1F
100
AcDbEntity
  8
GR1-1
  6
CONTINUOUS
 62
     7
100
AcDbLine
 10
512.8019
 20
12.124352
 30
0.0
 11
514.26857
 21
13.591022
 31
0.0
  0
LINE
  5
319
330
1F
100
AcDbEntity
  8
GR1-1
  6
CONTINUOUS
 62
     7
100
AcDbLine
 10
515.084916
 20
14.407368
 30
0.0
 11
516.307993
 21
15.630445
 31
0.0
  0
LINE
  5
31A
330
1F
100
AcDbEntity
  8
GR1-1
  6
CONTINUOUS
 62
     7
100
AcDbLine
 10
517.124339
 20
16.446791
 30
0.0
 11
518.591009
 21
17.913462
 31
0.0
  0
LINE
  5
31B
330
1F
100
AcDbEntity
  8
GR1-1
  6
CONTINUOUS
 62
     7
100
AcDbLine
 10
512.8019
 20
12.195063
 30
0.0
 11
514.233214
 21
13.626378
 31
0.0
  0
LINE
  5
31C
330
1F
100
AcDbEntity
  8
GR1-1
  6
CONTINUOUS
 62
     7
100
AcDbLine
 10
515.049561
 20
14.442724
 30
0.0
 11
516.272638
 21
15.665801
 31
0.0
  0
LINE
  5
31D
330
1F
100
AcDbEntity
  8
GR1-1
  6
CONTINUOUS
 62
     7
100
AcDbLine
 10
517.088984
 20
16.482147
 30
0.0
 11
518.520298
 21
17.913462
 31
0.0
  0
LINE
  5
31E
330
1F
100
AcDbEntity
  8
GR1-1
  6
CONTINUOUS
 62
     7
100
AcDbLine
 10
512.8019
 20
12.265774
 30
0.0
 11
514.197859
 21
13.661733
 31
0.0
  0
LINE
  5
31F
330
1F
100
AcDbEntity
  8
GR1-1
  6
CONTINUOUS
 62
     7
100
AcDbLine
 10
515.014205
 20
14.478079
 30
0.0
 11
516.237282
 21
15.701156
 31
0.0
  0
LINE
  5
320
330
1F
100
AcDbEntity
  8
GR1-1
  6
CONTINUOUS
 62
     7
100
AcDbLine
 10
517.053628
 20
16.517502
 30
0.0
 11
518.449588
 21
17.913462
 31
0.0
  0
LINE
  5
321
330
1F
100
AcDbEntity
  8
GR1-1
  6
CONTINUOUS
 62
     7
100
AcDbLine
 10
512.8019
 20
12.336484
 30
0.0
 11
514.162504
 21
13.697088
 31
0.0
  0
LINE
  5
322
330
1F
100
AcDbEntity
  8
GR1-1
  6
CONTINUOUS
 62
     7
100
AcDbLine
 10
514.97885
 20
14.513434
 30
0.0
 11
516.201927
 21
15.736511
 31
0.0
  0
LINE
  5
323
330
1F
100
AcDbEntity
  8
GR1-1
  6
CONTINUOUS
 62
     7
100
AcDbLine
 10
517.018273
 20
16.552857
 30
0.0
 11
518.378877
 21
17.913462
 31
0.0
  0
LINE
  5
324
330
1F
100
AcDbEntity
  8
GR1-1
  6
CONTINUOUS
 62
     7
100
AcDbLine
 10
512.8019
 20
12.407195
 30
0.0
 11
514.127148
 21
13.732444
 31
0.0
  0
LINE
  5
325
330
1F
100
AcDbEntity
  8
GR1-1
  6
CONTINUOUS
 62
     7
100
AcDbLine
 10
514.943495
 20
14.54879
 30
0.0
 11
516.166572
 21
15.771867
 31
0.0
  0
LINE
  5
326
330
1F
100
AcDbEntity
  8
GR1-1
  6
CONTINUOUS
 62
     7
100
AcDbLine
 10
516.982918
 20
16.588213
 30
0.0
 11
518.308166
 21
17.913462
 31
0.0
  0
LINE
  5
327
330
1F
100
AcDbEntity
  8
GR1-1
  6
CONTINUOUS
 62
     7
100
AcDbLine
 10
512.8019
 20
12.477906
 30
0.0
 11
514.091793
 21
13.767799
 31
0.0
  0
LINE
  5
328
330
1F
100
AcDbEntity
  8
GR1-1
  6
CONTINUOUS
 62
     7
100
AcDbLine
 10
514.908139
 20
14.584145
 30
0.0
 11
516.131216
 21
15.807222
 31
0.0
  0
LINE
  5
329
330
1F
100
AcDbEntity
  8
GR1-1
  6
CONTINUOUS
 62
     7
100
AcDbLine
 10
516.947562
 20
16.623568
 30
0.0
 11
518.237456
 21
17.913462
 31
0.0
  0
LINE
  5
32A
330
1F
100
AcDbEntity
  8
GR1-1
  6
CONTINUOUS
 62
     7
100
AcDbLine
 10
512.8019
 20
12.548616
 30
0.0
 11
514.056438
 21
13.803154
 31
0.0
  0
LINE
  5
32B
330
1F
100
AcDbEntity
  8
GR1-1
  6
CONTINUOUS
 62
     7
100
AcDbLine
 10
514.872784
 20
14.6195
 30
0.0
 11
516.095861
 21
15.842577
 31
0.0
  0
LINE
  5
32C
330
1F
100
AcDbEntity
  8
GR1-1
  6
CONTINUOUS
 62
     7
100
AcDbLine
 10
516.912207
 20
16.658923
 30
0.0
 11
518.166745
 21
17.913462
 31
0.0
  0
LINE
  5
32D
330
1F
100
AcDbEntity
  8
GR1-1
  6
CONTINUOUS
 62
     7
100
AcDbLine
 10
512.8019
 20
12.619327
 30
0.0
 11
514.021082
 21
13.83851
 31
0.0
  0
LINE
  5
32E
330
1F
100
AcDbEntity
  8
GR1-1
  6
CONTINUOUS
 62
     7
100
AcDbLine
 10
514.837429
 20
14.654856
 30
0.0
 11
516.060506
 21
15.877933
 31
0.0
  0
LINE
  5
32F
330
1F
100
AcDbEntity
  8
GR1-1
  6
CONTINUOUS
 62
     7
100
AcDbLine
 10
516.876852
 20
16.694279
 30
0.0
 11
518.096034
 21
17.913462
 31
0.0
  0
LINE
  5
330
330
1F
100
AcDbEntity
  8
GR1-1
  6
CONTINUOUS
 62
     7
100
AcDbLine
 10
512.8019
 20
12.690038
 30
0.0
 11
513.985727
 21
13.873865
 31
0.0
  0
LINE
  5
331
330
1F
100
AcDbEntity
  8
GR1-1
  6
CONTINUOUS
 62
     7
100
AcDbLine
 10
514.802073
 20
14.690211
 30
0.0
 11
516.02515
 21
15.913288
 31
0.0
  0
LINE
  5
332
330
1F
100
AcDbEntity
  8
GR1-1
  6
CONTINUOUS
 62
     7
100
AcDbLine
 10
516.841496
 20
16.729634
 30
0.0
 11
518.025324
 21
17.913462
 31
0.0
  0
LINE
  5
333
330
1F
100
AcDbEntity
  8
GR1-1
  6
CONTINUOUS
 62
     7
100
AcDbLine
 10
512.8019
 20
12.760748
 30
0.0
 11
513.950372
 21
13.90922
 31
0.0
  0
LINE
  5
334
330
1F
100
AcDbEntity
  8
GR1-1
  6
CONTINUOUS
 62
     7
100
AcDbLine
 10
514.766718
 20
14.725566
 30
0.0
 11
515.989795
 21
15.948643
 31
0.0
  0
LINE
  5
335
330
1F
100
AcDbEntity
  8
GR1-1
  6
CONTINUOUS
 62
     7
100
AcDbLine
 10
516.806141
 20
16.76499
 30
0.0
 11
517.954613
 21
17.913462
 31
0.0
  0
LINE
  5
336
330
1F
100
AcDbEntity
  8
GR1-1
  6
CONTINUOUS
 62
     7
100
AcDbLine
 10
512.8019
 20
12.831459
 30
0.0
 11
513.915016
 21
13.944576
 31
0.0
  0
LINE
  5
337
330
1F
100
AcDbEntity
  8
GR1-1
  6
CONTINUOUS
 62
     7
100
AcDbLine
 10
514.731363
 20
14.760922
 30
0.0
 11
515.95444
 21
15.983999
 31
0.0
  0
LINE
  5
338
330
1F
100
AcDbEntity
  8
GR1-1
  6
CONTINUOUS
 62
     7
100
AcDbLine
 10
516.770786
 20
16.800345
 30
0.0
 11
517.883902
 21
17.913462
 31
0.0
  0
LINE
  5
339
330
1F
100
AcDbEntity
  8
GR1-1
  6
CONTINUOUS
 62
     7
100
AcDbLine
 10
512.8019
 20
12.90217
 30
0.0
 11
513.879661
 21
13.979931
 31
0.0
  0
LINE
  5
33A
330
1F
100
AcDbEntity
  8
GR1-1
  6
CONTINUOUS
 62
     7
100
AcDbLine
 10
514.696007
 20
14.796277
 30
0.0
 11
515.919084
 21
16.019354
 31
0.0
  0
LINE
  5
33B
330
1F
100
AcDbEntity
  8
GR1-1
  6
CONTINUOUS
 62
     7
100
AcDbLine
 10
516.73543
 20
16.8357
 30
0.0
 11
517.813192
 21
17.913462
 31
0.0
  0
LINE
  5
33C
330
1F
100
AcDbEntity
  8
GR1-1
  6
CONTINUOUS
 62
     7
100
AcDbLine
 10
512.8019
 20
12.97288
 30
0.0
 11
513.844306
 21
14.015286
 31
0.0
  0
LINE
  5
33D
330
1F
100
AcDbEntity
  8
GR1-1
  6
CONTINUOUS
 62
     7
100
AcDbLine
 10
514.660652
 20
14.831632
 30
0.0
 11
515.883729
 21
16.054709
 31
0.0
  0
LINE
  5
33E
330
1F
100
AcDbEntity
  8
GR1-1
  6
CONTINUOUS
 62
     7
100
AcDbLine
 10
516.700075
 20
16.871056
 30
0.0
 11
517.742481
 21
17.913462
 31
0.0
  0
LINE
  5
33F
330
1F
100
AcDbEntity
  8
GR1-1
  6
CONTINUOUS
 62
     7
100
AcDbLine
 10
512.8019
 20
13.043591
 30
0.0
 11
513.80895
 21
14.050642
 31
0.0
  0
LINE
  5
340
330
1F
100
AcDbEntity
  8
GR1-1
  6
CONTINUOUS
 62
     7
100
AcDbLine
 10
514.625297
 20
14.866988
 30
0.0
 11
515.848373
 21
16.090065
 31
0.0
  0
LINE
  5
341
330
1F
100
AcDbEntity
  8
GR1-1
  6
CONTINUOUS
 62
     7
100
AcDbLine
 10
516.66472
 20
16.906411
 30
0.0
 11
517.67177
 21
17.913462
 31
0.0
  0
LINE
  5
342
330
1F
100
AcDbEntity
  8
GR1-1
  6
CONTINUOUS
 62
     7
100
AcDbLine
 10
512.8019
 20
13.114302
 30
0.0
 11
513.773595
 21
14.085997
 31
0.0
  0
LINE
  5
343
330
1F
100
AcDbEntity
  8
GR1-1
  6
CONTINUOUS
 62
     7
100
AcDbLine
 10
514.589941
 20
14.902343
 30
0.0
 11
515.813018
 21
16.12542
 31
0.0
  0
LINE
  5
344
330
1F
100
AcDbEntity
  8
GR1-1
  6
CONTINUOUS
 62
     7
100
AcDbLine
 10
516.629364
 20
16.941766
 30
0.0
 11
517.60106
 21
17.913462
 31
0.0
  0
LINE
  5
345
330
1F
100
AcDbEntity
  8
GR1-1
  6
CONTINUOUS
 62
     7
100
AcDbLine
 10
512.8019
 20
13.185012
 30
0.0
 11
513.73824
 21
14.121352
 31
0.0
  0
LINE
  5
346
330
1F
100
AcDbEntity
  8
GR1-1
  6
CONTINUOUS
 62
     7
100
AcDbLine
 10
516.594009
 20
16.977122
 30
0.0
 11
517.530349
 21
17.913462
 31
0.0
  0
LINE
  5
347
330
1F
100
AcDbEntity
  8
GR1-1
  6
CONTINUOUS
 62
     7
100
AcDbLine
 10
512.8019
 20
13.255723
 30
0.0
 11
513.702884
 21
14.156708
 31
0.0
  0
LINE
  5
348
330
1F
100
AcDbEntity
  8
GR1-1
  6
CONTINUOUS
 62
     7
100
AcDbLine
 10
516.558654
 20
17.012477
 30
0.0
 11
517.459638
 21
17.913462
 31
0.0
  0
LINE
  5
349
330
1F
100
AcDbEntity
  8
GR1-1
  6
CONTINUOUS
 62
     7
100
AcDbLine
 10
512.8019
 20
13.326434
 30
0.0
 11
513.667529
 21
14.192063
 31
0.0
  0
LINE
  5
34A
330
1F
100
AcDbEntity
  8
GR1-1
  6
CONTINUOUS
 62
     7
100
AcDbLine
 10
516.523298
 20
17.047832
 30
0.0
 11
517.388928
 21
17.913462
 31
0.0
  0
LINE
  5
34B
330
1F
100
AcDbEntity
  8
GR1-1
  6
CONTINUOUS
 62
     7
100
AcDbLine
 10
512.8019
 20
13.397144
 30
0.0
 11
513.632174
 21
14.227418
 31
0.0
  0
LINE
  5
34C
330
1F
100
AcDbEntity
  8
GR1-1
  6
CONTINUOUS
 62
     7
100
AcDbLine
 10
516.487943
 20
17.083188
 30
0.0
 11
517.318217
 21
17.913462
 31
0.0
  0
LINE
  5
34D
330
1F
100
AcDbEntity
  8
GR1-1
  6
CONTINUOUS
 62
     7
100
AcDbLine
 10
512.8019
 20
13.467855
 30
0.0
 11
513.596818
 21
14.262774
 31
0.0
  0
LINE
  5
34E
330
1F
100
AcDbEntity
  8
GR1-1
  6
CONTINUOUS
 62
     7
100
AcDbLine
 10
516.452588
 20
17.118543
 30
0.0
 11
517.247506
 21
17.913462
 31
0.0
  0
LINE
  5
34F
330
1F
100
AcDbEntity
  8
GR1-1
  6
CONTINUOUS
 62
     7
100
AcDbLine
 10
512.8019
 20
13.538566
 30
0.0
 11
513.561463
 21
14.298129
 31
0.0
  0
LINE
  5
350
330
1F
100
AcDbEntity
  8
GR1-1
  6
CONTINUOUS
 62
     7
100
AcDbLine
 10
516.417232
 20
17.153898
 30
0.0
 11
517.176796
 21
17.913462
 31
0.0
  0
LINE
  5
351
330
1F
100
AcDbEntity
  8
GR1-1
  6
CONTINUOUS
 62
     7
100
AcDbLine
 10
512.8019
 20
13.609276
 30
0.0
 11
513.526108
 21
14.333484
 31
0.0
  0
LINE
  5
352
330
1F
100
AcDbEntity
  8
GR1-1
  6
CONTINUOUS
 62
     7
100
AcDbLine
 10
516.381877
 20
17.189254
 30
0.0
 11
517.106085
 21
17.913462
 31
0.0
  0
LINE
  5
353
330
1F
100
AcDbEntity
  8
GR1-1
  6
CONTINUOUS
 62
     7
100
AcDbLine
 10
512.8019
 20
13.679987
 30
0.0
 11
513.490752
 21
14.36884
 31
0.0
  0
LINE
  5
354
330
1F
100
AcDbEntity
  8
GR1-1
  6
CONTINUOUS
 62
     7
100
AcDbLine
 10
516.346522
 20
17.224609
 30
0.0
 11
517.035374
 21
17.913462
 31
0.0
  0
LINE
  5
355
330
1F
100
AcDbEntity
  8
GR1-1
  6
CONTINUOUS
 62
     7
100
AcDbLine
 10
512.8019
 20
13.750698
 30
0.0
 11
513.455397
 21
14.404195
 31
0.0
  0
LINE
  5
356
330
1F
100
AcDbEntity
  8
GR1-1
  6
CONTINUOUS
 62
     7
100
AcDbLine
 10
516.311166
 20
17.259964
 30
0.0
 11
516.964664
 21
17.913462
 31
0.0
  0
LINE
  5
357
330
1F
100
AcDbEntity
  8
GR1-1
  6
CONTINUOUS
 62
     7
100
AcDbLine
 10
512.8019
 20
13.821408
 30
0.0
 11
513.420042
 21
14.43955
 31
0.0
  0
LINE
  5
358
330
1F
100
AcDbEntity
  8
GR1-1
  6
CONTINUOUS
 62
     7
100
AcDbLine
 10
516.275811
 20
17.29532
 30
0.0
 11
516.893953
 21
17.913462
 31
0.0
  0
LINE
  5
359
330
1F
100
AcDbEntity
  8
GR1-1
  6
CONTINUOUS
 62
     7
100
AcDbLine
 10
512.8019
 20
13.892119
 30
0.0
 11
513.384686
 21
14.474906
 31
0.0
  0
LINE
  5
35A
330
1F
100
AcDbEntity
  8
GR1-1
  6
CONTINUOUS
 62
     7
100
AcDbLine
 10
516.240456
 20
17.330675
 30
0.0
 11
516.823242
 21
17.913462
 31
0.0
  0
LINE
  5
35B
330
1F
100
AcDbEntity
  8
GR1-1
  6
CONTINUOUS
 62
     7
100
AcDbLine
 10
512.8019
 20
13.96283
 30
0.0
 11
513.349331
 21
14.510261
 31
0.0
  0
LINE
  5
35C
330
1F
100
AcDbEntity
  8
GR1-1
  6
CONTINUOUS
 62
     7
100
AcDbLine
 10
516.2051
 20
17.36603
 30
0.0
 11
516.752531
 21
17.913462
 31
0.0
  0
LINE
  5
35D
330
1F
100
AcDbEntity
  8
GR1-1
  6
CONTINUOUS
 62
     7
100
AcDbLine
 10
512.8019
 20
14.033541
 30
0.0
 11
513.313976
 21
14.545616
 31
0.0
  0
LINE
  5
35E
330
1F
100
AcDbEntity
  8
GR1-1
  6
CONTINUOUS
 62
     7
100
AcDbLine
 10
516.169745
 20
17.401386
 30
0.0
 11
516.681821
 21
17.913462
 31
0.0
  0
LINE
  5
35F
330
1F
100
AcDbEntity
  8
GR1-1
  6
CONTINUOUS
 62
     7
100
AcDbLine
 10
512.8019
 20
14.104251
 30
0.0
 11
513.27862
 21
14.580972
 31
0.0
  0
LINE
  5
360
330
1F
100
AcDbEntity
  8
GR1-1
  6
CONTINUOUS
 62
     7
100
AcDbLine
 10
516.13439
 20
17.436741
 30
0.0
 11
516.61111
 21
17.913462
 31
0.0
  0
LINE
  5
361
330
1F
100
AcDbEntity
  8
GR1-1
  6
CONTINUOUS
 62
     7
100
AcDbLine
 10
512.8019
 20
14.174962
 30
0.0
 11
513.243265
 21
14.616327
 31
0.0
  0
LINE
  5
362
330
1F
100
AcDbEntity
  8
GR1-1
  6
CONTINUOUS
 62
     7
100
AcDbLine
 10
516.099034
 20
17.472096
 30
0.0
 11
516.540399
 21
17.913462
 31
0.0
  0
LINE
  5
363
330
1F
100
AcDbEntity
  8
GR1-1
  6
CONTINUOUS
 62
     7
100
AcDbLine
 10
512.8019
 20
14.245673
 30
0.0
 11
513.20791
 21
14.651682
 31
0.0
  0
LINE
  5
364
330
1F
100
AcDbEntity
  8
GR1-1
  6
CONTINUOUS
 62
     7
100
AcDbLine
 10
516.063679
 20
17.507452
 30
0.0
 11
516.469689
 21
17.913462
 31
0.0
  0
LINE
  5
365
330
1F
100
AcDbEntity
  8
GR1-1
  6
CONTINUOUS
 62
     7
100
AcDbLine
 10
512.8019
 20
14.316383
 30
0.0
 11
513.172554
 21
14.687038
 31
0.0
  0
LINE
  5
366
330
1F
100
AcDbEntity
  8
GR1-1
  6
CONTINUOUS
 62
     7
100
AcDbLine
 10
516.028324
 20
17.542807
 30
0.0
 11
516.398978
 21
17.913462
 31
0.0
  0
LINE
  5
367
330
1F
100
AcDbEntity
  8
GR1-1
  6
CONTINUOUS
 62
     7
100
AcDbLine
 10
512.8019
 20
14.387094
 30
0.0
 11
513.137199
 21
14.722393
 31
0.0
  0
LINE
  5
368
330
1F
100
AcDbEntity
  8
GR1-1
  6
CONTINUOUS
 62
     7
100
AcDbLine
 10
515.992968
 20
17.578162
 30
0.0
 11
516.328267
 21
17.913462
 31
0.0
  0
LINE
  5
369
330
1F
100
AcDbEntity
  8
GR1-1
  6
CONTINUOUS
 62
     7
100
AcDbLine
 10
512.8019
 20
14.457805
 30
0.0
 11
513.101844
 21
14.757748
 31
0.0
  0
LINE
  5
36A
330
1F
100
AcDbEntity
  8
GR1-1
  6
CONTINUOUS
 62
     7
100
AcDbLine
 10
515.957613
 20
17.613518
 30
0.0
 11
516.257557
 21
17.913462
 31
0.0
  0
LINE
  5
36B
330
1F
100
AcDbEntity
  8
GR1-1
  6
CONTINUOUS
 62
     7
100
AcDbLine
 10
512.8019
 20
14.528515
 30
0.0
 11
513.066488
 21
14.793104
 31
0.0
  0
LINE
  5
36C
330
1F
100
AcDbEntity
  8
GR1-1
  6
CONTINUOUS
 62
     7
100
AcDbLine
 10
515.922258
 20
17.648873
 30
0.0
 11
516.186846
 21
17.913462
 31
0.0
  0
LINE
  5
36D
330
1F
100
AcDbEntity
  8
GR1-1
  6
CONTINUOUS
 62
     7
100
AcDbLine
 10
512.8019
 20
14.599226
 30
0.0
 11
513.031133
 21
14.828459
 31
0.0
  0
LINE
  5
36E
330
1F
100
AcDbEntity
  8
GR1-1
  6
CONTINUOUS
 62
     7
100
AcDbLine
 10
515.886902
 20
17.684228
 30
0.0
 11
516.116135
 21
17.913462
 31
0.0
  0
LINE
  5
36F
330
1F
100
AcDbEntity
  8
GR1-1
  6
CONTINUOUS
 62
     7
100
AcDbLine
 10
512.8019
 20
14.669937
 30
0.0
 11
512.995778
 21
14.863814
 31
0.0
  0
LINE
  5
370
330
1F
100
AcDbEntity
  8
GR1-1
  6
CONTINUOUS
 62
     7
100
AcDbLine
 10
515.851547
 20
17.719584
 30
0.0
 11
516.045425
 21
17.913462
 31
0.0
  0
LINE
  5
371
330
1F
100
AcDbEntity
  8
GR1-1
  6
CONTINUOUS
 62
     7
100
AcDbLine
 10
512.8019
 20
14.740647
 30
0.0
 11
512.960422
 21
14.89917
 31
0.0
  0
LINE
  5
372
330
1F
100
AcDbEntity
  8
GR1-1
  6
CONTINUOUS
 62
     7
100
AcDbLine
 10
515.816192
 20
17.754939
 30
0.0
 11
515.974714
 21
17.913462
 31
0.0
  0
LINE
  5
373
330
1F
100
AcDbEntity
  8
GR1-1
  6
CONTINUOUS
 62
     7
100
AcDbLine
 10
512.8019
 20
14.811358
 30
0.0
 11
515.904003
 21
17.913462
 31
0.0
  0
LINE
  5
374
330
1F
100
AcDbEntity
  8
GR1-1
  6
CONTINUOUS
 62
     7
100
AcDbLine
 10
512.8019
 20
14.882069
 30
0.0
 11
515.833293
 21
17.913462
 31
0.0
  0
LINE
  5
375
330
1F
100
AcDbEntity
  8
GR1-1
  6
CONTINUOUS
 62
     7
100
AcDbLine
 10
512.8019
 20
14.952779
 30
0.0
 11
515.762582
 21
17.913462
 31
0.0
  0
LINE
  5
376
330
1F
100
AcDbEntity
  8
GR1-1
  6
CONTINUOUS
 62
     7
100
AcDbLine
 10
512.8019
 20
15.02349
 30
0.0
 11
515.691871
 21
17.913462
 31
0.0
  0
LINE
  5
377
330
1F
100
AcDbEntity
  8
GR1-1
  6
CONTINUOUS
 62
     7
100
AcDbLine
 10
512.8019
 20
15.094201
 30
0.0
 11
515.621161
 21
17.913462
 31
0.0
  0
LINE
  5
378
330
1F
100
AcDbEntity
  8
GR1-1
  6
CONTINUOUS
 62
     7
100
AcDbLine
 10
512.8019
 20
15.164911
 30
0.0
 11
515.55045
 21
17.913462
 31
0.0
  0
LINE
  5
379
330
1F
100
AcDbEntity
  8
GR1-1
  6
CONTINUOUS
 62
     7
100
AcDbLine
 10
512.8019
 20
15.235622
 30
0.0
 11
515.479739
 21
17.913462
 31
0.0
  0
LINE
  5
37A
330
1F
100
AcDbEntity
  8
GR1-1
  6
CONTINUOUS
 62
     7
100
AcDbLine
 10
512.8019
 20
15.306333
 30
0.0
 11
515.409029
 21
17.913462
 31
0.0
  0
LINE
  5
37B
330
1F
100
AcDbEntity
  8
GR1-1
  6
CONTINUOUS
 62
     7
100
AcDbLine
 10
512.8019
 20
15.377043
 30
0.0
 11
515.338318
 21
17.913462
 31
0.0
  0
LINE
  5
37C
330
1F
100
AcDbEntity
  8
GR1-1
  6
CONTINUOUS
 62
     7
100
AcDbLine
 10
512.8019
 20
15.447754
 30
0.0
 11
515.267607
 21
17.913462
 31
0.0
  0
LINE
  5
37D
330
1F
100
AcDbEntity
  8
GR1-1
  6
CONTINUOUS
 62
     7
100
AcDbLine
 10
512.8019
 20
15.518465
 30
0.0
 11
515.196897
 21
17.913462
 31
0.0
  0
LINE
  5
37E
330
1F
100
AcDbEntity
  8
GR1-1
  6
CONTINUOUS
 62
     7
100
AcDbLine
 10
512.8019
 20
15.589175
 30
0.0
 11
515.126186
 21
17.913462
 31
0.0
  0
LINE
  5
37F
330
1F
100
AcDbEntity
  8
GR1-1
  6
CONTINUOUS
 62
     7
100
AcDbLine
 10
512.8019
 20
15.659886
 30
0.0
 11
515.055475
 21
17.913462
 31
0.0
  0
LINE
  5
380
330
1F
100
AcDbEntity
  8
GR1-1
  6
CONTINUOUS
 62
     7
100
AcDbLine
 10
512.8019
 20
15.730597
 30
0.0
 11
514.984765
 21
17.913462
 31
0.0
  0
LINE
  5
381
330
1F
100
AcDbEntity
  8
GR1-1
  6
CONTINUOUS
 62
     7
100
AcDbLine
 10
512.8019
 20
15.801307
 30
0.0
 11
514.914054
 21
17.913462
 31
0.0
  0
LINE
  5
382
330
1F
100
AcDbEntity
  8
GR1-1
  6
CONTINUOUS
 62
     7
100
AcDbLine
 10
512.8019
 20
15.872018
 30
0.0
 11
514.843343
 21
17.913462
 31
0.0
  0
LINE
  5
383
330
1F
100
AcDbEntity
  8
GR1-1
  6
CONTINUOUS
 62
     7
100
AcDbLine
 10
512.8019
 20
15.942729
 30
0.0
 11
514.772632
 21
17.913462
 31
0.0
  0
LINE
  5
384
330
1F
100
AcDbEntity
  8
GR1-1
  6
CONTINUOUS
 62
     7
100
AcDbLine
 10
512.8019
 20
16.013439
 30
0.0
 11
514.701922
 21
17.913462
 31
0.0
  0
LINE
  5
385
330
1F
100
AcDbEntity
  8
GR1-1
  6
CONTINUOUS
 62
     7
100
AcDbLine
 10
512.8019
 20
16.08415
 30
0.0
 11
514.631211
 21
17.913462
 31
0.0
  0
LINE
  5
386
330
1F
100
AcDbEntity
  8
GR1-1
  6
CONTINUOUS
 62
     7
100
AcDbLine
 10
512.8019
 20
16.154861
 30
0.0
 11
514.5605
 21
17.913462
 31
0.0
  0
LINE
  5
387
330
1F
100
AcDbEntity
  8
GR1-1
  6
CONTINUOUS
 62
     7
100
AcDbLine
 10
512.8019
 20
16.225572
 30
0.0
 11
514.48979
 21
17.913462
 31
0.0
  0
LINE
  5
388
330
1F
100
AcDbEntity
  8
GR1-1
  6
CONTINUOUS
 62
     7
100
AcDbLine
 10
512.8019
 20
16.296282
 30
0.0
 11
514.419079
 21
17.913462
 31
0.0
  0
LINE
  5
389
330
1F
100
AcDbEntity
  8
GR1-1
  6
CONTINUOUS
 62
     7
100
AcDbLine
 10
512.8019
 20
16.366993
 30
0.0
 11
514.348368
 21
17.913462
 31
0.0
  0
LINE
  5
38A
330
1F
100
AcDbEntity
  8
GR1-1
  6
CONTINUOUS
 62
     7
100
AcDbLine
 10
512.8019
 20
16.437704
 30
0.0
 11
514.277658
 21
17.913462
 31
0.0
  0
LINE
  5
38B
330
1F
100
AcDbEntity
  8
GR1-1
  6
CONTINUOUS
 62
     7
100
AcDbLine
 10
512.8019
 20
16.508414
 30
0.0
 11
514.206947
 21
17.913462
 31
0.0
  0
LINE
  5
38C
330
1F
100
AcDbEntity
  8
GR1-1
  6
CONTINUOUS
 62
     7
100
AcDbLine
 10
512.8019
 20
16.579125
 30
0.0
 11
514.136236
 21
17.913462
 31
0.0
  0
LINE
  5
38D
330
1F
100
AcDbEntity
  8
GR1-1
  6
CONTINUOUS
 62
     7
100
AcDbLine
 10
512.8019
 20
16.649836
 30
0.0
 11
514.065526
 21
17.913462
 31
0.0
  0
LINE
  5
38E
330
1F
100
AcDbEntity
  8
GR1-1
  6
CONTINUOUS
 62
     7
100
AcDbLine
 10
512.8019
 20
16.720546
 30
0.0
 11
513.994815
 21
17.913462
 31
0.0
  0
LINE
  5
38F
330
1F
100
AcDbEntity
  8
GR1-1
  6
CONTINUOUS
 62
     7
100
AcDbLine
 10
512.8019
 20
16.791257
 30
0.0
 11
513.924104
 21
17.913462
 31
0.0
  0
LINE
  5
390
330
1F
100
AcDbEntity
  8
GR1-1
  6
CONTINUOUS
 62
     7
100
AcDbLine
 10
512.8019
 20
16.861968
 30
0.0
 11
513.853394
 21
17.913462
 31
0.0
  0
LINE
  5
391
330
1F
100
AcDbEntity
  8
GR1-1
  6
CONTINUOUS
 62
     7
100
AcDbLine
 10
512.8019
 20
16.932678
 30
0.0
 11
513.782683
 21
17.913462
 31
0.0
  0
LINE
  5
392
330
1F
100
AcDbEntity
  8
GR1-1
  6
CONTINUOUS
 62
     7
100
AcDbLine
 10
512.8019
 20
17.003389
 30
0.0
 11
513.711972
 21
17.913462
 31
0.0
  0
LINE
  5
393
330
1F
100
AcDbEntity
  8
GR1-1
  6
CONTINUOUS
 62
     7
100
AcDbLine
 10
512.8019
 20
17.0741
 30
0.0
 11
513.641262
 21
17.913462
 31
0.0
  0
LINE
  5
394
330
1F
100
AcDbEntity
  8
GR1-1
  6
CONTINUOUS
 62
     7
100
AcDbLine
 10
512.8019
 20
17.14481
 30
0.0
 11
513.570551
 21
17.913462
 31
0.0
  0
LINE
  5
395
330
1F
100
AcDbEntity
  8
GR1-1
  6
CONTINUOUS
 62
     7
100
AcDbLine
 10
512.8019
 20
17.215521
 30
0.0
 11
513.49984
 21
17.913462
 31
0.0
  0
LINE
  5
396
330
1F
100
AcDbEntity
  8
GR1-1
  6
CONTINUOUS
 62
     7
100
AcDbLine
 10
512.8019
 20
17.286232
 30
0.0
 11
513.42913
 21
17.913462
 31
0.0
  0
LINE
  5
397
330
1F
100
AcDbEntity
  8
GR1-1
  6
CONTINUOUS
 62
     7
100
AcDbLine
 10
512.8019
 20
17.356942
 30
0.0
 11
513.358419
 21
17.913462
 31
0.0
  0
LINE
  5
398
330
1F
100
AcDbEntity
  8
GR1-1
  6
CONTINUOUS
 62
     7
100
AcDbLine
 10
512.8019
 20
17.427653
 30
0.0
 11
513.287708
 21
17.913462
 31
0.0
  0
LINE
  5
399
330
1F
100
AcDbEntity
  8
GR1-1
  6
CONTINUOUS
 62
     7
100
AcDbLine
 10
512.8019
 20
17.498364
 30
0.0
 11
513.216998
 21
17.913462
 31
0.0
  0
LINE
  5
39A
330
1F
100
AcDbEntity
  8
GR1-1
  6
CONTINUOUS
 62
     7
100
AcDbLine
 10
512.8019
 20
17.569074
 30
0.0
 11
513.146287
 21
17.913462
 31
0.0
  0
LINE
  5
39B
330
1F
100
AcDbEntity
  8
GR1-1
  6
CONTINUOUS
 62
     7
100
AcDbLine
 10
512.8019
 20
17.639785
 30
0.0
 11
513.075576
 21
17.913462
 31
0.0
  0
LINE
  5
39C
330
1F
100
AcDbEntity
  8
GR1-1
  6
CONTINUOUS
 62
     7
100
AcDbLine
 10
512.8019
 20
17.710496
 30
0.0
 11
513.004866
 21
17.913462
 31
0.0
  0
LINE
  5
39D
330
1F
100
AcDbEntity
  8
GR1-1
  6
CONTINUOUS
 62
     7
100
AcDbLine
 10
512.8019
 20
17.781206
 30
0.0
 11
512.934155
 21
17.913462
 31
0.0
  0
LINE
  5
39E
330
1F
100
AcDbEntity
  8
GR1-1
  6
CONTINUOUS
 62
     7
100
AcDbLine
 10
512.8019
 20
17.851917
 30
0.0
 11
512.863444
 21
17.913462
 31
0.0
  0
LINE
  5
39F
330
1F
100
AcDbEntity
  8
GR1-1
  6
CONTINUOUS
 62
     7
100
AcDbLine
 10
513.793091
 20
11.913462
 30
0.0
 11
514.869611
 21
12.989981
 31
0.0
  0
LINE
  5
3A0
330
1F
100
AcDbEntity
  8
GR1-1
  6
CONTINUOUS
 62
     7
100
AcDbLine
 10
515.685957
 20
13.806328
 30
0.0
 11
516.014245
 21
14.134615
 31
0.0
  0
LINE
  5
3A1
330
1F
100
AcDbEntity
  8
GR1-1
  6
CONTINUOUS
 62
     7
100
AcDbLine
 10
516.879629
 20
15.0
 30
0.0
 11
517.225783
 21
15.346154
 31
0.0
  0
LINE
  5
3A2
330
1F
100
AcDbEntity
  8
GR1-1
  6
CONTINUOUS
 62
     7
100
AcDbLine
 10
517.72538
 20
15.845751
 30
0.0
 11
518.8019
 21
16.922271
 31
0.0
  0
LINE
  5
3A3
330
1F
100
AcDbEntity
  8
GR1-1
  6
CONTINUOUS
 62
     7
100
AcDbLine
 10
513.863801
 20
11.913462
 30
0.0
 11
514.904966
 21
12.954626
 31
0.0
  0
LINE
  5
3A4
330
1F
100
AcDbEntity
  8
GR1-1
  6
CONTINUOUS
 62
     7
100
AcDbLine
 10
515.721312
 20
13.770972
 30
0.0
 11
516.084955
 21
14.134615
 31
0.0
  0
LINE
  5
3A5
330
1F
100
AcDbEntity
  8
GR1-1
  6
CONTINUOUS
 62
     7
100
AcDbLine
 10
516.95034
 20
15.0
 30
0.0
 11
517.296494
 21
15.346154
 31
0.0
  0
LINE
  5
3A6
330
1F
100
AcDbEntity
  8
GR1-1
  6
CONTINUOUS
 62
     7
100
AcDbLine
 10
517.760735
 20
15.810395
 30
0.0
 11
518.8019
 21
16.85156
 31
0.0
  0
LINE
  5
3A7
330
1F
100
AcDbEntity
  8
GR1-1
  6
CONTINUOUS
 62
     7
100
AcDbLine
 10
513.934512
 20
11.913462
 30
0.0
 11
514.940321
 21
12.919271
 31
0.0
  0
LINE
  5
3A8
330
1F
100
AcDbEntity
  8
GR1-1
  6
CONTINUOUS
 62
     7
100
AcDbLine
 10
515.756667
 20
13.735617
 30
0.0
 11
516.155666
 21
14.134615
 31
0.0
  0
LINE
  5
3A9
330
1F
100
AcDbEntity
  8
GR1-1
  6
CONTINUOUS
 62
     7
100
AcDbLine
 10
517.02105
 20
15.0
 30
0.0
 11
517.367204
 21
15.346154
 31
0.0
  0
LINE
  5
3AA
330
1F
100
AcDbEntity
  8
GR1-1
  6
CONTINUOUS
 62
     7
100
AcDbLine
 10
517.79609
 20
15.77504
 30
0.0
 11
518.8019
 21
16.780849
 31
0.0
  0
LINE
  5
3AB
330
1F
100
AcDbEntity
  8
GR1-1
  6
CONTINUOUS
 62
     7
100
AcDbLine
 10
514.005223
 20
11.913462
 30
0.0
 11
514.975677
 21
12.883915
 31
0.0
  0
LINE
  5
3AC
330
1F
100
AcDbEntity
  8
GR1-1
  6
CONTINUOUS
 62
     7
100
AcDbLine
 10
515.792023
 20
13.700262
 30
0.0
 11
516.226377
 21
14.134615
 31
0.0
  0
LINE
  5
3AD
330
1F
100
AcDbEntity
  8
GR1-1
  6
CONTINUOUS
 62
     7
100
AcDbLine
 10
517.091761
 20
15.0
 30
0.0
 11
517.437915
 21
15.346154
 31
0.0
  0
LINE
  5
3AE
330
1F
100
AcDbEntity
  8
GR1-1
  6
CONTINUOUS
 62
     7
100
AcDbLine
 10
517.831446
 20
15.739685
 30
0.0
 11
518.8019
 21
16.710139
 31
0.0
  0
LINE
  5
3AF
330
1F
100
AcDbEntity
  8
GR1-1
  6
CONTINUOUS
 62
     7
100
AcDbLine
 10
514.075933
 20
11.913462
 30
0.0
 11
515.011032
 21
12.84856
 31
0.0
  0
LINE
  5
3B0
330
1F
100
AcDbEntity
  8
GR1-1
  6
CONTINUOUS
 62
     7
100
AcDbLine
 10
517.162472
 20
15.0
 30
0.0
 11
517.508626
 21
15.346154
 31
0.0
  0
LINE
  5
3B1
330
1F
100
AcDbEntity
  8
GR1-1
  6
CONTINUOUS
 62
     7
100
AcDbLine
 10
517.866801
 20
15.704329
 30
0.0
 11
518.8019
 21
16.639428
 31
0.0
  0
LINE
  5
3B2
330
1F
100
AcDbEntity
  8
GR1-1
  6
CONTINUOUS
 62
     7
100
AcDbLine
 10
514.146644
 20
11.913462
 30
0.0
 11
515.046387
 21
12.813205
 31
0.0
  0
LINE
  5
3B3
330
1F
100
AcDbEntity
  8
GR1-1
  6
CONTINUOUS
 62
     7
100
AcDbLine
 10
517.233183
 20
15.0
 30
0.0
 11
517.579336
 21
15.346154
 31
0.0
  0
LINE
  5
3B4
330
1F
100
AcDbEntity
  8
GR1-1
  6
CONTINUOUS
 62
     7
100
AcDbLine
 10
517.902157
 20
15.668974
 30
0.0
 11
518.8019
 21
16.568717
 31
0.0
  0
LINE
  5
3B5
330
1F
100
AcDbEntity
  8
GR1-1
  6
CONTINUOUS
 62
     7
100
AcDbLine
 10
514.217355
 20
11.913462
 30
0.0
 11
515.081743
 21
12.777849
 31
0.0
  0
LINE
  5
3B6
330
1F
100
AcDbEntity
  8
GR1-1
  6
CONTINUOUS
 62
     7
100
AcDbLine
 10
517.303893
 20
15.0
 30
0.0
 11
517.650047
 21
15.346154
 31
0.0
  0
LINE
  5
3B7
330
1F
100
AcDbEntity
  8
GR1-1
  6
CONTINUOUS
 62
     7
100
AcDbLine
 10
517.937512
 20
15.633619
 30
0.0
 11
518.8019
 21
16.498007
 31
0.0
  0
LINE
  5
3B8
330
1F
100
AcDbEntity
  8
GR1-1
  6
CONTINUOUS
 62
     7
100
AcDbLine
 10
514.288065
 20
11.913462
 30
0.0
 11
515.117098
 21
12.742494
 31
0.0
  0
LINE
  5
3B9
330
1F
100
AcDbEntity
  8
GR1-1
  6
CONTINUOUS
 62
     7
100
AcDbLine
 10
517.374604
 20
15.0
 30
0.0
 11
517.720758
 21
15.346154
 31
0.0
  0
LINE
  5
3BA
330
1F
100
AcDbEntity
  8
GR1-1
  6
CONTINUOUS
 62
     7
100
AcDbLine
 10
517.972867
 20
15.598263
 30
0.0
 11
518.8019
 21
16.427296
 31
0.0
  0
LINE
  5
3BB
330
1F
100
AcDbEntity
  8
GR1-1
  6
CONTINUOUS
 62
     7
100
AcDbLine
 10
514.358776
 20
11.913462
 30
0.0
 11
515.152453
 21
12.707139
 31
0.0
  0
LINE
  5
3BC
330
1F
100
AcDbEntity
  8
GR1-1
  6
CONTINUOUS
 62
     7
100
AcDbLine
 10
517.445315
 20
15.0
 30
0.0
 11
517.791468
 21
15.346154
 31
0.0
  0
LINE
  5
3BD
330
1F
100
AcDbEntity
  8
GR1-1
  6
CONTINUOUS
 62
     7
100
AcDbLine
 10
518.008223
 20
15.562908
 30
0.0
 11
518.8019
 21
16.356585
 31
0.0
  0
LINE
  5
3BE
330
1F
100
AcDbEntity
  8
GR1-1
  6
CONTINUOUS
 62
     7
100
AcDbLine
 10
514.429487
 20
11.913462
 30
0.0
 11
515.187809
 21
12.671783
 31
0.0
  0
LINE
  5
3BF
330
1F
100
AcDbEntity
  8
GR1-1
  6
CONTINUOUS
 62
     7
100
AcDbLine
 10
517.516025
 20
15.0
 30
0.0
 11
517.862179
 21
15.346154
 31
0.0
  0
LINE
  5
3C0
330
1F
100
AcDbEntity
  8
GR1-1
  6
CONTINUOUS
 62
     7
100
AcDbLine
 10
518.043578
 20
15.527553
 30
0.0
 11
518.8019
 21
16.285875
 31
0.0
  0
LINE
  5
3C1
330
1F
100
AcDbEntity
  8
GR1-1
  6
CONTINUOUS
 62
     7
100
AcDbLine
 10
514.500197
 20
11.913462
 30
0.0
 11
515.223164
 21
12.636428
 31
0.0
  0
LINE
  5
3C2
330
1F
100
AcDbEntity
  8
GR1-1
  6
CONTINUOUS
 62
     7
100
AcDbLine
 10
517.586736
 20
15.0
 30
0.0
 11
517.93289
 21
15.346154
 31
0.0
  0
LINE
  5
3C3
330
1F
100
AcDbEntity
  8
GR1-1
  6
CONTINUOUS
 62
     7
100
AcDbLine
 10
518.078933
 20
15.492197
 30
0.0
 11
518.8019
 21
16.215164
 31
0.0
  0
LINE
  5
3C4
330
1F
100
AcDbEntity
  8
GR1-1
  6
CONTINUOUS
 62
     7
100
AcDbLine
 10
514.570908
 20
11.913462
 30
0.0
 11
515.258519
 21
12.601073
 31
0.0
  0
LINE
  5
3C5
330
1F
100
AcDbEntity
  8
GR1-1
  6
CONTINUOUS
 62
     7
100
AcDbLine
 10
517.657447
 20
15.0
 30
0.0
 11
518.0036
 21
15.346154
 31
0.0
  0
LINE
  5
3C6
330
1F
100
AcDbEntity
  8
GR1-1
  6
CONTINUOUS
 62
     7
100
AcDbLine
 10
518.114289
 20
15.456842
 30
0.0
 11
518.8019
 21
16.144453
 31
0.0
  0
LINE
  5
3C7
330
1F
100
AcDbEntity
  8
GR1-1
  6
CONTINUOUS
 62
     7
100
AcDbLine
 10
514.641619
 20
11.913462
 30
0.0
 11
515.293875
 21
12.565717
 31
0.0
  0
LINE
  5
3C8
330
1F
100
AcDbEntity
  8
GR1-1
  6
CONTINUOUS
 62
     7
100
AcDbLine
 10
517.728157
 20
15.0
 30
0.0
 11
518.074311
 21
15.346154
 31
0.0
  0
LINE
  5
3C9
330
1F
100
AcDbEntity
  8
GR1-1
  6
CONTINUOUS
 62
     7
100
AcDbLine
 10
518.149644
 20
15.421487
 30
0.0
 11
518.8019
 21
16.073743
 31
0.0
  0
LINE
  5
3CA
330
1F
100
AcDbEntity
  8
GR1-1
  6
CONTINUOUS
 62
     7
100
AcDbLine
 10
514.712329
 20
11.913462
 30
0.0
 11
515.32923
 21
12.530362
 31
0.0
  0
LINE
  5
3CB
330
1F
100
AcDbEntity
  8
GR1-1
  6
CONTINUOUS
 62
     7
100
AcDbLine
 10
517.798868
 20
15.0
 30
0.0
 11
518.145022
 21
15.346154
 31
0.0
  0
LINE
  5
3CC
330
1F
100
AcDbEntity
  8
GR1-1
  6
CONTINUOUS
 62
     7
100
AcDbLine
 10
518.184999
 20
15.386131
 30
0.0
 11
518.8019
 21
16.003032
 31
0.0
  0
LINE
  5
3CD
330
1F
100
AcDbEntity
  8
GR1-1
  6
CONTINUOUS
 62
     7
100
AcDbLine
 10
514.78304
 20
11.913462
 30
0.0
 11
515.364585
 21
12.495007
 31
0.0
  0
LINE
  5
3CE
330
1F
100
AcDbEntity
  8
GR1-1
  6
CONTINUOUS
 62
     7
100
AcDbLine
 10
517.869579
 20
15.0
 30
0.0
 11
518.215732
 21
15.346154
 31
0.0
  0
LINE
  5
3CF
330
1F
100
AcDbEntity
  8
GR1-1
  6
CONTINUOUS
 62
     7
100
AcDbLine
 10
518.220355
 20
15.350776
 30
0.0
 11
518.8019
 21
15.932321
 31
0.0
  0
LINE
  5
3D0
330
1F
100
AcDbEntity
  8
GR1-1
  6
CONTINUOUS
 62
     7
100
AcDbLine
 10
514.853751
 20
11.913462
 30
0.0
 11
515.399941
 21
12.459651
 31
0.0
  0
LINE
  5
3D1
330
1F
100
AcDbEntity
  8
GR1-1
  6
CONTINUOUS
 62
     7
100
AcDbLine
 10
517.940289
 20
15.0
 30
0.0
 11
518.8019
 21
15.86161
 31
0.0
  0
LINE
  5
3D2
330
1F
100
AcDbEntity
  8
GR1-1
  6
CONTINUOUS
 62
     7
100
AcDbLine
 10
514.924461
 20
11.913462
 30
0.0
 11
515.435296
 21
12.424296
 31
0.0
  0
LINE
  5
3D3
330
1F
100
AcDbEntity
  8
GR1-1
  6
CONTINUOUS
 62
     7
100
AcDbLine
 10
518.011
 20
15.0
 30
0.0
 11
518.8019
 21
15.7909
 31
0.0
  0
LINE
  5
3D4
330
1F
100
AcDbEntity
  8
GR1-1
  6
CONTINUOUS
 62
     7
100
AcDbLine
 10
514.995172
 20
11.913462
 30
0.0
 11
515.470651
 21
12.388941
 31
0.0
  0
LINE
  5
3D5
330
1F
100
AcDbEntity
  8
GR1-1
  6
CONTINUOUS
 62
     7
100
AcDbLine
 10
518.081711
 20
15.0
 30
0.0
 11
518.8019
 21
15.720189
 31
0.0
  0
LINE
  5
3D6
330
1F
100
AcDbEntity
  8
GR1-1
  6
CONTINUOUS
 62
     7
100
AcDbLine
 10
515.065883
 20
11.913462
 30
0.0
 11
515.506007
 21
12.353585
 31
0.0
  0
LINE
  5
3D7
330
1F
100
AcDbEntity
  8
GR1-1
  6
CONTINUOUS
 62
     7
100
AcDbLine
 10
518.152421
 20
15.0
 30
0.0
 11
518.8019
 21
15.649478
 31
0.0
  0
LINE
  5
3D8
330
1F
100
AcDbEntity
  8
GR1-1
  6
CONTINUOUS
 62
     7
100
AcDbLine
 10
515.136594
 20
11.913462
 30
0.0
 11
515.541362
 21
12.31823
 31
0.0
  0
LINE
  5
3D9
330
1F
100
AcDbEntity
  8
GR1-1
  6
CONTINUOUS
 62
     7
100
AcDbLine
 10
518.223132
 20
15.0
 30
0.0
 11
518.8019
 21
15.578768
 31
0.0
  0
LINE
  5
3DA
330
1F
100
AcDbEntity
  8
GR1-1
  6
CONTINUOUS
 62
     7
100
AcDbLine
 10
515.207304
 20
11.913462
 30
0.0
 11
515.576717
 21
12.282875
 31
0.0
  0
LINE
  5
3DB
330
1F
100
AcDbEntity
  8
GR1-1
  6
CONTINUOUS
 62
     7
100
AcDbLine
 10
518.224977
 20
14.931134
 30
0.0
 11
518.8019
 21
15.508057
 31
0.0
  0
LINE
  5
3DC
330
1F
100
AcDbEntity
  8
GR1-1
  6
CONTINUOUS
 62
     7
100
AcDbLine
 10
515.278015
 20
11.913462
 30
0.0
 11
515.612073
 21
12.247519
 31
0.0
  0
LINE
  5
3DD
330
1F
100
AcDbEntity
  8
GR1-1
  6
CONTINUOUS
 62
     7
100
AcDbLine
 10
518.224977
 20
14.860423
 30
0.0
 11
518.8019
 21
15.437346
 31
0.0
  0
LINE
  5
3DE
330
1F
100
AcDbEntity
  8
GR1-1
  6
CONTINUOUS
 62
     7
100
AcDbLine
 10
515.348726
 20
11.913462
 30
0.0
 11
515.647428
 21
12.212164
 31
0.0
  0
LINE
  5
3DF
330
1F
100
AcDbEntity
  8
GR1-1
  6
CONTINUOUS
 62
     7
100
AcDbLine
 10
518.224977
 20
14.789713
 30
0.0
 11
518.8019
 21
15.366636
 31
0.0
  0
LINE
  5
3E0
330
1F
100
AcDbEntity
  8
GR1-1
  6
CONTINUOUS
 62
     7
100
AcDbLine
 10
515.419436
 20
11.913462
 30
0.0
 11
515.682783
 21
12.176809
 31
0.0
  0
LINE
  5
3E1
330
1F
100
AcDbEntity
  8
GR1-1
  6
CONTINUOUS
 62
     7
100
AcDbLine
 10
518.224977
 20
14.719002
 30
0.0
 11
518.8019
 21
15.295925
 31
0.0
  0
LINE
  5
3E2
330
1F
100
AcDbEntity
  8
GR1-1
  6
CONTINUOUS
 62
     7
100
AcDbLine
 10
515.490147
 20
11.913462
 30
0.0
 11
515.718139
 21
12.141453
 31
0.0
  0
LINE
  5
3E3
330
1F
100
AcDbEntity
  8
GR1-1
  6
CONTINUOUS
 62
     7
100
AcDbLine
 10
518.224977
 20
14.648291
 30
0.0
 11
518.8019
 21
15.225214
 31
0.0
  0
LINE
  5
3E4
330
1F
100
AcDbEntity
  8
GR1-1
  6
CONTINUOUS
 62
     7
100
AcDbLine
 10
515.560858
 20
11.913462
 30
0.0
 11
515.753494
 21
12.106098
 31
0.0
  0
LINE
  5
3E5
330
1F
100
AcDbEntity
  8
GR1-1
  6
CONTINUOUS
 62
     7
100
AcDbLine
 10
518.224977
 20
14.577581
 30
0.0
 11
518.8019
 21
15.154504
 31
0.0
  0
LINE
  5
3E6
330
1F
100
AcDbEntity
  8
GR1-1
  6
CONTINUOUS
 62
     7
100
AcDbLine
 10
515.631568
 20
11.913462
 30
0.0
 11
515.788849
 21
12.070743
 31
0.0
  0
LINE
  5
3E7
330
1F
100
AcDbEntity
  8
GR1-1
  6
CONTINUOUS
 62
     7
100
AcDbLine
 10
518.224977
 20
14.50687
 30
0.0
 11
518.8019
 21
15.083793
 31
0.0
  0
LINE
  5
3E8
330
1F
100
AcDbEntity
  8
GR1-1
  6
CONTINUOUS
 62
     7
100
AcDbLine
 10
515.702279
 20
11.913462
 30
0.0
 11
517.359592
 21
13.570775
 31
0.0
  0
LINE
  5
3E9
330
1F
100
AcDbEntity
  8
GR1-1
  6
CONTINUOUS
 62
     7
100
AcDbLine
 10
518.224977
 20
14.436159
 30
0.0
 11
518.8019
 21
15.013082
 31
0.0
  0
LINE
  5
3EA
330
1F
100
AcDbEntity
  8
GR1-1
  6
CONTINUOUS
 62
     7
100
AcDbLine
 10
515.77299
 20
11.913462
 30
0.0
 11
517.359592
 21
13.500064
 31
0.0
  0
LINE
  5
3EB
330
1F
100
AcDbEntity
  8
GR1-1
  6
CONTINUOUS
 62
     7
100
AcDbLine
 10
518.224977
 20
14.365449
 30
0.0
 11
518.8019
 21
14.942372
 31
0.0
  0
LINE
  5
3EC
330
1F
100
AcDbEntity
  8
GR1-1
  6
CONTINUOUS
 62
     7
100
AcDbLine
 10
515.8437
 20
11.913462
 30
0.0
 11
517.359592
 21
13.429353
 31
0.0
  0
LINE
  5
3ED
330
1F
100
AcDbEntity
  8
GR1-1
  6
CONTINUOUS
 62
     7
100
AcDbLine
 10
518.224977
 20
14.294738
 30
0.0
 11
518.8019
 21
14.871661
 31
0.0
  0
LINE
  5
3EE
330
1F
100
AcDbEntity
  8
GR1-1
  6
CONTINUOUS
 62
     7
100
AcDbLine
 10
515.914411
 20
11.913462
 30
0.0
 11
517.359592
 21
13.358643
 31
0.0
  0
LINE
  5
3EF
330
1F
100
AcDbEntity
  8
GR1-1
  6
CONTINUOUS
 62
     7
100
AcDbLine
 10
518.224977
 20
14.224027
 30
0.0
 11
518.8019
 21
14.80095
 31
0.0
  0
LINE
  5
3F0
330
1F
100
AcDbEntity
  8
GR1-1
  6
CONTINUOUS
 62
     7
100
AcDbLine
 10
515.985122
 20
11.913462
 30
0.0
 11
517.359592
 21
13.287932
 31
0.0
  0
LINE
  5
3F1
330
1F
100
AcDbEntity
  8
GR1-1
  6
CONTINUOUS
 62
     7
100
AcDbLine
 10
518.224977
 20
14.153317
 30
0.0
 11
518.8019
 21
14.73024
 31
0.0
  0
LINE
  5
3F2
330
1F
100
AcDbEntity
  8
GR1-1
  6
CONTINUOUS
 62
     7
100
AcDbLine
 10
516.055832
 20
11.913462
 30
0.0
 11
517.359592
 21
13.217221
 31
0.0
  0
LINE
  5
3F3
330
1F
100
AcDbEntity
  8
GR1-1
  6
CONTINUOUS
 62
     7
100
AcDbLine
 10
518.224977
 20
14.082606
 30
0.0
 11
518.8019
 21
14.659529
 31
0.0
  0
LINE
  5
3F4
330
1F
100
AcDbEntity
  8
GR1-1
  6
CONTINUOUS
 62
     7
100
AcDbLine
 10
516.126543
 20
11.913462
 30
0.0
 11
517.359592
 21
13.146511
 31
0.0
  0
LINE
  5
3F5
330
1F
100
AcDbEntity
  8
GR1-1
  6
CONTINUOUS
 62
     7
100
AcDbLine
 10
518.224977
 20
14.011895
 30
0.0
 11
518.8019
 21
14.588818
 31
0.0
  0
LINE
  5
3F6
330
1F
100
AcDbEntity
  8
GR1-1
  6
CONTINUOUS
 62
     7
100
AcDbLine
 10
516.197254
 20
11.913462
 30
0.0
 11
517.359592
 21
13.0758
 31
0.0
  0
LINE
  5
3F7
330
1F
100
AcDbEntity
  8
GR1-1
  6
CONTINUOUS
 62
     7
100
AcDbLine
 10
518.224977
 20
13.941185
 30
0.0
 11
518.8019
 21
14.518108
 31
0.0
  0
LINE
  5
3F8
330
1F
100
AcDbEntity
  8
GR1-1
  6
CONTINUOUS
 62
     7
100
AcDbLine
 10
516.267964
 20
11.913462
 30
0.0
 11
517.359592
 21
13.005089
 31
0.0
  0
LINE
  5
3F9
330
1F
100
AcDbEntity
  8
GR1-1
  6
CONTINUOUS
 62
     7
100
AcDbLine
 10
518.224977
 20
13.870474
 30
0.0
 11
518.8019
 21
14.447397
 31
0.0
  0
LINE
  5
3FA
330
1F
100
AcDbEntity
  8
GR1-1
  6
CONTINUOUS
 62
     7
100
AcDbLine
 10
516.338675
 20
11.913462
 30
0.0
 11
517.405983
 21
12.980769
 31
0.0
  0
LINE
  5
3FB
330
1F
100
AcDbEntity
  8
GR1-1
  6
CONTINUOUS
 62
     7
100
AcDbLine
 10
518.224977
 20
13.799763
 30
0.0
 11
518.8019
 21
14.376686
 31
0.0
  0
LINE
  5
3FC
330
1F
100
AcDbEntity
  8
GR1-1
  6
CONTINUOUS
 62
     7
100
AcDbLine
 10
516.409386
 20
11.913462
 30
0.0
 11
517.476693
 21
12.980769
 31
0.0
  0
LINE
  5
3FD
330
1F
100
AcDbEntity
  8
GR1-1
  6
CONTINUOUS
 62
     7
100
AcDbLine
 10
518.224977
 20
13.729052
 30
0.0
 11
518.8019
 21
14.305976
 31
0.0
  0
LINE
  5
3FE
330
1F
100
AcDbEntity
  8
GR1-1
  6
CONTINUOUS
 62
     7
100
AcDbLine
 10
516.480096
 20
11.913462
 30
0.0
 11
517.547404
 21
12.980769
 31
0.0
  0
LINE
  5
3FF
330
1F
100
AcDbEntity
  8
GR1-1
  6
CONTINUOUS
 62
     7
100
AcDbLine
 10
518.224977
 20
13.658342
 30
0.0
 11
518.8019
 21
14.235265
 31
0.0
  0
LINE
  5
400
330
1F
100
AcDbEntity
  8
GR1-1
  6
CONTINUOUS
 62
     7
100
AcDbLine
 10
516.550807
 20
11.913462
 30
0.0
 11
517.618115
 21
12.980769
 31
0.0
  0
LINE
  5
401
330
1F
100
AcDbEntity
  8
GR1-1
  6
CONTINUOUS
 62
     7
100
AcDbLine
 10
518.224977
 20
13.587631
 30
0.0
 11
518.8019
 21
14.164554
 31
0.0
  0
LINE
  5
402
330
1F
100
AcDbEntity
  8
GR1-1
  6
CONTINUOUS
 62
     7
100
AcDbLine
 10
516.621518
 20
11.913462
 30
0.0
 11
517.688825
 21
12.980769
 31
0.0
  0
LINE
  5
403
330
1F
100
AcDbEntity
  8
GR1-1
  6
CONTINUOUS
 62
     7
100
AcDbLine
 10
518.224977
 20
13.51692
 30
0.0
 11
518.8019
 21
14.093844
 31
0.0
  0
LINE
  5
404
330
1F
100
AcDbEntity
  8
GR1-1
  6
CONTINUOUS
 62
     7
100
AcDbLine
 10
516.692228
 20
11.913462
 30
0.0
 11
517.759536
 21
12.980769
 31
0.0
  0
LINE
  5
405
330
1F
100
AcDbEntity
  8
GR1-1
  6
CONTINUOUS
 62
     7
100
AcDbLine
 10
518.224977
 20
13.44621
 30
0.0
 11
518.8019
 21
14.023133
 31
0.0
  0
LINE
  5
406
330
1F
100
AcDbEntity
  8
GR1-1
  6
CONTINUOUS
 62
     7
100
AcDbLine
 10
516.762939
 20
11.913462
 30
0.0
 11
517.830247
 21
12.980769
 31
0.0
  0
LINE
  5
407
330
1F
100
AcDbEntity
  8
GR1-1
  6
CONTINUOUS
 62
     7
100
AcDbLine
 10
518.224977
 20
13.375499
 30
0.0
 11
518.8019
 21
13.952422
 31
0.0
  0
LINE
  5
408
330
1F
100
AcDbEntity
  8
GR1-1
  6
CONTINUOUS
 62
     7
100
AcDbLine
 10
516.83365
 20
11.913462
 30
0.0
 11
517.900958
 21
12.980769
 31
0.0
  0
LINE
  5
409
330
1F
100
AcDbEntity
  8
GR1-1
  6
CONTINUOUS
 62
     7
100
AcDbLine
 10
518.224977
 20
13.304788
 30
0.0
 11
518.8019
 21
13.881712
 31
0.0
  0
LINE
  5
40A
330
1F
100
AcDbEntity
  8
GR1-1
  6
CONTINUOUS
 62
     7
100
AcDbLine
 10
516.90436
 20
11.913462
 30
0.0
 11
517.971668
 21
12.980769
 31
0.0
  0
LINE
  5
40B
330
1F
100
AcDbEntity
  8
GR1-1
  6
CONTINUOUS
 62
     7
100
AcDbLine
 10
518.224977
 20
13.234078
 30
0.0
 11
518.8019
 21
13.811001
 31
0.0
  0
LINE
  5
40C
330
1F
100
AcDbEntity
  8
GR1-1
  6
CONTINUOUS
 62
     7
100
AcDbLine
 10
516.975071
 20
11.913462
 30
0.0
 11
518.042379
 21
12.980769
 31
0.0
  0
LINE
  5
40D
330
1F
100
AcDbEntity
  8
GR1-1
  6
CONTINUOUS
 62
     7
100
AcDbLine
 10
518.224977
 20
13.163367
 30
0.0
 11
518.8019
 21
13.74029
 31
0.0
  0
LINE
  5
40E
330
1F
100
AcDbEntity
  8
GR1-1
  6
CONTINUOUS
 62
     7
100
AcDbLine
 10
517.045782
 20
11.913462
 30
0.0
 11
518.11309
 21
12.980769
 31
0.0
  0
LINE
  5
40F
330
1F
100
AcDbEntity
  8
GR1-1
  6
CONTINUOUS
 62
     7
100
AcDbLine
 10
518.224977
 20
13.092656
 30
0.0
 11
518.8019
 21
13.669579
 31
0.0
  0
LINE
  5
410
330
1F
100
AcDbEntity
  8
GR1-1
  6
CONTINUOUS
 62
     7
100
AcDbLine
 10
517.116493
 20
11.913462
 30
0.0
 11
518.1838
 21
12.980769
 31
0.0
  0
LINE
  5
411
330
1F
100
AcDbEntity
  8
GR1-1
  6
CONTINUOUS
 62
     7
100
AcDbLine
 10
518.224977
 20
13.021946
 30
0.0
 11
518.8019
 21
13.598869
 31
0.0
  0
LINE
  5
412
330
1F
100
AcDbEntity
  8
GR1-1
  6
CONTINUOUS
 62
     7
100
AcDbLine
 10
517.187203
 20
11.913462
 30
0.0
 11
518.8019
 21
13.528158
 31
0.0
  0
LINE
  5
413
330
1F
100
AcDbEntity
  8
GR1-1
  6
CONTINUOUS
 62
     7
100
AcDbLine
 10
517.257914
 20
11.913462
 30
0.0
 11
518.8019
 21
13.457447
 31
0.0
  0
LINE
  5
414
330
1F
100
AcDbEntity
  8
GR1-1
  6
CONTINUOUS
 62
     7
100
AcDbLine
 10
517.328625
 20
11.913462
 30
0.0
 11
518.8019
 21
13.386737
 31
0.0
  0
LINE
  5
415
330
1F
100
AcDbEntity
  8
GR1-1
  6
CONTINUOUS
 62
     7
100
AcDbLine
 10
517.399335
 20
11.913462
 30
0.0
 11
518.8019
 21
13.316026
 31
0.0
  0
LINE
  5
416
330
1F
100
AcDbEntity
  8
GR1-1
  6
CONTINUOUS
 62
     7
100
AcDbLine
 10
517.470046
 20
11.913462
 30
0.0
 11
518.8019
 21
13.245315
 31
0.0
  0
LINE
  5
417
330
1F
100
AcDbEntity
  8
GR1-1
  6
CONTINUOUS
 62
     7
100
AcDbLine
 10
517.540757
 20
11.913462
 30
0.0
 11
518.8019
 21
13.174605
 31
0.0
  0
LINE
  5
418
330
1F
100
AcDbEntity
  8
GR1-1
  6
CONTINUOUS
 62
     7
100
AcDbLine
 10
517.611467
 20
11.913462
 30
0.0
 11
518.8019
 21
13.103894
 31
0.0
  0
LINE
  5
419
330
1F
100
AcDbEntity
  8
GR1-1
  6
CONTINUOUS
 62
     7
100
AcDbLine
 10
517.682178
 20
11.913462
 30
0.0
 11
518.8019
 21
13.033183
 31
0.0
  0
LINE
  5
41A
330
1F
100
AcDbEntity
  8
GR1-1
  6
CONTINUOUS
 62
     7
100
AcDbLine
 10
517.752889
 20
11.913462
 30
0.0
 11
518.8019
 21
12.962473
 31
0.0
  0
LINE
  5
41B
330
1F
100
AcDbEntity
  8
GR1-1
  6
CONTINUOUS
 62
     7
100
AcDbLine
 10
517.823599
 20
11.913462
 30
0.0
 11
518.8019
 21
12.891762
 31
0.0
  0
LINE
  5
41C
330
1F
100
AcDbEntity
  8
GR1-1
  6
CONTINUOUS
 62
     7
100
AcDbLine
 10
517.89431
 20
11.913462
 30
0.0
 11
518.8019
 21
12.821051
 31
0.0
  0
LINE
  5
41D
330
1F
100
AcDbEntity
  8
GR1-1
  6
CONTINUOUS
 62
     7
100
AcDbLine
 10
517.965021
 20
11.913462
 30
0.0
 11
518.8019
 21
12.750341
 31
0.0
  0
LINE
  5
41E
330
1F
100
AcDbEntity
  8
GR1-1
  6
CONTINUOUS
 62
     7
100
AcDbLine
 10
518.035731
 20
11.913462
 30
0.0
 11
518.8019
 21
12.67963
 31
0.0
  0
LINE
  5
41F
330
1F
100
AcDbEntity
  8
GR1-1
  6
CONTINUOUS
 62
     7
100
AcDbLine
 10
518.106442
 20
11.913462
 30
0.0
 11
518.8019
 21
12.608919
 31
0.0
  0
LINE
  5
420
330
1F
100
AcDbEntity
  8
GR1-1
  6
CONTINUOUS
 62
     7
100
AcDbLine
 10
518.177153
 20
11.913462
 30
0.0
 11
518.8019
 21
12.538209
 31
0.0
  0
LINE
  5
421
330
1F
100
AcDbEntity
  8
GR1-1
  6
CONTINUOUS
 62
     7
100
AcDbLine
 10
518.247863
 20
11.913462
 30
0.0
 11
518.8019
 21
12.467498
 31
0.0
  0
LINE
  5
422
330
1F
100
AcDbEntity
  8
GR1-1
  6
CONTINUOUS
 62
     7
100
AcDbLine
 10
518.318574
 20
11.913462
 30
0.0
 11
518.8019
 21
12.396787
 31
0.0
  0
LINE
  5
423
330
1F
100
AcDbEntity
  8
GR1-1
  6
CONTINUOUS
 62
     7
100
AcDbLine
 10
518.389285
 20
11.913462
 30
0.0
 11
518.8019
 21
12.326077
 31
0.0
  0
LINE
  5
424
330
1F
100
AcDbEntity
  8
GR1-1
  6
CONTINUOUS
 62
     7
100
AcDbLine
 10
518.459995
 20
11.913462
 30
0.0
 11
518.8019
 21
12.255366
 31
0.0
  0
LINE
  5
425
330
1F
100
AcDbEntity
  8
GR1-1
  6
CONTINUOUS
 62
     7
100
AcDbLine
 10
518.530706
 20
11.913462
 30
0.0
 11
518.8019
 21
12.184655
 31
0.0
  0
LINE
  5
426
330
1F
100
AcDbEntity
  8
GR1-1
  6
CONTINUOUS
 62
     7
100
AcDbLine
 10
518.601417
 20
11.913462
 30
0.0
 11
518.8019
 21
12.113945
 31
0.0
  0
LINE
  5
427
330
1F
100
AcDbEntity
  8
GR1-1
  6
CONTINUOUS
 62
     7
100
AcDbLine
 10
518.672127
 20
11.913462
 30
0.0
 11
518.8019
 21
12.043234
 31
0.0
  0
LINE
  5
428
330
1F
100
AcDbEntity
  8
GR1-1
  6
CONTINUOUS
 62
     7
100
AcDbLine
 10
518.742838
 20
11.913462
 30
0.0
 11
518.8019
 21
11.972523
 31
0.0
  0
LINE
  5
429
330
1F
100
AcDbEntity
  8
LAYERGROUP-1
  6
CENTER
 62
     6
100
AcDbLine
 10
395.71517
 20
203.65143
 30
0.0
 11
395.71517
 21
186.765814
 31
0.0
  0
LINE
  5
42A
330
1F
100
AcDbEntity
  8
LAYERGROUP-1
  6
CENTER
 62
     6
100
AcDbLine
 10
390.71517
 20
203.65143
 30
0.0
 11
390.71517
 21
186.765814
 31
0.0
  0
LINE
  5
42B
330
1F
100
AcDbEntity
  8
LAYERGROUP-1
  6
CENTER
 62
     6
100
AcDbLine
 10
305.71517
 20
203.65143
 30
0.0
 11
305.71517
 21
186.765814
 31
0.0
  0
LINE
  5
42C
330
1F
100
AcDbEntity
  8
LAYERGROUP-1
  6
CENTER
 62
     6
100
AcDbLine
 10
310.71517
 20
203.65143
 30
0.0
 11
310.71517
 21
186.765814
 31
0.0
  0
LINE
  5
42D
330
1F
100
AcDbEntity
  8
GR1-1
  6
CENTER
 62
     6
100
AcDbLine
 10
173.060372
 20
186.765814
 30
0.0
 11
173.060372
 21
203.385732
 31
0.0
  0
LINE
  5
42E
330
1F
100
AcDbEntity
  8
GR1-1
  6
CENTER
 62
     6
100
AcDbLine
 10
175.560372
 20
186.765814
 30
0.0
 11
175.560372
 21
203.385732
 31
0.0
  0
LINE
  5
42F
330
1F
100
AcDbEntity
  8
GR1-1
  6
CENTER
 62
     6
100
AcDbLine
 10
128.060372
 20
186.765814
 30
0.0
 11
128.060372
 21
203.385732
 31
0.0
  0
LINE
  5
430
330
1F
100
AcDbEntity
  8
GR1-1
  6
CENTER
 62
     6
100
AcDbLine
 10
125.560372
 20
186.765814
 30
0.0
 11
125.560372
 21
203.385732
 31
0.0
  0
ENDSEC
  0
SECTION
  2
OBJECTS
  0
DICTIONARY
  5
C
330
0
100
AcDbDictionary
  3
ACAD_GROUP
350
D
  3
ACAD_LAYOUT
350
1A
  3
ACAD_MLINESTYLE
350
17
  3
ACAD_PLOTSETTINGS
350
19
  3
ACDBHEADERROUNDTRIPXREC
350
431
  0
DICTIONARY
  5
D
102
{ACAD_REACTORS
330
C
102
}
330
C
100
AcDbDictionary
  0
DICTIONARY
  5
1A
102
{ACAD_REACTORS
330
C
102
}
330
C
100
AcDbDictionary
  0
DICTIONARY
  5
17
102
{ACAD_REACTORS
330
C
102
}
330
C
100
AcDbDictionary
  3
STANDARD
350
18
  0
DICTIONARY
  5
19
102
{ACAD_REACTORS
330
C
102
}
330
C
100
AcDbDictionary
  0
DICTIONARY
  5
431
102
{ACAD_REACTORS
330
C
102
}
330
C
100
AcDbDictionary
  3
CEPSNTYPE
350
43A
  3
DIMSTYLEDATA
350
450
  3
FINGERPRINTGUID
350
43B
  3
HYPERLINKBASE
350
434
  3
INSUNITS
350
439
  3
LAYOUTDICT
350
436
  3
LWETCUNION
350
438
  3
PLOTSETDICT
350
437
  3
PSVPSCALE
350
43D
  3
PUCSBASE
350
440
  3
PUCSORGBACK
350
446
  3
PUCSORGBOTTOM
350
442
  3
PUCSORGFRONT
350
445
  3
PUCSORGLEFT
350
443
  3
PUCSORGRIGHT
350
444
  3
PUCSORGTOP
350
441
  3
PUCSORTHOREF
350
43E
  3
PUCSORTHOVIEW
350
43F
  3
STYLESHEET
350
435
  3
TSTACKALIGN
350
432
  3
TSTACKSIZE
350
433
  3
UCSBASE
350
449
  3
UCSORGBACK
350
44F
  3
UCSORGBOTTOM
350
44B
  3
UCSORGFRONT
350
44E
  3
UCSORGLEFT
350
44C
  3
UCSORGRIGHT
350
44D
  3
UCSORGTOP
350
44A
  3
UCSORTHOREF
350
447
  3
UCSORTHOVIEW
350
448
  3
VERSIONGUID
350
43C
  0
MLINESTYLE
  5
18
102
{ACAD_REACTORS
330
17
102
}
330
17
100
AcDbMlineStyle
  2
Standard
 70
     0
  3

 62
   256
 51
90.0
 52
90.0
 71
     2
 49
0.5
 62
   256
  6
BYLAYER
 49
-0.5
 62
   256
  6
BYLAYER
  0
XRECORD
  5
43A
102
{ACAD_REACTORS
330
431
102
}
330
431
100
AcDbXrecord
 90
        0
  0
XRECORD
  5
450
102
{ACAD_REACTORS
330
431
102
}
330
431
100
AcDbXrecord
1000
DSTYLE
1002
{
1070
   179
 70
     2
1070
   171
 70
     3
1070
   143
 40
0.03937
1070
   274
 70
     3
1070
    41
 40
4.0
1070
   344
340
47
1070
   141
 40
2.5
1070
   176
 70
     7
1070
   177
 70
     7
1070
   178
 70
     7
1070
   271
 70
     2
1070
    46
 40
6.0
1070
    43
 40
10.0
1070
    44
 40
1.0
1070
    42
 40
1.0
1070
   147
 40
1.0
1070
   173
 70
     1
1070
    77
 70
     1
1070
   272
 70
     2
1070
    73
 70
     0
1070
   172
 70
     1
1070
    74
 70
     0
1070
   283
 70
     0
1070
   340
340
3F
1070
   140
 40
4.0
1070
   284
 70
     8
1070
    78
 70
     8
1002
}
  0
XRECORD
  5
43B
102
{ACAD_REACTORS
330
431
102
}
330
431
100
AcDbXrecord
  1
{5854D22E-8B38-4A17-9782-FD186A44F504}
  0
XRECORD
  5
434
102
{ACAD_REACTORS
330
431
102
}
330
431
100
AcDbXrecord
  1

  0
XRECORD
  5
439
102
{ACAD_REACTORS
330
431
102
}
330
431
100
AcDbXrecord
 90
        1
  0
XRECORD
  5
436
102
{ACAD_REACTORS
330
431
102
}
330
431
100
AcDbXrecord
340
1A
  0
XRECORD
  5
438
102
{ACAD_REACTORS
330
431
102
}
330
431
100
AcDbXrecord
 90
    10781
  0
XRECORD
  5
437
102
{ACAD_REACTORS
330
431
102
}
330
431
100
AcDbXrecord
340
19
  0
XRECORD
  5
43D
102
{ACAD_REACTORS
330
431
102
}
330
431
100
AcDbXrecord
 40
0.0
  0
XRECORD
  5
440
102
{ACAD_REACTORS
330
431
102
}
330
431
100
AcDbXrecord
340
0
  0
XRECORD
  5
446
102
{ACAD_REACTORS
330
431
102
}
330
431
100
AcDbXrecord
 10
0.0
 20
0.0
 30
0.0
  0
XRECORD
  5
442
102
{ACAD_REACTORS
330
431
102
}
330
431
100
AcDbXrecord
 10
0.0
 20
0.0
 30
0.0
  0
XRECORD
  5
445
102
{ACAD_REACTORS
330
431
102
}
330
431
100
AcDbXrecord
 10
0.0
 20
0.0
 30
0.0
  0
XRECORD
  5
443
102
{ACAD_REACTORS
330
431
102
}
330
431
100
AcDbXrecord
 10
0.0
 20
0.0
 30
0.0
  0
XRECORD
  5
444
102
{ACAD_REACTORS
330
431
102
}
330
431
100
AcDbXrecord
 10
0.0
 20
0.0
 30
0.0
  0
XRECORD
  5
441
102
{ACAD_REACTORS
330
431
102
}
330
431
100
AcDbXrecord
 10
0.0
 20
0.0
 30
0.0
  0
XRECORD
  5
43E
102
{ACAD_REACTORS
330
431
102
}
330
431
100
AcDbXrecord
340
0
  0
XRECORD
  5
43F
102
{ACAD_REACTORS
330
431
102
}
330
431
100
AcDbXrecord
 70
     0
  0
XRECORD
  5
435
102
{ACAD_REACTORS
330
431
102
}
330
431
100
AcDbXrecord
  1

  0
XRECORD
  5
432
102
{ACAD_REACTORS
330
431
102
}
330
431
100
AcDbXrecord
 90
        1
  0
XRECORD
  5
433
102
{ACAD_REACTORS
330
431
102
}
330
431
100
AcDbXrecord
 90
       70
  0
XRECORD
  5
449
102
{ACAD_REACTORS
330
431
102
}
330
431
100
AcDbXrecord
340
0
  0
XRECORD
  5
44F
102
{ACAD_REACTORS
330
431
102
}
330
431
100
AcDbXrecord
 10
0.0
 20
0.0
 30
0.0
  0
XRECORD
  5
44B
102
{ACAD_REACTORS
330
431
102
}
330
431
100
AcDbXrecord
 10
0.0
 20
0.0
 30
0.0
  0
XRECORD
  5
44E
102
{ACAD_REACTORS
330
431
102
}
330
431
100
AcDbXrecord
 10
0.0
 20
0.0
 30
0.0
  0
XRECORD
  5
44C
102
{ACAD_REACTORS
330
431
102
}
330
431
100
AcDbXrecord
 10
0.0
 20
0.0
 30
0.0
  0
XRECORD
  5
44D
102
{ACAD_REACTORS
330
431
102
}
330
431
100
AcDbXrecord
 10
0.0
 20
0.0
 30
0.0
  0
XRECORD
  5
44A
102
{ACAD_REACTORS
330
431
102
}
330
431
100
AcDbXrecord
 10
0.0
 20
0.0
 30
0.0
  0
XRECORD
  5
447
102
{ACAD_REACTORS
330
431
102
}
330
431
100
AcDbXrecord
340
0
  0
XRECORD
  5
448
102
{ACAD_REACTORS
330
431
102
}
330
431
100
AcDbXrecord
 70
     0
  0
XRECORD
  5
43C
102
{ACAD_REACTORS
330
431
102
}
330
431
100
AcDbXrecord
  1
{FAEB1C32-E019-11D5-929B-00C0DF256EC4}
  0
ENDSEC
  0
EOF
