  0
SECTION
  2
HEADER
  9
$ACADVER
  1
AC1015
  9
$ACADMAINTVER
 70
     6
  9
$DWGCODEPAGE
  3
ANSI_932
  9
$INSBASE
 10
0.0
 20
0.0
 30
0.0
  9
$EXTMIN
 10
0.0
 20
0.0
 30
0.0
  9
$EXTMAX
 10
594.0
 20
420.0
 30
0.0
  9
$LIMMIN
 10
0.0
 20
0.0
  9
$LIMMAX
 10
594.0
 20
420.0
  9
$ORTHOMODE
 70
     0
  9
$REGENMODE
 70
     1
  9
$FILLMODE
 70
     1
  9
$QTEXTMODE
 70
     0
  9
$MIRRTEXT
 70
     1
  9
$LTSCALE
 40
1.0
  9
$ATTMODE
 70
     1
  9
$TEXTSIZE
 40
2.5
  9
$TRACEWID
 40
1.0
  9
$TEXTSTYLE
  7
FX_VECTOR
  9
$CLAYER
  8
0
  9
$CELTYPE
  6
ByLayer
  9
$CECOLOR
 62
   256
  9
$CELTSCALE
 40
1.0
  9
$DISPSILH
 70
     0
  9
$DIMSCALE
 40
1.0
  9
$DIMASZ
 40
4.0
  9
$DIMEXO
 40
1.0
  9
$DIMDLI
 40
10.0
  9
$DIMRND
 40
0.0
  9
$DIMDLE
 40
6.0
  9
$DIMEXE
 40
1.0
  9
$DIMTP
 40
0.0
  9
$DIMTM
 40
0.0
  9
$DIMTXT
 40
4.0
  9
$DIMCEN
 40
2.5
  9
$DIMTSZ
 40
0.0
  9
$DIMTOL
 70
     0
  9
$DIMLIM
 70
     0
  9
$DIMTIH
 70
     0
  9
$DIMTOH
 70
     0
  9
$DIMSE1
 70
     0
  9
$DIMSE2
 70
     0
  9
$DIMTAD
 70
     1
  9
$DIMZIN
 70
     8
  9
$DIMBLK
  1

  9
$DIMASO
 70
     1
  9
$DIMSHO
 70
     1
  9
$DIMPOST
  1

  9
$DIMAPOST
  1

  9
$DIMALT
 70
     0
  9
$DIMALTD
 70
     3
  9
$DIMALTF
 40
0.03937
  9
$DIMLFAC
 40
1.0
  9
$DIMTOFL
 70
     1
  9
$DIMTVP
 40
0.0
  9
$DIMTIX
 70
     0
  9
$DIMSOXD
 70
     0
  9
$DIMSAH
 70
     1
  9
$DIMBLK1
  1
FXTIP_ARROW_S
  9
$DIMBLK2
  1
FXTIP_ARROW_E
  9
$DIMSTYLE
  2
FX_DIMINFO
  9
$DIMCLRD
 70
     7
  9
$DIMCLRE
 70
     7
  9
$DIMCLRT
 70
     7
  9
$DIMTFAC
 40
1.0
  9
$DIMGAP
 40
1.0
  9
$DIMJUST
 70
     0
  9
$DIMSD1
 70
     0
  9
$DIMSD2
 70
     0
  9
$DIMTOLJ
 70
     1
  9
$DIMTZIN
 70
     8
  9
$DIMALTZ
 70
     0
  9
$DIMALTTZ
 70
     0
  9
$DIMUPT
 70
     0
  9
$DIMDEC
 70
     2
  9
$DIMTDEC
 70
     2
  9
$DIMALTU
 70
     2
  9
$DIMALTTD
 70
     3
  9
$DIMTXSTY
  7
FX_VECTOR
  9
$DIMAUNIT
 70
     0
  9
$DIMADEC
 70
     2
  9
$DIMALTRND
 40
0.0
  9
$DIMAZIN
 70
     2
  9
$DIMDSEP
 70
    46
  9
$DIMATFIT
 70
     3
  9
$DIMFRAC
 70
     0
  9
$DIMLDRBLK
  1
FXTIP_ARROW_S
  9
$DIMLUNIT
 70
     2
  9
$DIMLWD
 70
    -2
  9
$DIMLWE
 70
    -2
  9
$DIMTMOVE
 70
     0
  9
$LUNITS
 70
     2
  9
$LUPREC
 70
     4
  9
$SKETCHINC
 40
1.0
  9
$FILLETRAD
 40
10.0
  9
$AUNITS
 70
     0
  9
$AUPREC
 70
     0
  9
$MENU
  1
.
  9
$ELEVATION
 40
0.0
  9
$PELEVATION
 40
0.0
  9
$THICKNESS
 40
0.0
  9
$LIMCHECK
 70
     0
  9
$CHAMFERA
 40
0.0
  9
$CHAMFERB
 40
0.0
  9
$CHAMFERC
 40
0.0
  9
$CHAMFERD
 40
0.0
  9
$SKPOLY
 70
     0
  9
$TDCREATE
 40
2457871.71757397
  9
$TDUCREATE
 40
2457871.34257397
  9
$TDUPDATE
 40
2457871.717575058
  9
$TDUUPDATE
 40
2457871.342575058
  9
$TDINDWG
 40
0.0000000116
  9
$TDUSRTIMER
 40
0.0000000116
  9
$USRTIMER
 70
     1
  9
$ANGBASE
 50
0.0
  9
$ANGDIR
 70
     0
  9
$PDMODE
 70
     0
  9
$PDSIZE
 40
0.0
  9
$PLINEWID
 40
0.0
  9
$SPLFRAME
 70
     0
  9
$SPLINETYPE
 70
     6
  9
$SPLINESEGS
 70
     8
  9
$HANDSEED
  5
463
  9
$SURFTAB1
 70
     6
  9
$SURFTAB2
 70
     6
  9
$SURFTYPE
 70
     6
  9
$SURFU
 70
     6
  9
$SURFV
 70
     6
  9
$UCSBASE
  2

  9
$UCSNAME
  2

  9
$UCSORG
 10
0.0
 20
0.0
 30
0.0
  9
$UCSXDIR
 10
1.0
 20
0.0
 30
0.0
  9
$UCSYDIR
 10
0.0
 20
1.0
 30
0.0
  9
$UCSORTHOREF
  2

  9
$UCSORTHOVIEW
 70
     0
  9
$UCSORGTOP
 10
0.0
 20
0.0
 30
0.0
  9
$UCSORGBOTTOM
 10
0.0
 20
0.0
 30
0.0
  9
$UCSORGLEFT
 10
0.0
 20
0.0
 30
0.0
  9
$UCSORGRIGHT
 10
0.0
 20
0.0
 30
0.0
  9
$UCSORGFRONT
 10
0.0
 20
0.0
 30
0.0
  9
$UCSORGBACK
 10
0.0
 20
0.0
 30
0.0
  9
$PUCSBASE
  2

  9
$PUCSNAME
  2

  9
$PUCSORG
 10
0.0
 20
0.0
 30
0.0
  9
$PUCSXDIR
 10
1.0
 20
0.0
 30
0.0
  9
$PUCSYDIR
 10
0.0
 20
1.0
 30
0.0
  9
$PUCSORTHOREF
  2

  9
$PUCSORTHOVIEW
 70
     0
  9
$PUCSORGTOP
 10
0.0
 20
0.0
 30
0.0
  9
$PUCSORGBOTTOM
 10
0.0
 20
0.0
 30
0.0
  9
$PUCSORGLEFT
 10
0.0
 20
0.0
 30
0.0
  9
$PUCSORGRIGHT
 10
0.0
 20
0.0
 30
0.0
  9
$PUCSORGFRONT
 10
0.0
 20
0.0
 30
0.0
  9
$PUCSORGBACK
 10
0.0
 20
0.0
 30
0.0
  9
$USERI1
 70
     0
  9
$USERI2
 70
     0
  9
$USERI3
 70
     0
  9
$USERI4
 70
     0
  9
$USERI5
 70
     0
  9
$USERR1
 40
0.0
  9
$USERR2
 40
0.0
  9
$USERR3
 40
0.0
  9
$USERR4
 40
0.0
  9
$USERR5
 40
0.0
  9
$WORLDVIEW
 70
     1
  9
$SHADEDGE
 70
     3
  9
$SHADEDIF
 70
    70
  9
$TILEMODE
 70
     1
  9
$MAXACTVP
 70
    64
  9
$PINSBASE
 10
0.0
 20
0.0
 30
0.0
  9
$PLIMCHECK
 70
     0
  9
$PEXTMIN
 10
1.000000000000000E+20
 20
1.000000000000000E+20
 30
1.000000000000000E+20
  9
$PEXTMAX
 10
-1.000000000000000E+20
 20
-1.000000000000000E+20
 30
-1.000000000000000E+20
  9
$PLIMMIN
 10
0.0
 20
0.0
  9
$PLIMMAX
 10
420.0
 20
297.0
  9
$UNITMODE
 70
     0
  9
$VISRETAIN
 70
     1
  9
$PLINEGEN
 70
     0
  9
$PSLTSCALE
 70
     1
  9
$TREEDEPTH
 70
  3020
  9
$CMLSTYLE
  2
Standard
  9
$CMLJUST
 70
     0
  9
$CMLSCALE
 40
20.0
  9
$PROXYGRAPHICS
 70
     1
  9
$MEASUREMENT
 70
     1
  9
$CELWEIGHT
370
    -1
  9
$ENDCAPS
280
     0
  9
$JOINSTYLE
280
     0
  9
$LWDISPLAY
290
     0
  9
$INSUNITS
 70
     4
  9
$HYPERLINKBASE
  1

  9
$STYLESHEET
  1

  9
$XEDIT
290
     1
  9
$CEPSNTYPE
380
     0
  9
$PSTYLEMODE
290
     1
  9
$FINGERPRINTGUID
  2
{25E35D74-C4BA-4216-8014-69F06DA54791}
  9
$VERSIONGUID
  2
{FAEB1C32-E019-11D5-929B-00C0DF256EC4}
  9
$EXTNAMES
290
     1
  9
$PSVPSCALE
 40
0.0
  9
$OLESTARTUP
290
     0
  0
ENDSEC
  0
SECTION
  2
CLASSES
  0
CLASS
  1
ACDBDICTIONARYWDFLT
  2
AcDbDictionaryWithDefault
  3
ObjectDBX Classes
 90
        0
280
     0
281
     0
  0
CLASS
  1
VISUALSTYLE
  2
AcDbVisualStyle
  3
ObjectDBX Classes
 90
     4095
280
     0
281
     0
  0
CLASS
  1
MATERIAL
  2
AcDbMaterial
  3
ObjectDBX Classes
 90
     1153
280
     0
281
     0
  0
CLASS
  1
SCALE
  2
AcDbScale
  3
ObjectDBX Classes
 90
     1153
280
     0
281
     0
  0
CLASS
  1
TABLESTYLE
  2
AcDbTableStyle
  3
ObjectDBX Classes
 90
     4095
280
     0
281
     0
  0
CLASS
  1
MLEADERSTYLE
  2
AcDbMLeaderStyle
  3
ACDB_MLEADERSTYLE_CLASS
 90
     4095
280
     0
281
     0
  0
CLASS
  1
SUN
  2
AcDbSun
  3
SCENEOE
 90
     1153
280
     0
281
     0
  0
CLASS
  1
DICTIONARYVAR
  2
AcDbDictionaryVar
  3
ObjectDBX Classes
 90
        0
280
     0
281
     0
  0
CLASS
  1
ACDBPLACEHOLDER
  2
AcDbPlaceHolder
  3
ObjectDBX Classes
 90
        0
280
     0
281
     0
  0
CLASS
  1
LAYOUT
  2
AcDbLayout
  3
ObjectDBX Classes
 90
        0
280
     0
281
     0
  0
ENDSEC
  0
SECTION
  2
TABLES
  0
TABLE
  2
VPORT
  5
8
102
{ACAD_XDICTIONARY
360
426
102
}
330
0
100
AcDbSymbolTable
 70
     1
  0
VPORT
  5
29
330
8
100
AcDbSymbolTableRecord
100
AcDbViewportTableRecord
  2
*Active
 70
     0
 10
0.0
 20
0.0
 11
1.0
 21
1.0
 12
297.0
 22
210.0
 13
0.0
 23
0.0
 14
10.0
 24
10.0
 15
10.0
 25
10.0
 16
0.0
 26
0.0
 36
1.0
 17
0.0
 27
0.0
 37
0.0
 40
420.0
 41
1.414285714285714
 42
50.0
 43
0.0
 44
0.0
 50
0.0
 51
0.0
 71
     0
 72
   100
 73
     1
 74
     3
 75
     0
 76
     0
 77
     0
 78
     0
281
     0
 65
     1
110
0.0
120
0.0
130
0.0
111
1.0
121
0.0
131
0.0
112
0.0
122
1.0
132
0.0
 79
     0
146
0.0
  0
ENDTAB
  0
TABLE
  2
LTYPE
  5
5
330
0
100
AcDbSymbolTable
 70
     5
  0
LTYPE
  5
14
330
5
100
AcDbSymbolTableRecord
100
AcDbLinetypeTableRecord
  2
ByBlock
 70
     0
  3

 72
    65
 73
     0
 40
0.0
  0
LTYPE
  5
15
330
5
100
AcDbSymbolTableRecord
100
AcDbLinetypeTableRecord
  2
ByLayer
 70
     0
  3

 72
    65
 73
     0
 40
0.0
  0
LTYPE
  5
16
330
5
100
AcDbSymbolTableRecord
100
AcDbLinetypeTableRecord
  2
Continuous
 70
     0
  3
Continuous
 72
    65
 73
     0
 40
0.0
  0
LTYPE
  5
6E
330
5
100
AcDbSymbolTableRecord
100
AcDbLinetypeTableRecord
  2
DASHDOT
 70
     0
  3
Dash dot __ . __ . __ . __ . __ . __ . __ . __
 72
    65
 73
     4
 40
13.0
 49
10.0
 74
     0
 49
-1.0
 74
     0
 49
1.0
 74
     0
 49
-1.0
 74
     0
  0
ENDTAB
  0
TABLE
  2
LAYER
  5
2
330
0
100
AcDbSymbolTable
 70
     7
  0
LAYER
  5
10
330
2
100
AcDbSymbolTableRecord
100
AcDbLayerTableRecord
  2
0
 70
     0
 62
     7
  6
Continuous
370
    -3
390
F
  0
LAYER
  5
DF
330
2
100
AcDbSymbolTableRecord
100
AcDbLayerTableRecord
  2
Defpoints
 70
     0
 62
     7
  6
Continuous
290
     0
370
    -3
390
F
  0
LAYER
  5
E1
330
2
100
AcDbSymbolTableRecord
100
AcDbLayerTableRecord
  2
GR1
 70
     0
 62
     7
  6
Continuous
370
    -3
390
F
  0
LAYER
  5
190
330
2
100
AcDbSymbolTableRecord
100
AcDbLayerTableRecord
  2
図面枠ﾚｲﾔ
 70
     0
 62
     7
  6
Continuous
370
    -3
390
F
  0
LAYER
  5
1C2
330
2
100
AcDbSymbolTableRecord
100
AcDbLayerTableRecord
  2
基準ﾚｲﾔｸﾞﾙｰﾌﾟ
 70
     0
 62
     7
  6
Continuous
370
    -3
390
F
  0
ENDTAB
  0
TABLE
  2
STYLE
  5
3
330
0
100
AcDbSymbolTable
 70
     3
  0
STYLE
  5
11
330
3
100
AcDbSymbolTableRecord
100
AcDbTextStyleTableRecord
  2
Standard
 70
     0
 40
0.0
 41
1.0
 50
0.0
 71
     0
 42
2.5
  3
txt
  4

  0
STYLE
  5
74
330
3
100
AcDbSymbolTableRecord
100
AcDbTextStyleTableRecord
  2
FX_VECTOR
 70
     0
 40
0.0
 41
1.0
 50
0.0
 71
     0
 42
2.5
  3
MONOTXT.SHX
  4
BigFont.shx
  0
STYLE
  5
E0
330
3
100
AcDbSymbolTableRecord
100
AcDbTextStyleTableRecord
  2
DEFAULT
 70
     0
 40
0.0
 41
1.0
 50
0.0
 71
     0
 42
2.5
  3

  4

1001
ACAD
1000
ＭＳ ゴシック
1071
    32817
  0
ENDTAB
  0
TABLE
  2
VIEW
  5
6
330
0
100
AcDbSymbolTable
 70
     0
  0
ENDTAB
  0
TABLE
  2
UCS
  5
7
330
0
100
AcDbSymbolTable
 70
     0
  0
ENDTAB
  0
TABLE
  2
APPID
  5
9
330
0
100
AcDbSymbolTable
 70
     2
  0
APPID
  5
12
330
9
100
AcDbSymbolTableRecord
100
AcDbRegAppTableRecord
  2
ACAD
 70
     0
  0
APPID
  5
460
330
9
100
AcDbSymbolTableRecord
100
AcDbRegAppTableRecord
  2
ACAD_MLEADERVER
 70
     0
  0
ENDTAB
  0
TABLE
  2
DIMSTYLE
  5
A
330
0
100
AcDbSymbolTable
 70
     2
100
AcDbDimStyleTable
  0
DIMSTYLE
105
27
330
A
100
AcDbSymbolTableRecord
100
AcDbDimStyleTableRecord
  2
ISO-25
 70
     0
 41
2.5
 42
0.625
 43
3.75
 44
1.25
 73
     0
 74
     0
 77
     1
 78
     8
140
2.5
141
2.5
143
0.03937007874016
147
0.625
171
     3
172
     1
178
     0
271
     2
272
     2
274
     3
278
    44
283
     0
284
     8
340
11
  0
DIMSTYLE
105
DE
330
A
100
AcDbSymbolTableRecord
100
AcDbDimStyleTableRecord
  2
FX_DIMINFO
 70
     0
 41
4.0
 42
1.0
 43
10.0
 44
1.0
 46
6.0
 73
     0
 74
     0
 77
     1
 78
     8
 79
     2
140
4.0
141
2.5
143
0.03937
147
1.0
171
     3
172
     1
173
     1
176
     7
177
     7
271
     2
178
     7
179
     2
271
     2
272
     2
274
     3
284
     8
340
74
341
78
343
78
344
7E
  0
ENDTAB
  0
TABLE
  2
BLOCK_RECORD
  5
1
330
0
100
AcDbSymbolTable
 70
    23
  0
BLOCK_RECORD
  5
1F
330
1
100
AcDbSymbolTableRecord
100
AcDbBlockTableRecord
  2
*Model_Space
340
22
  0
BLOCK_RECORD
  5
1B
330
1
100
AcDbSymbolTableRecord
100
AcDbBlockTableRecord
  2
*Paper_Space
340
1E
  0
BLOCK_RECORD
  5
23
330
1
100
AcDbSymbolTableRecord
100
AcDbBlockTableRecord
  2
*Paper_Space0
340
26
  0
BLOCK_RECORD
  5
75
330
1
100
AcDbSymbolTableRecord
100
AcDbBlockTableRecord
  2
FXTIP_NONE
340
0
  0
BLOCK_RECORD
  5
78
330
1
100
AcDbSymbolTableRecord
100
AcDbBlockTableRecord
  2
FXTIP_ARROW_S
340
0
102
{BLKREFS
331
196
331
19C
331
1A2
331
1A8
331
1AE
331
1B4
331
1BA
331
1C0
331
1C5
331
1CB
331
1D0
331
350
331
356
102
}
  0
BLOCK_RECORD
  5
7E
330
1
100
AcDbSymbolTableRecord
100
AcDbBlockTableRecord
  2
FXTIP_ARROW_E
340
0
102
{BLKREFS
331
197
331
19D
331
1A3
331
1A9
331
1AF
331
1B5
331
1BB
331
1C1
331
1C6
331
1CC
331
1D1
331
351
331
357
102
}
  0
BLOCK_RECORD
  5
84
330
1
100
AcDbSymbolTableRecord
100
AcDbBlockTableRecord
  2
FXTIP_BLACKDOT_S
340
0
  0
BLOCK_RECORD
  5
8A
330
1
100
AcDbSymbolTableRecord
100
AcDbBlockTableRecord
  2
FXTIP_BLACKDOT_E
340
0
  0
BLOCK_RECORD
  5
90
330
1
100
AcDbSymbolTableRecord
100
AcDbBlockTableRecord
  2
FXTIP_TRIANGLE_S
340
0
  0
BLOCK_RECORD
  5
97
330
1
100
AcDbSymbolTableRecord
100
AcDbBlockTableRecord
  2
FXTIP_TRIANGLE_E
340
0
  0
BLOCK_RECORD
  5
9E
330
1
100
AcDbSymbolTableRecord
100
AcDbBlockTableRecord
  2
FXTIP_ARCHITECT_S
340
0
  0
BLOCK_RECORD
  5
A4
330
1
100
AcDbSymbolTableRecord
100
AcDbBlockTableRecord
  2
FXTIP_ARCHITECT_E
340
0
  0
BLOCK_RECORD
  5
AA
330
1
100
AcDbSymbolTableRecord
100
AcDbBlockTableRecord
  2
FXTIP_CIVIL_S
340
0
  0
BLOCK_RECORD
  5
B0
330
1
100
AcDbSymbolTableRecord
100
AcDbBlockTableRecord
  2
FXTIP_CIVIL_E
340
0
  0
BLOCK_RECORD
  5
B6
330
1
100
AcDbSymbolTableRecord
100
AcDbBlockTableRecord
  2
FXTIP_WHITEDOT_S
340
0
  0
BLOCK_RECORD
  5
BB
330
1
100
AcDbSymbolTableRecord
100
AcDbBlockTableRecord
  2
FXTIP_WHITEDOT_E
340
0
  0
BLOCK_RECORD
  5
C0
330
1
100
AcDbSymbolTableRecord
100
AcDbBlockTableRecord
  2
FXTIP_UPARROW_S
340
0
  0
BLOCK_RECORD
  5
C5
330
1
100
AcDbSymbolTableRecord
100
AcDbBlockTableRecord
  2
FXTIP_UPARROW_E
340
0
  0
BLOCK_RECORD
  5
CA
330
1
100
AcDbSymbolTableRecord
100
AcDbBlockTableRecord
  2
FXTIP_DOWNARROW_S
340
0
  0
BLOCK_RECORD
  5
CF
330
1
100
AcDbSymbolTableRecord
100
AcDbBlockTableRecord
  2
FXTIP_DOWNARROW_E
340
0
  0
BLOCK_RECORD
  5
D4
330
1
100
AcDbSymbolTableRecord
100
AcDbBlockTableRecord
  2
FXTIP_BLACKTRIANGLE_S
340
0
  0
BLOCK_RECORD
  5
D9
330
1
100
AcDbSymbolTableRecord
100
AcDbBlockTableRecord
  2
FXTIP_BLACKTRIANGLE_E
340
0
  0
BLOCK_RECORD
  5
384
330
1
100
AcDbSymbolTableRecord
100
AcDbBlockTableRecord
  2
BLKF023
340
0
102
{BLKREFS
331
387
102
}
  0
BLOCK_RECORD
  5
3F4
330
1
100
AcDbSymbolTableRecord
100
AcDbBlockTableRecord
  2
BLKF024
340
0
102
{BLKREFS
331
3F7
102
}
  0
BLOCK_RECORD
  5
403
330
1
100
AcDbSymbolTableRecord
100
AcDbBlockTableRecord
  2
BLKF025
340
0
102
{BLKREFS
331
406
102
}
  0
ENDTAB
  0
ENDSEC
  0
SECTION
  2
BLOCKS
  0
BLOCK
  5
20
330
1F
100
AcDbEntity
  8
0
100
AcDbBlockBegin
  2
*Model_Space
 70
     0
 10
0.0
 20
0.0
 30
0.0
  3
*Model_Space
  1

  0
ENDBLK
  5
21
330
1F
100
AcDbEntity
  8
0
100
AcDbBlockEnd
  0
BLOCK
  5
1C
330
1B
100
AcDbEntity
 67
     1
  8
0
100
AcDbBlockBegin
  2
*Paper_Space
 70
     0
 10
0.0
 20
0.0
 30
0.0
  3
*Paper_Space
  1

  0
ENDBLK
  5
1D
330
1B
100
AcDbEntity
 67
     1
  8
0
100
AcDbBlockEnd
  0
BLOCK
  5
24
330
23
100
AcDbEntity
  8
0
100
AcDbBlockBegin
  2
*Paper_Space0
 70
     0
 10
0.0
 20
0.0
 30
0.0
  3
*Paper_Space0
  1

  0
ENDBLK
  5
25
330
23
100
AcDbEntity
  8
0
100
AcDbBlockEnd
  0
BLOCK
  5
76
330
75
100
AcDbEntity
  8
0
100
AcDbBlockBegin
  2
FXTIP_NONE
 70
     0
 10
0.0
 20
0.0
 30
0.0
  3
FXTIP_NONE
  1

  0
ENDBLK
  5
77
330
75
100
AcDbEntity
  8
0
100
AcDbBlockEnd
  0
BLOCK
  5
79
330
78
100
AcDbEntity
  8
0
100
AcDbBlockBegin
  2
FXTIP_ARROW_S
 70
     0
 10
0.0
 20
0.0
 30
0.0
  3
FXTIP_ARROW_S
  1

  0
LINE
  5
7B
330
78
100
AcDbEntity
  8
0
  6
Continuous
 62
     0
370
    -2
100
AcDbLine
 10
0.0
 20
0.0
 30
0.0
 11
-1.0
 21
0.0000000000000001
 31
0.0
  0
LINE
  5
7C
330
78
100
AcDbEntity
  8
0
  6
Continuous
 62
     0
370
    -2
100
AcDbLine
 10
0.0
 20
0.0
 30
0.0
 11
-0.9659258262890683
 21
-0.2588190451025206
 31
0.0
  0
LINE
  5
7D
330
78
100
AcDbEntity
  8
0
  6
Continuous
 62
     0
370
    -2
100
AcDbLine
 10
0.0
 20
0.0
 30
0.0
 11
-0.9659258262890683
 21
0.2588190451025209
 31
0.0
  0
ENDBLK
  5
7A
330
78
100
AcDbEntity
  8
0
100
AcDbBlockEnd
  0
BLOCK
  5
7F
330
7E
100
AcDbEntity
  8
0
100
AcDbBlockBegin
  2
FXTIP_ARROW_E
 70
     0
 10
0.0
 20
0.0
 30
0.0
  3
FXTIP_ARROW_E
  1

  0
LINE
  5
81
330
7E
100
AcDbEntity
  8
0
  6
Continuous
 62
     0
370
    -2
100
AcDbLine
 10
0.0
 20
0.0
 30
0.0
 11
-1.0
 21
0.0
 31
0.0
  0
LINE
  5
82
330
7E
100
AcDbEntity
  8
0
  6
Continuous
 62
     0
370
    -2
100
AcDbLine
 10
0.0
 20
0.0
 30
0.0
 11
-0.9659258262890683
 21
0.2588190451025207
 31
0.0
  0
LINE
  5
83
330
7E
100
AcDbEntity
  8
0
  6
Continuous
 62
     0
370
    -2
100
AcDbLine
 10
0.0
 20
0.0
 30
0.0
 11
-0.9659258262890683
 21
-0.2588190451025207
 31
0.0
  0
ENDBLK
  5
80
330
7E
100
AcDbEntity
  8
0
100
AcDbBlockEnd
  0
BLOCK
  5
85
330
84
100
AcDbEntity
  8
0
100
AcDbBlockBegin
  2
FXTIP_BLACKDOT_S
 70
     0
 10
0.0
 20
0.0
 30
0.0
  3
FXTIP_BLACKDOT_S
  1

  0
LINE
  5
87
330
84
100
AcDbEntity
  8
0
  6
Continuous
 62
     0
370
    -2
100
AcDbLine
 10
0.0
 20
0.0
 30
0.0
 11
-1.0
 21
0.0000000000000001
 31
0.0
  0
LWPOLYLINE
  5
88
330
84
100
AcDbEntity
  8
0
  6
Continuous
 62
     0
370
    -2
100
AcDbPolyline
 90
        2
 70
     1
 43
0.0625
 10
-0.03125
 20
0.0
 42
1.0
 10
0.03125
 20
0.0
 42
1.0
  0
CIRCLE
  5
89
330
84
100
AcDbEntity
  8
0
  6
Continuous
 62
     0
370
    -2
100
AcDbCircle
 10
0.0
 20
0.0
 30
0.0
 40
0.0625
  0
ENDBLK
  5
86
330
84
100
AcDbEntity
  8
0
100
AcDbBlockEnd
  0
BLOCK
  5
8B
330
8A
100
AcDbEntity
  8
0
100
AcDbBlockBegin
  2
FXTIP_BLACKDOT_E
 70
     0
 10
0.0
 20
0.0
 30
0.0
  3
FXTIP_BLACKDOT_E
  1

  0
LINE
  5
8D
330
8A
100
AcDbEntity
  8
0
  6
Continuous
 62
     0
370
    -2
100
AcDbLine
 10
0.0
 20
0.0
 30
0.0
 11
-1.0
 21
0.0
 31
0.0
  0
LWPOLYLINE
  5
8E
330
8A
100
AcDbEntity
  8
0
  6
Continuous
 62
     0
370
    -2
100
AcDbPolyline
 90
        2
 70
     1
 43
0.0625
 10
-0.03125
 20
0.0
 42
1.0
 10
0.03125
 20
0.0
 42
1.0
  0
CIRCLE
  5
8F
330
8A
100
AcDbEntity
  8
0
  6
Continuous
 62
     0
370
    -2
100
AcDbCircle
 10
0.0
 20
0.0
 30
0.0
 40
0.0625
  0
ENDBLK
  5
8C
330
8A
100
AcDbEntity
  8
0
100
AcDbBlockEnd
  0
BLOCK
  5
91
330
90
100
AcDbEntity
  8
0
100
AcDbBlockBegin
  2
FXTIP_TRIANGLE_S
 70
     0
 10
0.0
 20
0.0
 30
0.0
  3
FXTIP_TRIANGLE_S
  1

  0
LINE
  5
93
330
90
100
AcDbEntity
  8
0
  6
Continuous
 62
     0
370
    -2
100
AcDbLine
 10
0.0
 20
0.0
 30
0.0
 11
-1.0
 21
0.0000000000000001
 31
0.0
  0
LINE
  5
94
330
90
100
AcDbEntity
  8
0
  6
Continuous
 62
     0
370
    -2
100
AcDbLine
 10
0.0
 20
0.0
 30
0.0
 11
-0.9659258262890683
 21
-0.2588190451025206
 31
0.0
  0
LINE
  5
95
330
90
100
AcDbEntity
  8
0
  6
Continuous
 62
     0
370
    -2
100
AcDbLine
 10
0.0
 20
0.0
 30
0.0
 11
-0.9659258262890683
 21
0.2588190451025209
 31
0.0
  0
LINE
  5
96
330
90
100
AcDbEntity
  8
0
  6
Continuous
 62
     0
370
    -2
100
AcDbLine
 10
-0.9659258262890683
 20
-0.2588190451025206
 30
0.0
 11
-0.9659258262890683
 21
0.2588190451025209
 31
0.0
  0
ENDBLK
  5
92
330
90
100
AcDbEntity
  8
0
100
AcDbBlockEnd
  0
BLOCK
  5
98
330
97
100
AcDbEntity
  8
0
100
AcDbBlockBegin
  2
FXTIP_TRIANGLE_E
 70
     0
 10
0.0
 20
0.0
 30
0.0
  3
FXTIP_TRIANGLE_E
  1

  0
LINE
  5
9A
330
97
100
AcDbEntity
  8
0
  6
Continuous
 62
     0
370
    -2
100
AcDbLine
 10
0.0
 20
0.0
 30
0.0
 11
-1.0
 21
0.0
 31
0.0
  0
LINE
  5
9B
330
97
100
AcDbEntity
  8
0
  6
Continuous
 62
     0
370
    -2
100
AcDbLine
 10
0.0
 20
0.0
 30
0.0
 11
-0.9659258262890683
 21
0.2588190451025207
 31
0.0
  0
LINE
  5
9C
330
97
100
AcDbEntity
  8
0
  6
Continuous
 62
     0
370
    -2
100
AcDbLine
 10
0.0
 20
0.0
 30
0.0
 11
-0.9659258262890683
 21
-0.2588190451025207
 31
0.0
  0
LINE
  5
9D
330
97
100
AcDbEntity
  8
0
  6
Continuous
 62
     0
370
    -2
100
AcDbLine
 10
-0.9659258262890683
 20
0.2588190451025207
 30
0.0
 11
-0.9659258262890683
 21
-0.2588190451025207
 31
0.0
  0
ENDBLK
  5
99
330
97
100
AcDbEntity
  8
0
100
AcDbBlockEnd
  0
BLOCK
  5
9F
330
9E
100
AcDbEntity
  8
0
100
AcDbBlockBegin
  2
FXTIP_ARCHITECT_S
 70
     0
 10
0.0
 20
0.0
 30
0.0
  3
FXTIP_ARCHITECT_S
  1

  0
LINE
  5
A1
330
9E
100
AcDbEntity
  8
0
  6
Continuous
 62
     0
370
    -2
100
AcDbLine
 10
0.0
 20
0.0
 30
0.0
 11
-1.0
 21
0.0000000000000001
 31
0.0
  0
LINE
  5
A2
330
9E
100
AcDbEntity
  8
0
  6
Continuous
 62
     0
370
    -2
100
AcDbLine
 10
0.0
 20
0.0
 30
0.0
 11
-0.7071067811865476
 21
-0.7071067811865474
 31
0.0
  0
LINE
  5
A3
330
9E
100
AcDbEntity
  8
0
  6
Continuous
 62
     0
370
    -2
100
AcDbLine
 10
0.0
 20
0.0
 30
0.0
 11
0.7071067811865476
 21
0.7071067811865474
 31
0.0
  0
ENDBLK
  5
A0
330
9E
100
AcDbEntity
  8
0
100
AcDbBlockEnd
  0
BLOCK
  5
A5
330
A4
100
AcDbEntity
  8
0
100
AcDbBlockBegin
  2
FXTIP_ARCHITECT_E
 70
     0
 10
0.0
 20
0.0
 30
0.0
  3
FXTIP_ARCHITECT_E
  1

  0
LINE
  5
A7
330
A4
100
AcDbEntity
  8
0
  6
Continuous
 62
     0
370
    -2
100
AcDbLine
 10
0.0
 20
0.0
 30
0.0
 11
-1.0
 21
0.0
 31
0.0
  0
LINE
  5
A8
330
A4
100
AcDbEntity
  8
0
  6
Continuous
 62
     0
370
    -2
100
AcDbLine
 10
0.0
 20
0.0
 30
0.0
 11
0.7071067811865475
 21
0.7071067811865475
 31
0.0
  0
LINE
  5
A9
330
A4
100
AcDbEntity
  8
0
  6
Continuous
 62
     0
370
    -2
100
AcDbLine
 10
0.0
 20
0.0
 30
0.0
 11
-0.7071067811865475
 21
-0.7071067811865475
 31
0.0
  0
ENDBLK
  5
A6
330
A4
100
AcDbEntity
  8
0
100
AcDbBlockEnd
  0
BLOCK
  5
AB
330
AA
100
AcDbEntity
  8
0
100
AcDbBlockBegin
  2
FXTIP_CIVIL_S
 70
     0
 10
0.0
 20
0.0
 30
0.0
  3
FXTIP_CIVIL_S
  1

  0
LINE
  5
AD
330
AA
100
AcDbEntity
  8
0
  6
Continuous
 62
     0
370
    -2
100
AcDbLine
 10
0.0
 20
0.0
 30
0.0
 11
-1.0
 21
0.0000000000000001
 31
0.0
  0
LINE
  5
AE
330
AA
100
AcDbEntity
  8
0
  6
Continuous
 62
     0
370
    -2
100
AcDbLine
 10
0.0
 20
-0.0625
 30
0.0
 11
-1.0
 21
-0.0624999999999999
 31
0.0
  0
LINE
  5
AF
330
AA
100
AcDbEntity
  8
0
  6
Continuous
 62
     0
370
    -2
100
AcDbLine
 10
0.0
 20
-0.125
 30
0.0
 11
-1.0
 21
-0.1249999999999999
 31
0.0
  0
ENDBLK
  5
AC
330
AA
100
AcDbEntity
  8
0
100
AcDbBlockEnd
  0
BLOCK
  5
B1
330
B0
100
AcDbEntity
  8
0
100
AcDbBlockBegin
  2
FXTIP_CIVIL_E
 70
     0
 10
0.0
 20
0.0
 30
0.0
  3
FXTIP_CIVIL_E
  1

  0
LINE
  5
B3
330
B0
100
AcDbEntity
  8
0
  6
Continuous
 62
     0
370
    -2
100
AcDbLine
 10
0.0
 20
0.0
 30
0.0
 11
-1.0
 21
0.0
 31
0.0
  0
LINE
  5
B4
330
B0
100
AcDbEntity
  8
0
  6
Continuous
 62
     0
370
    -2
100
AcDbLine
 10
0.0
 20
0.0625
 30
0.0
 11
-1.0
 21
0.0625
 31
0.0
  0
LINE
  5
B5
330
B0
100
AcDbEntity
  8
0
  6
Continuous
 62
     0
370
    -2
100
AcDbLine
 10
0.0
 20
0.125
 30
0.0
 11
-1.0
 21
0.125
 31
0.0
  0
ENDBLK
  5
B2
330
B0
100
AcDbEntity
  8
0
100
AcDbBlockEnd
  0
BLOCK
  5
B7
330
B6
100
AcDbEntity
  8
0
100
AcDbBlockBegin
  2
FXTIP_WHITEDOT_S
 70
     0
 10
0.0
 20
0.0
 30
0.0
  3
FXTIP_WHITEDOT_S
  1

  0
LINE
  5
B9
330
B6
100
AcDbEntity
  8
0
  6
Continuous
 62
     0
370
    -2
100
AcDbLine
 10
0.0
 20
0.0
 30
0.0
 11
-1.0
 21
0.0000000000000001
 31
0.0
  0
CIRCLE
  5
BA
330
B6
100
AcDbEntity
  8
0
  6
Continuous
 62
     0
370
    -2
100
AcDbCircle
 10
0.0
 20
0.0
 30
0.0
 40
0.0625
  0
ENDBLK
  5
B8
330
B6
100
AcDbEntity
  8
0
100
AcDbBlockEnd
  0
BLOCK
  5
BC
330
BB
100
AcDbEntity
  8
0
100
AcDbBlockBegin
  2
FXTIP_WHITEDOT_E
 70
     0
 10
0.0
 20
0.0
 30
0.0
  3
FXTIP_WHITEDOT_E
  1

  0
LINE
  5
BE
330
BB
100
AcDbEntity
  8
0
  6
Continuous
 62
     0
370
    -2
100
AcDbLine
 10
0.0
 20
0.0
 30
0.0
 11
-1.0
 21
0.0
 31
0.0
  0
CIRCLE
  5
BF
330
BB
100
AcDbEntity
  8
0
  6
Continuous
 62
     0
370
    -2
100
AcDbCircle
 10
0.0
 20
0.0
 30
0.0
 40
0.0625
  0
ENDBLK
  5
BD
330
BB
100
AcDbEntity
  8
0
100
AcDbBlockEnd
  0
BLOCK
  5
C1
330
C0
100
AcDbEntity
  8
0
100
AcDbBlockBegin
  2
FXTIP_UPARROW_S
 70
     0
 10
0.0
 20
0.0
 30
0.0
  3
FXTIP_UPARROW_S
  1

  0
LINE
  5
C3
330
C0
100
AcDbEntity
  8
0
  6
Continuous
 62
     0
370
    -2
100
AcDbLine
 10
0.0
 20
0.0
 30
0.0
 11
-1.0
 21
0.0000000000000001
 31
0.0
  0
LINE
  5
C4
330
C0
100
AcDbEntity
  8
0
  6
Continuous
 62
     0
370
    -2
100
AcDbLine
 10
0.0
 20
0.0
 30
0.0
 11
-0.9659258262890683
 21
-0.2588190451025206
 31
0.0
  0
ENDBLK
  5
C2
330
C0
100
AcDbEntity
  8
0
100
AcDbBlockEnd
  0
BLOCK
  5
C6
330
C5
100
AcDbEntity
  8
0
100
AcDbBlockBegin
  2
FXTIP_UPARROW_E
 70
     0
 10
0.0
 20
0.0
 30
0.0
  3
FXTIP_UPARROW_E
  1

  0
LINE
  5
C8
330
C5
100
AcDbEntity
  8
0
  6
Continuous
 62
     0
370
    -2
100
AcDbLine
 10
0.0
 20
0.0
 30
0.0
 11
-1.0
 21
0.0
 31
0.0
  0
LINE
  5
C9
330
C5
100
AcDbEntity
  8
0
  6
Continuous
 62
     0
370
    -2
100
AcDbLine
 10
0.0
 20
0.0
 30
0.0
 11
-0.9659258262890683
 21
0.2588190451025207
 31
0.0
  0
ENDBLK
  5
C7
330
C5
100
AcDbEntity
  8
0
100
AcDbBlockEnd
  0
BLOCK
  5
CB
330
CA
100
AcDbEntity
  8
0
100
AcDbBlockBegin
  2
FXTIP_DOWNARROW_S
 70
     0
 10
0.0
 20
0.0
 30
0.0
  3
FXTIP_DOWNARROW_S
  1

  0
LINE
  5
CD
330
CA
100
AcDbEntity
  8
0
  6
Continuous
 62
     0
370
    -2
100
AcDbLine
 10
0.0
 20
0.0
 30
0.0
 11
-1.0
 21
0.0000000000000001
 31
0.0
  0
LINE
  5
CE
330
CA
100
AcDbEntity
  8
0
  6
Continuous
 62
     0
370
    -2
100
AcDbLine
 10
0.0
 20
0.0
 30
0.0
 11
-0.9659258262890683
 21
0.2588190451025209
 31
0.0
  0
ENDBLK
  5
CC
330
CA
100
AcDbEntity
  8
0
100
AcDbBlockEnd
  0
BLOCK
  5
D0
330
CF
100
AcDbEntity
  8
0
100
AcDbBlockBegin
  2
FXTIP_DOWNARROW_E
 70
     0
 10
0.0
 20
0.0
 30
0.0
  3
FXTIP_DOWNARROW_E
  1

  0
LINE
  5
D2
330
CF
100
AcDbEntity
  8
0
  6
Continuous
 62
     0
370
    -2
100
AcDbLine
 10
0.0
 20
0.0
 30
0.0
 11
-1.0
 21
0.0
 31
0.0
  0
LINE
  5
D3
330
CF
100
AcDbEntity
  8
0
  6
Continuous
 62
     0
370
    -2
100
AcDbLine
 10
0.0
 20
0.0
 30
0.0
 11
-0.9659258262890683
 21
-0.2588190451025207
 31
0.0
  0
ENDBLK
  5
D1
330
CF
100
AcDbEntity
  8
0
100
AcDbBlockEnd
  0
BLOCK
  5
D5
330
D4
100
AcDbEntity
  8
0
100
AcDbBlockBegin
  2
FXTIP_BLACKTRIANGLE_S
 70
     0
 10
0.0
 20
0.0
 30
0.0
  3
FXTIP_BLACKTRIANGLE_S
  1

  0
LINE
  5
D7
330
D4
100
AcDbEntity
  8
0
  6
Continuous
 62
     0
370
    -2
100
AcDbLine
 10
0.0
 20
0.0
 30
0.0
 11
-1.0
 21
0.0000000000000001
 31
0.0
  0
SOLID
  5
D8
330
D4
100
AcDbEntity
  8
0
  6
Continuous
 62
     0
370
    -2
100
AcDbTrace
 10
0.0
 20
0.0
 30
0.0
 11
-0.9659258262890683
 21
-0.2588190451025206
 31
0.0
 12
-0.9659258262890683
 22
0.2588190451025209
 32
0.0
 13
-0.9659258262890683
 23
0.2588190451025209
 33
0.0
  0
ENDBLK
  5
D6
330
D4
100
AcDbEntity
  8
0
100
AcDbBlockEnd
  0
BLOCK
  5
DA
330
D9
100
AcDbEntity
  8
0
100
AcDbBlockBegin
  2
FXTIP_BLACKTRIANGLE_E
 70
     0
 10
0.0
 20
0.0
 30
0.0
  3
FXTIP_BLACKTRIANGLE_E
  1

  0
LINE
  5
DC
330
D9
100
AcDbEntity
  8
0
  6
Continuous
 62
     0
370
    -2
100
AcDbLine
 10
0.0
 20
0.0
 30
0.0
 11
-1.0
 21
0.0
 31
0.0
  0
SOLID
  5
DD
330
D9
100
AcDbEntity
  8
0
  6
Continuous
 62
     0
370
    -2
100
AcDbTrace
 10
0.0
 20
0.0
 30
0.0
 11
-0.9659258262890683
 21
0.2588190451025207
 31
0.0
 12
-0.9659258262890683
 22
-0.2588190451025207
 32
0.0
 13
-0.9659258262890683
 23
-0.2588190451025207
 33
0.0
  0
ENDBLK
  5
DB
330
D9
100
AcDbEntity
  8
0
100
AcDbBlockEnd
  0
BLOCK
  5
385
330
384
100
AcDbEntity
  8
0
100
AcDbBlockBegin
  2
BLKF023
 70
     0
 10
0.0
 20
0.0
 30
0.0
  3
BLKF023
  1

  0
LINE
  5
388
330
384
100
AcDbEntity
  8
基準ﾚｲﾔｸﾞﾙｰﾌﾟ
  6
Continuous
 62
     7
370
    25
100
AcDbLine
 10
256.6987588719294
 20
94.18571367349438
 30
0.0
 11
256.4827503201919
 21
94.26757513997308
 31
0.0
  0
LINE
  5
389
330
384
100
AcDbEntity
  8
基準ﾚｲﾔｸﾞﾙｰﾌﾟ
  6
Continuous
 62
     7
370
    25
100
AcDbLine
 10
256.7658324145589
 20
94.03677866438636
 30
0.0
 11
256.3338153110838
 21
94.2005015973437
 31
0.0
  0
LINE
  5
38A
330
384
100
AcDbEntity
  8
基準ﾚｲﾔｸﾞﾙｰﾌﾟ
  6
Continuous
 62
     7
370
    25
100
AcDbLine
 10
256.8329059571884
 20
93.88784365527803
 30
0.0
 11
256.1848803019756
 21
94.13342805471427
 31
0.0
  0
LINE
  5
38B
330
384
100
AcDbEntity
  8
基準ﾚｲﾔｸﾞﾙｰﾌﾟ
  6
Continuous
 62
     7
370
    25
100
AcDbLine
 10
256.8999794998178
 20
93.7389086461699
 30
0.0
 11
256.0359452928674
 21
94.06635451208473
 31
0.0
  0
LINE
  5
38C
330
384
100
AcDbEntity
  8
基準ﾚｲﾔｸﾞﾙｰﾌﾟ
  6
Continuous
 62
     7
370
    25
100
AcDbLine
 10
256.9670530424473
 20
93.58997363706172
 30
0.0
 11
256.2219212768091
 21
93.87235865637851
 31
0.0
  0
LINE
  5
38D
330
384
100
AcDbEntity
  8
基準ﾚｲﾔｸﾞﾙｰﾌﾟ
  6
Continuous
 62
     7
370
    25
100
AcDbLine
 10
256.0180414423025
 20
93.94962366326786
 30
0.0
 11
255.8870102837593
 21
93.99928096945521
 31
0.0
  0
LINE
  5
38E
330
384
100
AcDbEntity
  8
基準ﾚｲﾔｸﾞﾙｰﾌﾟ
  6
Continuous
 62
     7
370
    25
100
AcDbLine
 10
257.0341265850766
 20
93.44103862795367
 30
0.0
 11
256.2889948194385
 21
93.72342364727047
 31
0.0
  0
LINE
  5
38F
330
384
100
AcDbEntity
  8
基準ﾚｲﾔｸﾞﾙｰﾌﾟ
  6
Continuous
 62
     7
370
    25
100
AcDbLine
 10
255.8691064331943
 20
93.88255012063837
 30
0.0
 11
255.7380752746511
 21
93.93220742682593
 31
0.0
  0
LINE
  5
390
330
384
100
AcDbEntity
  8
基準ﾚｲﾔｸﾞﾙｰﾌﾟ
  6
Continuous
 62
     7
370
    25
100
AcDbLine
 10
257.101200127706
 20
93.29210361884549
 30
0.0
 11
256.356068362068
 21
93.57448863816234
 31
0.0
  0
LINE
  5
391
330
384
100
AcDbEntity
  8
基準ﾚｲﾔｸﾞﾙｰﾌﾟ
  6
Continuous
 62
     7
370
    25
100
AcDbLine
 10
255.7201714240861
 20
93.81547657800888
 30
0.0
 11
255.589140265543
 21
93.86513388419638
 31
0.0
  0
LINE
  5
392
330
384
100
AcDbEntity
  8
基準ﾚｲﾔｸﾞﾙｰﾌﾟ
  6
Continuous
 62
     7
370
    25
100
AcDbLine
 10
257.1682736703355
 20
93.14316860973736
 30
0.0
 11
256.3349419736176
 21
93.45897904505472
 31
0.0
  0
LINE
  5
393
330
384
100
AcDbEntity
  8
基準ﾚｲﾔｸﾞﾙｰﾌﾟ
  6
Continuous
 62
     7
370
    25
100
AcDbLine
 10
255.571236414978
 20
93.7484030353794
 30
0.0
 11
255.4402052564348
 21
93.79806034156695
 31
0.0
  0
LINE
  5
394
330
384
100
AcDbEntity
  8
基準ﾚｲﾔｸﾞﾙｰﾌﾟ
  6
Continuous
 62
     7
370
    25
100
AcDbLine
 10
257.235347212965
 20
92.99423360062906
 30
0.0
 11
256.1860069645095
 21
93.39190550242517
 31
0.0
  0
LINE
  5
395
330
384
100
AcDbEntity
  8
基準ﾚｲﾔｸﾞﾙｰﾌﾟ
  6
Continuous
 62
     7
370
    25
100
AcDbLine
 10
255.4223014058699
 20
93.68132949275014
 30
0.0
 11
255.2912702473266
 21
93.73098679893761
 31
0.0
  0
LINE
  5
396
330
384
100
AcDbEntity
  8
基準ﾚｲﾔｸﾞﾙｰﾌﾟ
  6
Continuous
 62
     7
370
    25
100
AcDbLine
 10
257.3024207555945
 20
92.84529859152099
 30
0.0
 11
256.0370719554013
 21
93.32483195979574
 31
0.0
  0
LINE
  5
397
330
384
100
AcDbEntity
  8
基準ﾚｲﾔｸﾞﾙｰﾌﾟ
  6
Continuous
 62
     7
370
    25
100
AcDbLine
 10
255.2733663967617
 20
93.61425595012065
 30
0.0
 11
255.1423352382185
 21
93.66391325630826
 31
0.0
  0
LINE
  5
398
330
384
100
AcDbEntity
  8
基準ﾚｲﾔｸﾞﾙｰﾌﾟ
  6
Continuous
 62
     7
370
    25
100
AcDbLine
 10
257.3694942982239
 20
92.69636358241289
 30
0.0
 11
255.9512474269329
 21
93.2338412321578
 31
0.0
  0
LINE
  5
399
330
384
100
AcDbEntity
  8
基準ﾚｲﾔｸﾞﾙｰﾌﾟ
  6
Continuous
 62
     7
370
    25
100
AcDbLine
 10
255.1244313876535
 20
93.54718240749116
 30
0.0
 11
254.9934002291104
 21
93.59683971367863
 31
0.0
  0
LINE
  5
39A
330
384
100
AcDbEntity
  8
基準ﾚｲﾔｸﾞﾙｰﾌﾟ
  6
Continuous
 62
     7
370
    25
100
AcDbLine
 10
257.4365678408533
 20
92.54742857330476
 30
0.0
 11
257.2205592891157
 21
92.6292900397834
 31
0.0
  0
LINE
  5
39B
330
384
100
AcDbEntity
  8
基準ﾚｲﾔｸﾞﾙｰﾌﾟ
  6
Continuous
 62
     7
370
    25
100
AcDbLine
 10
255.1454511649343
 20
93.4157005442793
 30
0.0
 11
254.8444652200022
 21
93.52976617104923
 31
0.0
  0
LINE
  5
39C
330
384
100
AcDbEntity
  8
基準ﾚｲﾔｸﾞﾙｰﾌﾟ
  6
Continuous
 62
     7
370
    25
100
AcDbLine
 10
257.5036413834828
 20
92.39849356419657
 30
0.0
 11
257.1796285558764
 21
92.52128576391459
 31
0.0
  0
LINE
  5
39D
330
384
100
AcDbEntity
  8
基準ﾚｲﾔｸﾞﾙｰﾌﾟ
  6
Continuous
 62
     7
370
    25
100
AcDbLine
 10
255.2125247075637
 20
93.26676553517106
 30
0.0
 11
254.695530210894
 21
93.46269262841986
 31
0.0
  0
LINE
  5
39E
330
384
100
AcDbEntity
  8
基準ﾚｲﾔｸﾞﾙｰﾌﾟ
  6
Continuous
 62
     7
370
    25
100
AcDbLine
 10
257.5707149261122
 20
92.24955855508838
 30
0.0
 11
257.138697822637
 21
92.41328148804593
 31
0.0
  0
LINE
  5
39F
330
384
100
AcDbEntity
  8
基準ﾚｲﾔｸﾞﾙｰﾌﾟ
  6
Continuous
 62
     7
370
    25
100
AcDbLine
 10
255.2795982501931
 20
93.11783052606293
 30
0.0
 11
255.0504865826013
 21
93.20465772316038
 31
0.0
  0
LINE
  5
3A0
330
384
100
AcDbEntity
  8
基準ﾚｲﾔｸﾞﾙｰﾌﾟ
  6
Continuous
 62
     7
370
    25
100
AcDbLine
 10
254.9786123052612
 20
93.23189615283286
 30
0.0
 11
254.5465952017859
 21
93.39561908579032
 31
0.0
  0
LINE
  5
3A1
330
384
100
AcDbEntity
  8
基準ﾚｲﾔｸﾞﾙｰﾌﾟ
  6
Continuous
 62
     7
370
    25
100
AcDbLine
 10
257.6377884687417
 20
92.10062354598028
 30
0.0
 11
257.0977670893976
 21
92.30527721217706
 31
0.0
  0
LINE
  5
3A2
330
384
100
AcDbEntity
  8
基準ﾚｲﾔｸﾞﾙｰﾌﾟ
  6
Continuous
 62
     7
370
    25
100
AcDbLine
 10
255.3466717928226
 20
92.96889551695489
 30
0.0
 11
255.1175601252308
 21
93.05572271405228
 31
0.0
  0
LINE
  5
3A3
330
384
100
AcDbEntity
  8
基準ﾚｲﾔｸﾞﾙｰﾌﾟ
  6
Continuous
 62
     7
370
    25
100
AcDbLine
 10
254.9376815720219
 20
93.12389187696405
 30
0.0
 11
254.3976601926778
 21
93.32854554316097
 31
0.0
  0
LINE
  5
3A4
330
384
100
AcDbEntity
  8
基準ﾚｲﾔｸﾞﾙｰﾌﾟ
  6
Continuous
 62
     7
370
    25
100
AcDbLine
 10
257.7048620113711
 20
91.95168853687215
 30
0.0
 11
257.0568363561583
 21
92.19727293630831
 31
0.0
  0
LINE
  5
3A5
330
384
100
AcDbEntity
  8
基準ﾚｲﾔｸﾞﾙｰﾌﾟ
  6
Continuous
 62
     7
370
    25
100
AcDbLine
 10
255.413745335452
 20
92.8199605078467
 30
0.0
 11
255.1846336678602
 21
92.90678770494415
 31
0.0
  0
LINE
  5
3A6
330
384
100
AcDbEntity
  8
基準ﾚｲﾔｸﾞﾙｰﾌﾟ
  6
Continuous
 62
     7
370
    25
100
AcDbLine
 10
254.8967508387825
 20
93.0158876010953
 30
0.0
 11
254.2487251835697
 21
93.2614720005314
 31
0.0
  0
LINE
  5
3A7
330
384
100
AcDbEntity
  8
基準ﾚｲﾔｸﾞﾙｰﾌﾟ
  6
Continuous
 62
     7
370
    25
100
AcDbLine
 10
257.7719355540005
 20
91.80275352776397
 30
0.0
 11
257.0159056229189
 21
92.08926866043939
 31
0.0
  0
LINE
  5
3A8
330
384
100
AcDbEntity
  8
基準ﾚｲﾔｸﾞﾙｰﾌﾟ
  6
Continuous
 62
     7
370
    25
100
AcDbLine
 10
256.475884243575
 20
92.29392232663622
 30
0.0
 11
255.8638316275208
 21
92.52587390591066
 31
0.0
  0
LINE
  5
3A9
330
384
100
AcDbEntity
  8
基準ﾚｲﾔｸﾞﾙｰﾌﾟ
  6
Continuous
 62
     7
370
    25
100
AcDbLine
 10
255.4808188780815
 20
92.67102549873846
 30
0.0
 11
255.2517072104895
 21
92.75785269583596
 31
0.0
  0
LINE
  5
3AA
330
384
100
AcDbEntity
  8
基準ﾚｲﾔｸﾞﾙｰﾌﾟ
  6
Continuous
 62
     7
370
    25
100
AcDbLine
 10
254.855820105543
 20
92.90788332522658
 30
0.0
 11
254.0997901744615
 21
93.194398457902
 31
0.0
  0
LINE
  5
3AB
330
384
100
AcDbEntity
  8
基準ﾚｲﾔｸﾞﾙｰﾌﾟ
  6
Continuous
 62
     7
370
    25
100
AcDbLine
 10
257.83900909663
 20
91.65381851865578
 30
0.0
 11
256.9749748896796
 21
91.98126438457072
 31
0.0
  0
LINE
  5
3AC
330
384
100
AcDbEntity
  8
基準ﾚｲﾔｸﾞﾙｰﾌﾟ
  6
Continuous
 62
     7
370
    25
100
AcDbLine
 10
256.4349535103357
 20
92.18591805076744
 30
0.0
 11
255.9297452000308
 21
92.37737849446796
 31
0.0
  0
LINE
  5
3AD
330
384
100
AcDbEntity
  8
基準ﾚｲﾔｸﾞﾙｰﾌﾟ
  6
Continuous
 62
     7
370
    25
100
AcDbLine
 10
255.547892420711
 20
92.52209048963039
 30
0.0
 11
255.3187807531191
 21
92.60891768672786
 31
0.0
  0
LINE
  5
3AE
330
384
100
AcDbEntity
  8
基準ﾚｲﾔｸﾞﾙｰﾌﾟ
  6
Continuous
 62
     7
370
    25
100
AcDbLine
 10
254.8148893723038
 20
92.79987904935771
 30
0.0
 11
253.9508551653534
 21
93.12732491527251
 31
0.0
  0
LINE
  5
3AF
330
384
100
AcDbEntity
  8
基準ﾚｲﾔｸﾞﾙｰﾌﾟ
  6
Continuous
 62
     7
370
    25
100
AcDbLine
 10
257.9060826392594
 20
91.50488350954765
 30
0.0
 11
256.9340441564403
 21
91.87326010870186
 31
0.0
  0
LINE
  5
3B0
330
384
100
AcDbEntity
  8
基準ﾚｲﾔｸﾞﾙｰﾌﾟ
  6
Continuous
 62
     7
370
    25
100
AcDbLine
 10
256.3940227770963
 20
92.07791377489863
 30
0.0
 11
255.9968187426602
 21
92.22844348535983
 31
0.0
  0
LINE
  5
3B1
330
384
100
AcDbEntity
  8
基準ﾚｲﾔｸﾞﾙｰﾌﾟ
  6
Continuous
 62
     7
370
    25
100
AcDbLine
 10
255.6149659633404
 20
92.37315548052229
 30
0.0
 11
255.3139800184083
 21
92.48722110729219
 31
0.0
  0
LINE
  5
3B2
330
384
100
AcDbEntity
  8
基準ﾚｲﾔｸﾞﾙｰﾌﾟ
  6
Continuous
 62
     7
370
    25
100
AcDbLine
 10
254.7739586390643
 20
92.69187477348896
 30
0.0
 11
253.8019201562452
 21
93.06025137264317
 31
0.0
  0
LINE
  5
3B3
330
384
100
AcDbEntity
  8
基準ﾚｲﾔｸﾞﾙｰﾌﾟ
  6
Continuous
 62
     7
370
    25
100
AcDbLine
 10
257.9731561818888
 20
91.35594850043941
 30
0.0
 11
256.8931134232009
 21
91.76525583283305
 31
0.0
  0
LINE
  5
3B4
330
384
100
AcDbEntity
  8
基準ﾚｲﾔｸﾞﾙｰﾌﾟ
  6
Continuous
 62
     7
370
    25
100
AcDbLine
 10
256.3530920438569
 20
91.96990949902988
 30
0.0
 11
255.9441018230561
 21
92.12490585903905
 31
0.0
  0
LINE
  5
3B5
330
384
100
AcDbEntity
  8
基準ﾚｲﾔｸﾞﾙｰﾌﾟ
  6
Continuous
 62
     7
370
    25
100
AcDbLine
 10
255.6820395059698
 20
92.22422047141416
 30
0.0
 11
255.273049285169
 21
92.37921683142338
 31
0.0
  0
LINE
  5
3B6
330
384
100
AcDbEntity
  8
基準ﾚｲﾔｸﾞﾙｰﾌﾟ
  6
Continuous
 62
     7
370
    25
100
AcDbLine
 10
254.7330279058249
 20
92.58387049762024
 30
0.0
 11
253.652985147137
 21
92.99317783001379
 31
0.0
  0
LINE
  5
3B7
330
384
100
AcDbEntity
  8
基準ﾚｲﾔｸﾞﾙｰﾌﾟ
  6
Continuous
 62
     7
370
    25
100
AcDbLine
 10
258.0402297245183
 20
91.20701349133128
 30
0.0
 11
256.8521826899616
 21
91.65725155696424
 31
0.0
  0
LINE
  5
3B8
330
384
100
AcDbEntity
  8
基準ﾚｲﾔｸﾞﾙｰﾌﾟ
  6
Continuous
 62
     7
370
    25
100
AcDbLine
 10
256.3121613106176
 20
91.86190522316102
 30
0.0
 11
255.7951668139479
 21
92.05783231640964
 31
0.0
  0
LINE
  5
3B9
330
384
100
AcDbEntity
  8
基準ﾚｲﾔｸﾞﾙｰﾌﾟ
  6
Continuous
 62
     7
370
    25
100
AcDbLine
 10
255.7491130485992
 20
92.07528546230583
 30
0.0
 11
255.2321185519296
 21
92.2712125555546
 31
0.0
  0
LINE
  5
3BA
330
384
100
AcDbEntity
  8
基準ﾚｲﾔｸﾞﾙｰﾌﾟ
  6
Continuous
 62
     7
370
    25
100
AcDbLine
 10
254.6920971725856
 20
92.47586622175137
 30
0.0
 11
253.5040501380288
 21
92.92610428738425
 31
0.0
  0
LINE
  5
3BB
330
384
100
AcDbEntity
  8
基準ﾚｲﾔｸﾞﾙｰﾌﾟ
  6
Continuous
 62
     7
370
    25
100
AcDbLine
 10
257.9373484807588
 20
91.12248680280567
 30
0.0
 11
256.8112519567222
 21
91.54924728109543
 31
0.0
  0
LINE
  5
3BC
330
384
100
AcDbEntity
  8
基準ﾚｲﾔｸﾞﾙｰﾌﾟ
  6
Continuous
 62
     7
370
    25
100
AcDbLine
 10
256.2712305773782
 20
91.7539009472923
 30
0.0
 11
255.1911878186903
 21
92.16320827968579
 31
0.0
  0
LINE
  5
3BD
330
384
100
AcDbEntity
  8
基準ﾚｲﾔｸﾞﾙｰﾌﾟ
  6
Continuous
 62
     7
370
    25
100
AcDbLine
 10
254.6511664393464
 20
92.36786194588262
 30
0.0
 11
253.5250699153098
 21
92.79462242417233
 31
0.0
  0
LINE
  5
3BE
330
384
100
AcDbEntity
  8
基準ﾚｲﾔｸﾞﾙｰﾌﾟ
  6
Continuous
 62
     7
370
    25
100
AcDbLine
 10
257.7884134716506
 20
91.05541326017618
 30
0.0
 11
256.7703212234829
 21
91.44124300522662
 31
0.0
  0
LINE
  5
3BF
330
384
100
AcDbEntity
  8
基準ﾚｲﾔｸﾞﾙｰﾌﾟ
  6
Continuous
 62
     7
370
    25
100
AcDbLine
 10
256.2302998441389
 20
91.64589667142349
 30
0.0
 11
255.1502570854509
 21
92.05520400381693
 31
0.0
  0
LINE
  5
3C0
330
384
100
AcDbEntity
  8
基準ﾚｲﾔｸﾞﾙｰﾌﾟ
  6
Continuous
 62
     7
370
    25
100
AcDbLine
 10
254.6102357061069
 20
92.25985767001384
 30
0.0
 11
253.5921434579391
 21
92.64568741506423
 31
0.0
  0
LINE
  5
3C1
330
384
100
AcDbEntity
  8
基準ﾚｲﾔｸﾞﾙｰﾌﾟ
  6
Continuous
 62
     7
370
    25
100
AcDbLine
 10
257.6394784625425
 20
90.98833971754689
 30
0.0
 11
256.7293904902435
 21
91.33323872935796
 31
0.0
  0
LINE
  5
3C2
330
384
100
AcDbEntity
  8
基準ﾚｲﾔｸﾞﾙｰﾌﾟ
  6
Continuous
 62
     7
370
    25
100
AcDbLine
 10
256.1893691108995
 20
91.53789239555482
 30
0.0
 11
255.1093263522116
 21
91.94719972794826
 31
0.0
  0
LINE
  5
3C3
330
384
100
AcDbEntity
  8
基準ﾚｲﾔｸﾞﾙｰﾌﾟ
  6
Continuous
 62
     7
370
    25
100
AcDbLine
 10
254.5693049728675
 20
92.15185339414495
 30
0.0
 11
253.6592170005686
 21
92.4967524059561
 31
0.0
  0
LINE
  5
3C4
330
384
100
AcDbEntity
  8
基準ﾚｲﾔｸﾞﾙｰﾌﾟ
  6
Continuous
 62
     7
370
    25
100
AcDbLine
 10
257.4905434534343
 20
90.92126617491735
 30
0.0
 11
256.6884597570041
 21
91.2252344534891
 31
0.0
  0
LINE
  5
3C5
330
384
100
AcDbEntity
  8
基準ﾚｲﾔｸﾞﾙｰﾌﾟ
  6
Continuous
 62
     7
370
    25
100
AcDbLine
 10
256.1484383776602
 20
91.42988811968587
 30
0.0
 11
255.0683956189722
 21
91.83919545207937
 31
0.0
  0
LINE
  5
3C6
330
384
100
AcDbEntity
  8
基準ﾚｲﾔｸﾞﾙｰﾌﾟ
  6
Continuous
 62
     7
370
    25
100
AcDbLine
 10
254.5283742396282
 20
92.04384911827628
 30
0.0
 11
253.726290543198
 21
92.34781739684786
 31
0.0
  0
LINE
  5
3C7
330
384
100
AcDbEntity
  8
基準ﾚｲﾔｸﾞﾙｰﾌﾟ
  6
Continuous
 62
     7
370
    25
100
AcDbLine
 10
257.3416084443261
 20
90.854192632288
 30
0.0
 11
256.6475290237649
 21
91.11723017762037
 31
0.0
  0
LINE
  5
3C8
330
384
100
AcDbEntity
  8
基準ﾚｲﾔｸﾞﾙｰﾌﾟ
  6
Continuous
 62
     7
370
    25
100
AcDbLine
 10
256.1075076444207
 20
91.32188384381709
 30
0.0
 11
255.0274648857329
 21
91.73119117621059
 31
0.0
  0
LINE
  5
3C9
330
384
100
AcDbEntity
  8
基準ﾚｲﾔｸﾞﾙｰﾌﾟ
  6
Continuous
 62
     7
370
    25
100
AcDbLine
 10
254.4874435063888
 20
91.93584484240742
 30
0.0
 11
253.7933640858274
 21
92.19888238773973
 31
0.0
  0
LINE
  5
3CA
330
384
100
AcDbEntity
  8
基準ﾚｲﾔｸﾞﾙｰﾌﾟ
  6
Continuous
 62
     7
370
    25
100
AcDbLine
 10
257.1926734352181
 20
90.78711908965852
 30
0.0
 11
256.6065982905254
 21
91.0092259017515
 31
0.0
  0
LINE
  5
3CB
330
384
100
AcDbEntity
  8
基準ﾚｲﾔｸﾞﾙｰﾌﾟ
  6
Continuous
 62
     7
370
    25
100
AcDbLine
 10
254.4465127731495
 20
91.8278405665387
 30
0.0
 11
253.860437628457
 21
92.04994737863169
 31
0.0
  0
LINE
  5
3CC
330
384
100
AcDbEntity
  8
基準ﾚｲﾔｸﾞﾙｰﾌﾟ
  6
Continuous
 62
     7
370
    25
100
AcDbLine
 10
257.0437384261099
 20
90.72004554702909
 30
0.0
 11
256.565667557286
 21
90.90122162588276
 31
0.0
  0
LINE
  5
3CD
330
384
100
AcDbEntity
  8
基準ﾚｲﾔｸﾞﾙｰﾌﾟ
  6
Continuous
 62
     7
370
    25
100
AcDbLine
 10
254.4055820399101
 20
91.71983629066975
 30
0.0
 11
253.9275111710863
 21
91.90101236952356
 31
0.0
  0
LINE
  5
3CE
330
384
100
AcDbEntity
  8
基準ﾚｲﾔｸﾞﾙｰﾌﾟ
  6
Continuous
 62
     7
370
    25
100
AcDbLine
 10
256.8948034170017
 20
90.65297200439974
 30
0.0
 11
256.5247368240467
 21
90.79321735001389
 31
0.0
  0
LINE
  5
3CF
330
384
100
AcDbEntity
  8
基準ﾚｲﾔｸﾞﾙｰﾌﾟ
  6
Continuous
 62
     7
370
    25
100
AcDbLine
 10
254.3646513066708
 20
91.61183201480108
 30
0.0
 11
253.9945847137158
 21
91.75207736041531
 31
0.0
  0
LINE
  5
3D0
330
384
100
AcDbEntity
  8
基準ﾚｲﾔｸﾞﾙｰﾌﾟ
  6
Continuous
 62
     7
370
    25
100
AcDbLine
 10
256.7458684078936
 20
90.58589846177026
 30
0.0
 11
256.4838060908074
 21
90.68521307414528
 31
0.0
  0
LINE
  5
3D1
330
384
100
AcDbEntity
  8
基準ﾚｲﾔｸﾞﾙｰﾌﾟ
  6
Continuous
 62
     7
370
    25
100
AcDbLine
 10
254.3237205734314
 20
91.50382773893222
 30
0.0
 11
254.0616582563452
 21
91.60314235130713
 31
0.0
  0
LINE
  5
3D2
330
384
100
AcDbEntity
  8
基準ﾚｲﾔｸﾞﾙｰﾌﾟ
  6
Continuous
 62
     7
370
    25
100
AcDbLine
 10
256.5969333987854
 20
90.51882491914083
 30
0.0
 11
256.442875357568
 21
90.57720879827642
 31
0.0
  0
LINE
  5
3D3
330
384
100
AcDbEntity
  8
基準ﾚｲﾔｸﾞﾙｰﾌﾟ
  6
Continuous
 62
     7
370
    25
100
AcDbLine
 10
254.2827898401921
 20
91.39582346306355
 30
0.0
 11
254.1287317989747
 21
91.45420734219908
 31
0.0
  0
LINE
  5
3D4
330
384
100
AcDbEntity
  8
基準ﾚｲﾔｸﾞﾙｰﾌﾟ
  6
Continuous
 62
     7
370
    25
100
AcDbLine
 10
256.4479983896773
 20
90.45175137651134
 30
0.0
 11
254.1958053416041
 21
91.30527233309095
 31
0.0
  0
LINE
  5
3D5
330
384
100
AcDbEntity
  8
基準ﾚｲﾔｸﾞﾙｰﾌﾟ
  6
Continuous
 62
     7
370
    25
100
AcDbLine
 10
256.2990633805692
 20
90.38467783388194
 30
0.0
 11
254.2628788842335
 21
91.15633732398271
 31
0.0
  0
LINE
  5
3D6
330
384
100
AcDbEntity
  8
基準ﾚｲﾔｸﾞﾙｰﾌﾟ
  6
Continuous
 62
     7
370
    25
100
AcDbLine
 10
256.150128371461
 20
90.31760429125237
 30
0.0
 11
254.329952426863
 21
91.00740231487458
 31
0.0
  0
LINE
  5
3D7
330
384
100
AcDbEntity
  8
基準ﾚｲﾔｸﾞﾙｰﾌﾟ
  6
Continuous
 62
     7
370
    25
100
AcDbLine
 10
256.0011933623529
 20
90.25053074862302
 30
0.0
 11
254.3970259694923
 21
90.85846730576645
 31
0.0
  0
LINE
  5
3D8
330
384
100
AcDbEntity
  8
基準ﾚｲﾔｸﾞﾙｰﾌﾟ
  6
Continuous
 62
     7
370
    25
100
AcDbLine
 10
255.8522583532447
 20
90.18345720599359
 30
0.0
 11
254.4640995121218
 21
90.70953229665827
 31
0.0
  0
LINE
  5
3D9
330
384
100
AcDbEntity
  8
基準ﾚｲﾔｸﾞﾙｰﾌﾟ
  6
Continuous
 62
     7
370
    25
100
AcDbLine
 10
255.7033233441365
 20
90.1163836633641
 30
0.0
 11
254.5311730547513
 21
90.56059728755017
 31
0.0
  0
LINE
  5
3DA
330
384
100
AcDbEntity
  8
基準ﾚｲﾔｸﾞﾙｰﾌﾟ
  6
Continuous
 62
     7
370
    25
100
AcDbLine
 10
255.5543883350284
 20
90.0493101207347
 30
0.0
 11
254.5982465973808
 21
90.4116622784419
 31
0.0
  0
LINE
  5
3DB
330
384
100
AcDbEntity
  8
基準ﾚｲﾔｸﾞﾙｰﾌﾟ
  6
Continuous
 62
     7
370
    25
100
AcDbLine
 10
255.4054533259202
 20
89.98223657810527
 30
0.0
 11
254.6653201400102
 21
90.26272726933394
 31
0.0
  0
LINE
  5
3DC
330
384
100
AcDbEntity
  8
基準ﾚｲﾔｸﾞﾙｰﾌﾟ
  6
Continuous
 62
     7
370
    25
100
AcDbLine
 10
255.2565183168121
 20
89.91516303547587
 30
0.0
 11
254.7323936826396
 21
90.11379226022575
 31
0.0
  0
LINE
  5
3DD
330
384
100
AcDbEntity
  8
基準ﾚｲﾔｸﾞﾙｰﾌﾟ
  6
Continuous
 62
     7
370
    25
100
AcDbLine
 10
255.1075833077039
 20
89.84808949284638
 30
0.0
 11
254.799467225269
 21
89.96485725111756
 31
0.0
  0
LINE
  5
3DE
330
384
100
AcDbEntity
  8
基準ﾚｲﾔｸﾞﾙｰﾌﾟ
  6
Continuous
 62
     7
370
    25
100
AcDbLine
 10
254.9586482985957
 20
89.78101595021701
 30
0.0
 11
254.8665407678985
 21
89.81592224200944
 31
0.0
  0
ENDBLK
  5
386
330
384
100
AcDbEntity
  8
0
100
AcDbBlockEnd
  0
BLOCK
  5
3F5
330
3F4
100
AcDbEntity
  8
0
100
AcDbBlockBegin
  2
BLKF024
 70
     0
 10
0.0
 20
0.0
 30
0.0
  3
BLKF024
  1

  0
TEXT
  5
3F8
330
3F4
100
AcDbEntity
  8
基準ﾚｲﾔｸﾞﾙｰﾌﾟ
  6
Continuous
 62
     7
370
    25
100
AcDbText
 10
251.8403993718823
 20
122.2191686436161
 30
0.0
 40
4.079999923706055
  1
Ｃ
 50
86.6896362304686
 41
1.070588216044637
  7
FX_VECTOR
 72
     5
 11
252.0205625421802
 21
125.3339624598995
 31
0.0
100
AcDbText
  0
TEXT
  5
3F9
330
3F4
100
AcDbEntity
  8
基準ﾚｲﾔｸﾞﾙｰﾌﾟ
  6
Continuous
 62
     7
370
    25
100
AcDbText
 10
251.8479180235819
 20
117.4188703388464
 30
0.0
 40
4.079999923706055
  1
　
 50
90.81105041503955
 41
1.070588216044636
  7
FX_VECTOR
 72
     5
 11
251.8037543396994
 21
120.5385576396692
 31
0.0
100
AcDbText
  0
TEXT
  5
3FA
330
3F4
100
AcDbEntity
  8
基準ﾚｲﾔｸﾞﾙｰﾌﾟ
  6
Continuous
 62
     7
370
    25
100
AcDbText
 10
252.2003855512964
 20
112.6316140094493
 30
0.0
 40
4.079999923706055
  1
Ｄ
 50
94.93249511718747
 41
1.070588216044634
  7
FX_VECTOR
 72
     5
 11
251.9321217729224
 21
115.7400595745351
 31
0.0
100
AcDbText
  0
TEXT
  5
3FB
330
3F4
100
AcDbEntity
  8
基準ﾚｲﾔｸﾞﾙｰﾌﾟ
  6
Continuous
 62
     7
370
    25
100
AcDbText
 10
252.8960312014343
 20
107.881998284606
 30
0.0
 40
4.079999923706055
  1
Ｌ
 50
99.05393218994183
 41
1.070588216044636
  7
FX_VECTOR
 72
     5
 11
252.405055224347
 21
110.9631250064096
 31
0.0
100
AcDbText
  0
TEXT
  5
3FC
330
3F4
100
AcDbEntity
  8
基準ﾚｲﾔｸﾞﾙｰﾌﾟ
  6
Continuous
 62
     7
370
    25
100
AcDbText
 10
253.9312276840558
 20
103.1946718053334
 30
0.0
 40
4.079999923706055
  1
Ｏ
 50
103.1753768920893
 41
1.070588216044636
  7
FX_VECTOR
 72
     5
 11
253.220078468288
 21
106.2325437708385
 31
0.0
100
AcDbText
  0
TEXT
  5
3FD
330
3F4
100
AcDbEntity
  8
基準ﾚｲﾔｸﾞﾙｰﾌﾟ
  6
Continuous
 62
     7
370
    25
100
AcDbText
 10
255.3005836365072
 20
98.59384520470174
 30
0.0
 40
4.079999923706055
  1
Ｇ
 50
107.2968215942387
 41
1.070588216044638
  7
FX_VECTOR
 72
     5
 11
254.3729393127116
 21
101.5727502542826
 31
0.0
100
AcDbText
  0
TEXT
  5
3FE
330
3F4
100
AcDbEntity
  8
基準ﾚｲﾔｸﾞﾙｰﾌﾟ
  6
Continuous
 62
     7
370
    25
100
AcDbText
 10
252.1779193624399
 20
127.0075634976052
 30
0.0
 40
4.079999923706055
  1
Ａ
 50
82.56817626953136
 41
1.070588216044637
  7
FX_VECTOR
 72
     5
 11
252.5814800516226
 21
130.1013537387229
 31
0.0
100
AcDbText
  0
TEXT
  5
3FF
330
3F4
100
AcDbEntity
  8
基準ﾚｲﾔｸﾞﾙｰﾌﾟ
  6
Continuous
 62
     7
370
    25
100
AcDbText
 10
252.8587079228135
 20
131.759342232283
 30
0.0
 40
4.079999923706055
  1
Ｓ
 50
78.44674682617183
 41
1.070588216044631
  7
FX_VECTOR
 72
     5
 11
253.4835772334365
 21
134.8161277384201
 31
0.0
100
AcDbText
  0
TEXT
  5
400
330
3F4
100
AcDbEntity
  8
基準ﾚｲﾔｸﾞﾙｰﾌﾟ
  6
Continuous
 62
     7
370
    25
100
AcDbText
 10
253.8792471782848
 20
136.4498730675403
 30
0.0
 40
4.079999923706055
  1
Ｔ
 50
74.32531738281206
 41
1.070588216044636
  7
FX_VECTOR
 72
     5
 11
254.7221932514027
 21
139.4538439734753
 31
0.0
100
AcDbText
  0
TEXT
  5
401
330
3F4
100
AcDbEntity
  8
基準ﾚｲﾔｸﾞﾙｰﾌﾟ
  6
Continuous
 62
     7
370
    25
100
AcDbText
 10
255.2342714422219
 20
141.0549108180353
 30
0.0
 40
4.079999923706055
  1
Ｅ
 50
70.2038574218753
 41
1.070588216044623
  7
FX_VECTOR
 72
     5
 11
256.2909360773093
 21
143.9905298557928
 31
0.0
100
AcDbText
  0
TEXT
  5
402
330
3F4
100
AcDbEntity
  8
基準ﾚｲﾔｸﾞﾙｰﾌﾟ
  6
Continuous
 62
     7
370
    25
100
AcDbText
 10
256.9167055840666
 20
145.5506881301421
 30
0.0
 40
4.079999923706055
  1
Ｒ
 50
66.08242797851551
 41
1.070588216044626
  7
FX_VECTOR
 72
     5
 11
258.1816220526521
 21
148.4027725632173
 31
0.0
100
AcDbText
  0
ENDBLK
  5
3F6
330
3F4
100
AcDbEntity
  8
0
100
AcDbBlockEnd
  0
BLOCK
  5
404
330
403
100
AcDbEntity
  8
0
100
AcDbBlockBegin
  2
BLKF025
 70
     0
 10
0.0
 20
0.0
 30
0.0
  3
BLKF025
  1

  0
TEXT
  5
407
330
403
100
AcDbEntity
  8
基準ﾚｲﾔｸﾞﾙｰﾌﾟ
  6
Continuous
 62
     7
370
    25
100
AcDbText
 10
388.1535544986548
 20
122.6278744789943
 30
0.0
 40
3.959999799728394
  1
０
 50
271.2364196777342
 41
0.933333417622733
  7
FX_VECTOR
 72
     5
 11
388.2105202083764
 21
119.9884890463964
 31
0.0
100
AcDbText
  0
TEXT
  5
408
330
403
100
AcDbEntity
  8
基準ﾚｲﾔｸﾞﾙｰﾌﾟ
  6
Continuous
 62
     7
370
    25
100
AcDbText
 10
387.982749532991
 20
125.262776222045
 30
0.0
 40
3.959999799728394
  1
５
 50
273.7092895507813
 41
0.9333334176227382
  7
FX_VECTOR
 72
     5
 11
388.1535419709153
 21
122.6283065416269
 31
0.0
100
AcDbText
  0
TEXT
  5
409
330
403
100
AcDbEntity
  8
基準ﾚｲﾔｸﾞﾙｰﾌﾟ
  6
Continuous
 62
     7
370
    25
100
AcDbText
 10
387.6984256369124
 20
127.8878088800767
 30
0.0
 40
3.959999799728394
  1
１
 50
276.182159423829
 41
0.9333334176227376
  7
FX_VECTOR
 72
     5
 11
387.9827267068376
 21
125.2631615789077
 31
0.0
100
AcDbText
  0
TEXT
  5
40A
330
403
100
AcDbEntity
  8
基準ﾚｲﾔｸﾞﾙｰﾌﾟ
  6
Continuous
 62
     7
370
    25
100
AcDbText
 10
388.2105202083764
 20
119.9881039711818
 30
0.0
 40
3.959999799728394
  1
Ｘ
 50
268.7635803222658
 41
0.933333417622733
  7
FX_VECTOR
 72
     5
 11
388.1535544986548
 21
117.3487185385839
 31
0.0
100
AcDbText
  0
TEXT
  5
40B
330
403
100
AcDbEntity
  8
基準ﾚｲﾔｸﾞﾙｰﾌﾟ
  6
Continuous
 62
     7
370
    25
100
AcDbText
 10
388.1535419709153
 20
117.3482864759512
 30
0.0
 40
3.959999799728394
  1
３
 50
266.2907104492187
 41
0.9333334176227382
  7
FX_VECTOR
 72
     5
 11
387.982749532991
 21
114.7138167955332
 31
0.0
100
AcDbText
  0
TEXT
  5
40C
330
403
100
AcDbEntity
  8
基準ﾚｲﾔｸﾞﾙｰﾌﾟ
  6
Continuous
 62
     7
370
    25
100
AcDbText
 10
387.9827267068376
 20
114.7134314386704
 30
0.0
 40
3.959999799728394
  1
５
 50
263.817840576171
 41
0.9333334176227376
  7
FX_VECTOR
 72
     5
 11
387.6984256369124
 21
112.0887841375015
 31
0.0
100
AcDbText
  0
ENDBLK
  5
405
330
403
100
AcDbEntity
  8
0
100
AcDbBlockEnd
  0
ENDSEC
  0
SECTION
  2
ENTITIES
  0
LINE
  5
E2
330
1F
100
AcDbEntity
  8
GR1
  6
Continuous
 62
     3
370
    50
100
AcDbLine
 10
103.831073247871
 20
231.4232922732363
 30
0.0
 11
103.831073247871
 21
234.9232922732363
 31
0.0
  0
LINE
  5
E3
330
1F
100
AcDbEntity
  8
GR1
  6
Continuous
 62
     3
370
    50
100
AcDbLine
 10
205.831073247871
 20
234.9232922732363
 30
0.0
 11
205.831073247871
 21
231.4232922732363
 31
0.0
  0
LINE
  5
E4
330
1F
100
AcDbEntity
  8
GR1
  6
Continuous
 62
     3
370
    50
100
AcDbLine
 10
205.831073247871
 20
231.4232922732363
 30
0.0
 11
103.831073247871
 21
231.4232922732363
 31
0.0
  0
LINE
  5
E5
330
1F
100
AcDbEntity
  8
GR1
  6
Continuous
 62
     3
370
    50
100
AcDbLine
 10
112.331073247871
 20
231.4232922732363
 30
0.0
 11
112.331073247871
 21
230.9232922732363
 31
0.0
  0
ARC
  5
E6
330
1F
100
AcDbEntity
  8
GR1
  6
Continuous
 62
     3
370
    50
100
AcDbCircle
 10
115.9197317844563
 20
233.5934142244558
 30
0.0
 40
4.473032676673776
100
AcDbArc
 50
216.6508917632264
 51
270.0
  0
LINE
  5
E7
330
1F
100
AcDbEntity
  8
GR1
  6
Continuous
 62
     3
370
    50
100
AcDbLine
 10
115.9197317844563
 20
229.120381547782
 30
0.0
 11
193.7424147112856
 21
229.120381547782
 31
0.0
  0
ARC
  5
E8
330
1F
100
AcDbEntity
  8
GR1
  6
Continuous
 62
     3
370
    50
100
AcDbCircle
 10
193.7424147112856
 20
233.5934142244558
 30
0.0
 40
4.473032676673776
100
AcDbArc
 50
270.0
 51
323.3491082367736
  0
LINE
  5
E9
330
1F
100
AcDbEntity
  8
GR1
  6
Continuous
 62
     3
370
    50
100
AcDbLine
 10
197.331073247871
 20
230.9232922732363
 30
0.0
 11
197.331073247871
 21
231.4232922732363
 31
0.0
  0
ARC
  5
EA
330
1F
100
AcDbEntity
  8
GR1
  6
Continuous
 62
     3
370
    50
100
AcDbCircle
 10
188.331073247871
 20
227.4232922732363
 30
0.0
 40
4.0
100
AcDbArc
 50
0.0
 51
25.10461224553865
  0
LINE
  5
EB
330
1F
100
AcDbEntity
  8
GR1
  6
Continuous
 62
     3
370
    50
100
AcDbLine
 10
192.331073247871
 20
227.4232922732363
 30
0.0
 11
192.331073247871
 21
221.1232922732363
 31
0.0
  0
ARC
  5
EC
330
1F
100
AcDbEntity
  8
GR1
  6
Continuous
 62
     3
370
    50
100
AcDbCircle
 10
196.831073247871
 20
221.1232922732363
 30
0.0
 40
4.5
100
AcDbArc
 50
180.0000000000002
 51
220.9260633096044
  0
LINE
  5
ED
330
1F
100
AcDbEntity
  8
GR1
  6
Continuous
 62
     3
370
    50
100
AcDbLine
 10
193.431073247871
 20
218.1754116786396
 30
0.0
 11
192.431073247871
 21
217.8232922732363
 31
0.0
  0
LINE
  5
EE
330
1F
100
AcDbEntity
  8
GR1
  6
Continuous
 62
     3
370
    50
100
AcDbLine
 10
192.431073247871
 20
217.8232922732363
 30
0.0
 11
117.231073247871
 21
217.8232922732363
 31
0.0
  0
LINE
  5
EF
330
1F
100
AcDbEntity
  8
GR1
  6
Continuous
 62
     3
370
    50
100
AcDbLine
 10
117.231073247871
 20
217.8232922732363
 30
0.0
 11
116.231073247871
 21
218.1754116786396
 31
0.0
  0
ARC
  5
F0
330
1F
100
AcDbEntity
  8
GR1
  6
Continuous
 62
     3
370
    50
100
AcDbCircle
 10
112.831073247871
 20
221.1232922732363
 30
0.0
 40
4.5
100
AcDbArc
 50
319.0739366903953
 51
0.0
  0
LINE
  5
F1
330
1F
100
AcDbEntity
  8
GR1
  6
Continuous
 62
     3
370
    50
100
AcDbLine
 10
117.331073247871
 20
221.1232922732363
 30
0.0
 11
117.331073247871
 21
227.4232922732363
 31
0.0
  0
ARC
  5
F2
330
1F
100
AcDbEntity
  8
GR1
  6
Continuous
 62
     3
370
    50
100
AcDbCircle
 10
121.331073247871
 20
227.4232922732363
 30
0.0
 40
4.0
100
AcDbArc
 50
154.8953877544614
 51
180.0
  0
LINE
  5
F3
330
1F
100
AcDbEntity
  8
GR1
  6
Continuous
 62
     3
370
    50
100
AcDbLine
 10
118.831073247871
 20
217.8232922732363
 30
0.0
 11
118.831073247871
 21
155.5732922732363
 31
0.0
  0
ARC
  5
F4
330
1F
100
AcDbEntity
  8
GR1
  6
Continuous
 62
     3
370
    50
100
AcDbCircle
 10
253.7897061150748
 20
165.1016015196836
 30
0.0
 40
135.2945721841073
100
AcDbArc
 50
184.0384784082078
 51
195.1519882817539
  0
LINE
  5
F5
330
1F
100
AcDbEntity
  8
GR1
  6
Continuous
 62
     3
370
    50
100
AcDbLine
 10
115.631073247871
 20
125.9232922732363
 30
0.0
 11
112.031073247871
 21
125.9232922732363
 31
0.0
  0
LINE
  5
F6
330
1F
100
AcDbEntity
  8
GR1
  6
Continuous
 62
     3
370
    50
100
AcDbLine
 10
112.031073247871
 20
125.9232922732363
 30
0.0
 11
111.031073247871
 21
124.9762922732363
 31
0.0
  0
LINE
  5
F7
330
1F
100
AcDbEntity
  8
GR1
  6
Continuous
 62
     3
370
    50
100
AcDbLine
 10
111.031073247871
 20
124.9762922732363
 30
0.0
 11
111.031073247871
 21
114.8702922732363
 31
0.0
  0
LINE
  5
F8
330
1F
100
AcDbEntity
  8
GR1
  6
Continuous
 62
     3
370
    50
100
AcDbLine
 10
111.031073247871
 20
114.8702922732363
 30
0.0
 11
112.031073247871
 21
113.9232922732363
 31
0.0
  0
LINE
  5
F9
330
1F
100
AcDbEntity
  8
GR1
  6
Continuous
 62
     3
370
    50
100
AcDbLine
 10
112.031073247871
 20
113.9232922732363
 30
0.0
 11
115.631073247871
 21
113.9232922732363
 31
0.0
  0
LINE
  5
FA
330
1F
100
AcDbEntity
  8
GR1
  6
Continuous
 62
     3
370
    50
100
AcDbLine
 10
185.031073247871
 20
131.7232922732363
 30
0.0
 11
189.031073247871
 21
131.7232922732363
 31
0.0
  0
LINE
  5
FB
330
1F
100
AcDbEntity
  8
GR1
  6
Continuous
 62
     3
370
    50
100
AcDbLine
 10
189.031073247871
 20
131.7232922732363
 30
0.0
 11
190.531073247871
 21
129.7232922732363
 31
0.0
  0
LINE
  5
FC
330
1F
100
AcDbEntity
  8
GR1
  6
Continuous
 62
     3
370
    50
100
AcDbLine
 10
190.531073247871
 20
129.7232922732363
 30
0.0
 11
190.531073247871
 21
112.7232922732363
 31
0.0
  0
LINE
  5
FD
330
1F
100
AcDbEntity
  8
GR1
  6
Continuous
 62
     3
370
    50
100
AcDbLine
 10
190.531073247871
 20
112.7232922732363
 30
0.0
 11
189.031073247871
 21
110.7232922732363
 31
0.0
  0
LINE
  5
FE
330
1F
100
AcDbEntity
  8
GR1
  6
Continuous
 62
     3
370
    50
100
AcDbLine
 10
189.031073247871
 20
110.7232922732363
 30
0.0
 11
185.031073247871
 21
110.7232922732363
 31
0.0
  0
LINE
  5
FF
330
1F
100
AcDbEntity
  8
GR1
  6
Continuous
 62
     3
370
    50
100
AcDbLine
 10
181.031073247871
 20
211.8732922732362
 30
0.0
 11
128.631073247871
 21
211.8732922732362
 31
0.0
  0
LINE
  5
100
330
1F
100
AcDbEntity
  8
GR1
  6
Continuous
 62
     3
370
    50
100
AcDbLine
 10
185.031073247871
 20
207.8732922732362
 30
0.0
 11
185.031073247871
 21
101.3732922732362
 31
0.0
  0
LINE
  5
101
330
1F
100
AcDbEntity
  8
GR1
  6
Continuous
 62
     3
370
    50
100
AcDbLine
 10
185.031073247871
 20
101.3732922732362
 30
0.0
 11
182.531073247871
 21
101.3732922732362
 31
0.0
  0
ARC
  5
102
330
1F
100
AcDbEntity
  8
GR1
  6
Continuous
 62
     3
370
    50
100
AcDbCircle
 10
55.87244038066719
 20
165.1016015196836
 30
0.0
 40
135.2945721841073
100
AcDbArc
 50
345.7171818450033
 51
355.9615215917922
  0
LINE
  5
103
330
1F
100
AcDbEntity
  8
GR1
  6
Continuous
 62
     3
370
    50
100
AcDbLine
 10
190.831073247871
 20
155.5732922732363
 30
0.0
 11
190.831073247871
 21
217.8232922732363
 31
0.0
  0
ARC
  5
104
330
1F
100
AcDbEntity
  8
GR1
  6
Continuous
 62
     3
370
    50
100
AcDbCircle
 10
181.031073247871
 20
207.8732922732362
 30
0.0
 40
4.0
100
AcDbArc
 50
0.0
 51
89.99999999999999
  0
ARC
  5
105
330
1F
100
AcDbEntity
  8
GR1
  6
Continuous
 62
     3
370
    50
100
AcDbCircle
 10
154.8310732478709
 20
147.5570132034692
 30
0.0
 40
61.01627906976702
100
AcDbArc
 50
69.87171106163024
 51
110.1282889383698
  0
ARC
  5
106
330
1F
100
AcDbEntity
  8
GR1
  6
Continuous
 62
     3
370
    50
100
AcDbCircle
 10
134.8663188840326
 20
202.0299167454385
 30
0.0
 40
3.0
100
AcDbArc
 50
110.1282889383696
 51
166.0973128857797
  0
ARC
  5
107
330
1F
100
AcDbEntity
  8
GR1
  6
Continuous
 62
     3
370
    50
100
AcDbCircle
 10
224.6148150525613
 20
169.904050304731
 30
0.0
 40
98.31019193086591
100
AcDbArc
 50
160.4814071190845
 51
172.5655063165636
  0
CIRCLE
  5
108
330
1F
100
AcDbEntity
  8
GR1
  6
Continuous
 62
     3
370
    50
100
AcDbCircle
 10
154.831073247871
 20
222.9232922732362
 30
0.0
 40
2.1
  0
ARC
  5
109
330
1F
100
AcDbEntity
  8
GR1
  6
Continuous
 62
     3
370
    50
100
AcDbCircle
 10
174.7958276117093
 20
202.0299167454385
 30
0.0
 40
3.0
100
AcDbArc
 50
13.90268711422021
 51
69.87171106163063
  0
ARC
  5
10A
330
1F
100
AcDbEntity
  8
GR1
  6
Continuous
 62
     3
370
    50
100
AcDbCircle
 10
85.04733144318071
 20
169.904050304731
 30
0.0
 40
98.31019193086591
100
AcDbArc
 50
7.434493683436266
 51
19.51859288091554
  0
ARC
  5
10B
330
1F
100
AcDbEntity
  8
GR1
  6
Continuous
 62
     3
370
    50
100
AcDbCircle
 10
320.5858720094809
 20
121.3732922732362
 30
0.0
 40
20.00000000000003
100
AcDbArc
 50
171.4700640348768
 51
333.0000000000001
  0
CIRCLE
  5
10C
330
1F
100
AcDbEntity
  8
GR1
  6
Continuous
 62
     3
370
    50
100
AcDbCircle
 10
319.9858720094809
 20
119.9232922732363
 30
0.0
 40
10.5
  0
ARC
  5
10D
330
1F
100
AcDbEntity
  8
GR1
  6
Continuous
 62
     3
370
    50
100
AcDbCircle
 10
319.9858720064128
 20
119.9232922724223
 30
0.0
 40
75.0
100
AcDbArc
 50
96.73644675904164
 51
47.63747055157108
  0
LINE
  5
10E
330
1F
100
AcDbEntity
  8
GR1
  6
Continuous
 62
     3
370
    50
100
AcDbLine
 10
400.9838397153299
 20
294.4232922732363
 30
0.0
 11
318.9838397153299
 21
294.4232922732362
 31
0.0
  0
LINE
  5
10F
330
1F
100
AcDbEntity
  8
GR1
  6
Continuous
 62
     3
370
    50
100
AcDbLine
 10
324.0143483680932
 20
301.3927836204729
 30
0.0
 11
326.5143483680932
 21
303.8927836204729
 31
0.0
  0
ARC
  5
110
330
1F
100
AcDbEntity
  8
GR1
  6
Continuous
 62
     3
370
    50
100
AcDbCircle
 10
322.4838397153299
 20
307.9232922732363
 30
0.0
 40
5.7
100
AcDbArc
 50
315.0
 51
134.9999999999999
  0
LINE
  5
111
330
1F
100
AcDbEntity
  8
GR1
  6
Continuous
 62
     3
370
    50
100
AcDbLine
 10
318.4533310625666
 20
311.9538009259995
 30
0.0
 11
315.9533310625666
 21
309.4538009259995
 31
0.0
  0
ARC
  5
112
330
1F
100
AcDbEntity
  8
GR1
  6
Continuous
 62
     3
370
    50
100
AcDbCircle
 10
319.9838397153299
 20
305.4232922732363
 30
0.0
 40
5.7
100
AcDbArc
 50
135.0
 51
315.0
  0
ARC
  5
113
330
1F
100
AcDbEntity
  8
GR1
  6
Continuous
 62
     3
370
    50
100
AcDbCircle
 10
318.9838397153299
 20
304.4232922732363
 30
0.0
 40
10.0
100
AcDbArc
 50
180.0
 51
270.0
  0
LINE
  5
114
330
1F
100
AcDbEntity
  8
GR1
  6
Continuous
 62
     3
370
    50
100
AcDbLine
 10
308.9838397153299
 20
304.4232922732362
 30
0.0
 11
308.9838397153299
 21
386.4232922732363
 31
0.0
  0
LINE
  5
115
330
1F
100
AcDbEntity
  8
GR1
  6
Continuous
 62
     3
370
    50
100
AcDbLine
 10
315.9533310625666
 20
381.392783620473
 30
0.0
 11
318.4533310625666
 21
378.892783620473
 31
0.0
  0
ARC
  5
116
330
1F
100
AcDbEntity
  8
GR1
  6
Continuous
 62
     3
370
    50
100
AcDbCircle
 10
322.4838397153299
 20
382.9232922732363
 30
0.0
 40
5.7
100
AcDbArc
 50
225.0000000000001
 51
45.0000000000001
  0
LINE
  5
117
330
1F
100
AcDbEntity
  8
GR1
  6
Continuous
 62
     3
370
    50
100
AcDbLine
 10
326.5143483680932
 20
386.9538009259996
 30
0.0
 11
324.0143483680932
 21
389.4538009259996
 31
0.0
  0
ARC
  5
118
330
1F
100
AcDbEntity
  8
GR1
  6
Continuous
 62
     3
370
    50
100
AcDbCircle
 10
319.9838397153299
 20
385.4232922732363
 30
0.0
 40
5.7
100
AcDbArc
 50
45.0000000000001
 51
225.0000000000001
  0
LINE
  5
119
330
1F
100
AcDbEntity
  8
GR1
  6
Continuous
 62
     3
370
    50
100
AcDbLine
 10
300.5781269537891
 20
375.6232922732363
 30
0.0
 11
300.5781269537891
 21
373.1232922732362
 31
0.0
  0
LINE
  5
11A
330
1F
100
AcDbEntity
  8
GR1
  6
Continuous
 62
     3
370
    50
100
AcDbLine
 10
318.9838397153299
 20
396.4232922732363
 30
0.0
 11
400.9838397153299
 21
396.4232922732363
 31
0.0
  0
LINE
  5
11B
330
1F
100
AcDbEntity
  8
GR1
  6
Continuous
 62
     3
370
    50
100
AcDbLine
 10
395.9533310625666
 20
389.4538009259996
 30
0.0
 11
393.4533310625666
 21
386.9538009259996
 31
0.0
  0
ARC
  5
11C
330
1F
100
AcDbEntity
  8
GR1
  6
Continuous
 62
     3
370
    50
100
AcDbCircle
 10
397.4838397153299
 20
382.9232922732363
 30
0.0
 40
5.7
100
AcDbArc
 50
135.0
 51
315.0
  0
LINE
  5
11D
330
1F
100
AcDbEntity
  8
GR1
  6
Continuous
 62
     3
370
    50
100
AcDbLine
 10
401.5143483680932
 20
378.892783620473
 30
0.0
 11
404.0143483680932
 21
381.392783620473
 31
0.0
  0
ARC
  5
11E
330
1F
100
AcDbEntity
  8
GR1
  6
Continuous
 62
     3
370
    50
100
AcDbCircle
 10
399.9838397153299
 20
385.4232922732363
 30
0.0
 40
5.7
100
AcDbArc
 50
315.0
 51
134.9999999999999
  0
LINE
  5
11F
330
1F
100
AcDbEntity
  8
GR1
  6
Continuous
 62
     3
370
    50
100
AcDbLine
 10
410.9838397153299
 20
386.4232922732363
 30
0.0
 11
410.9838397153299
 21
304.4232922732363
 31
0.0
  0
LINE
  5
120
330
1F
100
AcDbEntity
  8
GR1
  6
Continuous
 62
     3
370
    50
100
AcDbLine
 10
404.0143483680932
 20
309.4538009259995
 30
0.0
 11
401.5143483680932
 21
311.9538009259995
 31
0.0
  0
ARC
  5
121
330
1F
100
AcDbEntity
  8
GR1
  6
Continuous
 62
     3
370
    50
100
AcDbCircle
 10
397.4838397153299
 20
307.9232922732363
 30
0.0
 40
5.7
100
AcDbArc
 50
45.0
 51
225.0
  0
LINE
  5
122
330
1F
100
AcDbEntity
  8
GR1
  6
Continuous
 62
     3
370
    50
100
AcDbLine
 10
393.4533310625666
 20
303.8927836204729
 30
0.0
 11
395.9533310625666
 21
301.3927836204729
 31
0.0
  0
ARC
  5
123
330
1F
100
AcDbEntity
  8
GR1
  6
Continuous
 62
     3
370
    50
100
AcDbCircle
 10
399.9838397153299
 20
305.4232922732363
 30
0.0
 40
5.7
100
AcDbArc
 50
225.0
 51
45.0
  0
ARC
  5
124
330
1F
100
AcDbEntity
  8
GR1
  6
Continuous
 62
     3
370
    50
100
AcDbCircle
 10
400.9838397153299
 20
304.4232922732363
 30
0.0
 40
10.0
100
AcDbArc
 50
270.0
 51
0.0
  0
CIRCLE
  5
125
330
1F
100
AcDbEntity
  8
GR1
  6
Continuous
 62
     3
370
    50
100
AcDbCircle
 10
359.9838397153299
 20
345.4232922732363
 30
0.0
 40
13.0
  0
ARC
  5
126
330
1F
100
AcDbEntity
  8
GR1
  6
Continuous
 62
     3
370
    50
100
AcDbCircle
 10
400.9838397153299
 20
386.4232922732363
 30
0.0
 40
10.0
100
AcDbArc
 50
0.0
 51
90.0
  0
ARC
  5
127
330
1F
100
AcDbEntity
  8
GR1
  6
Continuous
 62
     3
370
    50
100
AcDbCircle
 10
318.9838397153299
 20
386.4232922732363
 30
0.0
 40
10.0
100
AcDbArc
 50
90.0
 51
180.0
  0
LINE
  5
128
330
1F
100
AcDbEntity
  8
GR1
  6
Continuous
 62
     6
370
    25
100
AcDbLine
 10
189.031073247871
 20
110.7232922732363
 30
0.0
 11
189.031073247871
 21
131.7232922732363
 31
0.0
  0
LINE
  5
129
330
1F
100
AcDbEntity
  8
GR1
  6
DASHDOT
 62
     6
370
    25
100
AcDbLine
 10
190.8150278530143
 20
119.9232922732363
 30
0.0
 11
107.3846848793908
 21
119.9232922732363
 31
0.0
  0
LINE
  5
12A
330
1F
100
AcDbEntity
  8
GR1
  6
Continuous
 62
     6
370
    25
100
AcDbLine
 10
111.031073247871
 20
114.8702922732363
 30
0.0
 11
115.631073247871
 21
114.8702922732363
 31
0.0
  0
LINE
  5
12B
330
1F
100
AcDbEntity
  8
GR1
  6
Continuous
 62
     6
370
    25
100
AcDbLine
 10
112.031073247871
 20
113.9232922732363
 30
0.0
 11
112.031073247871
 21
125.9232922732363
 31
0.0
  0
LINE
  5
12C
330
1F
100
AcDbEntity
  8
GR1
  6
Continuous
 62
     6
370
    25
100
AcDbLine
 10
115.631073247871
 20
124.9762922732363
 30
0.0
 11
111.031073247871
 21
124.9762922732363
 31
0.0
  0
ARC
  5
12D
330
1F
100
AcDbEntity
  8
GR1
  6
Continuous
 62
     6
370
    25
100
AcDbCircle
 10
154.8310732478712
 20
594.4982922732411
 30
0.0
 40
378.6250000000049
100
AcDbArc
 50
265.8348694405382
 51
274.1651305594617
  0
LINE
  5
12E
330
1F
100
AcDbEntity
  8
GR1
  6
Continuous
 62
     6
370
    25
100
AcDbLine
 10
193.431073247871
 20
218.1754116786396
 30
0.0
 11
116.231073247871
 21
218.1754116786396
 31
0.0
  0
LINE
  5
12F
330
1F
100
AcDbEntity
  8
GR1
  6
DASHDOT
 62
     6
370
    25
100
AcDbLine
 10
151.6084793382198
 20
222.9232922732363
 30
0.0
 11
157.9047152841217
 21
222.9232922732363
 31
0.0
  0
LINE
  5
130
330
1F
100
AcDbEntity
  8
GR1
  6
DASHDOT
 62
     6
370
    25
100
AcDbLine
 10
154.831073247871
 20
239.7631210840175
 30
0.0
 11
154.831073247871
 21
42.5709749097847
 31
0.0
  0
LINE
  5
131
330
1F
100
AcDbEntity
  8
GR1
  6
DASHDOT
 62
     6
370
    25
100
AcDbLine
 10
319.9858720094809
 20
41.84672803965
 30
0.0
 11
319.9858720094809
 21
148.3749273421267
 31
0.0
  0
CIRCLE
  5
132
330
1F
100
AcDbEntity
  8
GR1
  6
Continuous
 62
     6
370
    25
100
AcDbCircle
 10
319.9858720094809
 20
119.9232922732363
 30
0.0
 40
3.0
  0
CIRCLE
  5
133
330
1F
100
AcDbEntity
  8
GR1
  6
Continuous
 62
     6
370
    25
100
AcDbCircle
 10
319.9858720094809
 20
119.9232922732363
 30
0.0
 40
8.5
  0
LINE
  5
134
330
1F
100
AcDbEntity
  8
GR1
  6
DASHDOT
 62
     6
370
    25
100
AcDbLine
 10
399.364008733924
 20
119.9232922732363
 30
0.0
 11
241.7457546639331
 21
119.9232922732363
 31
0.0
  0
LINE
  5
135
330
1F
100
AcDbEntity
  8
GR1
  6
DASHDOT
 62
     6
370
    25
100
AcDbLine
 10
359.9858720094809
 20
239.4008306433845
 30
0.0
 11
359.9858720094809
 21
144.5856156270061
 31
0.0
  0
LINE
  5
136
330
1F
100
AcDbEntity
  8
GR1
  6
Continuous
 62
     7
370
    25
100
AcDbLine
 10
319.9838397153299
 20
296.4192276849342
 30
0.0
 11
319.9838397153299
 21
301.4192276849342
 31
0.0
  0
LINE
  5
137
330
1F
100
AcDbEntity
  8
GR1
  6
Continuous
 62
     6
370
    25
100
AcDbLine
 10
319.9838397153299
 20
302.9232922732363
 30
0.0
 11
319.9838397153299
 21
307.9232922732363
 31
0.0
  0
LINE
  5
138
330
1F
100
AcDbEntity
  8
GR1
  6
Continuous
 62
     6
370
    25
100
AcDbLine
 10
319.9838397153299
 20
307.9232922732363
 30
0.0
 11
324.9838397153299
 21
307.9232922732363
 31
0.0
  0
LINE
  5
139
330
1F
100
AcDbEntity
  8
GR1
  6
Continuous
 62
     6
370
    25
100
AcDbLine
 10
326.487904303632
 20
307.9232922732363
 30
0.0
 11
331.487904303632
 21
307.9232922732363
 31
0.0
  0
LINE
  5
13A
330
1F
100
AcDbEntity
  8
GR1
  6
Continuous
 62
     6
370
    25
100
AcDbLine
 10
328.987904303632
 20
305.4232922732363
 30
0.0
 11
323.987904303632
 21
305.4232922732363
 31
0.0
  0
LINE
  5
13B
330
1F
100
AcDbEntity
  8
GR1
  6
Continuous
 62
     6
370
    25
100
AcDbLine
 10
322.4838397153299
 20
305.4232922732363
 30
0.0
 11
322.4838397153299
 21
310.4232922732363
 31
0.0
  0
LINE
  5
13C
330
1F
100
AcDbEntity
  8
GR1
  6
Continuous
 62
     6
370
    25
100
AcDbLine
 10
322.4838397153299
 20
311.9273568615383
 30
0.0
 11
322.4838397153299
 21
316.9273568615383
 31
0.0
  0
LINE
  5
13D
330
1F
100
AcDbEntity
  8
GR1
  6
Continuous
 62
     6
370
    25
100
AcDbLine
 10
319.9838397153299
 20
314.4273568615383
 30
0.0
 11
319.9838397153299
 21
309.4273568615383
 31
0.0
  0
LINE
  5
13E
330
1F
100
AcDbEntity
  8
GR1
  6
Continuous
 62
     6
370
    25
100
AcDbLine
 10
318.4838397153299
 20
307.9232922732363
 30
0.0
 11
313.4838397153299
 21
307.9232922732363
 31
0.0
  0
LINE
  5
13F
330
1F
100
AcDbEntity
  8
GR1
  6
Continuous
 62
     6
370
    25
100
AcDbLine
 10
310.9838397153299
 20
305.4232922732363
 30
0.0
 11
315.9838397153299
 21
305.4232922732363
 31
0.0
  0
LINE
  5
140
330
1F
100
AcDbEntity
  8
GR1
  6
Continuous
 62
     6
370
    25
100
AcDbLine
 10
317.4838397153299
 20
305.4232922732363
 30
0.0
 11
322.4838397153299
 21
305.4232922732363
 31
0.0
  0
LINE
  5
141
330
1F
100
AcDbEntity
  8
GR1
  6
Continuous
 62
     6
370
    25
100
AcDbLine
 10
322.4838397153299
 20
303.9192276849342
 30
0.0
 11
322.4838397153299
 21
298.9192276849342
 31
0.0
  0
LINE
  5
142
330
1F
100
AcDbEntity
  8
GR1
  6
DASHDOT
 62
     6
370
    25
100
AcDbLine
 10
240.850636360716
 20
345.4232922732363
 30
0.0
 11
413.3562543727741
 21
345.4232922732363
 31
0.0
  0
CIRCLE
  5
143
330
1F
100
AcDbEntity
  8
GR1
  6
Continuous
 62
     6
370
    25
100
AcDbCircle
 10
359.9838397153299
 20
345.4232922732363
 30
0.0
 40
42.5
  0
CIRCLE
  5
144
330
1F
100
AcDbEntity
  8
GR1
  6
Continuous
 62
     6
370
    25
100
AcDbCircle
 10
359.9838397153299
 20
345.4232922732363
 30
0.0
 40
38.0
  0
CIRCLE
  5
145
330
1F
100
AcDbEntity
  8
GR1
  6
Continuous
 62
     6
370
    25
100
AcDbCircle
 10
359.9838397153299
 20
345.4232922732363
 30
0.0
 40
13.40000000000002
  0
CIRCLE
  5
146
330
1F
100
AcDbEntity
  8
GR1
  6
Continuous
 62
     6
370
    25
100
AcDbCircle
 10
359.9838397153299
 20
345.4232922732363
 30
0.0
 40
8.009445438332094
  0
LINE
  5
147
330
1F
100
AcDbEntity
  8
GR1
  6
Continuous
 62
     6
370
    25
100
AcDbLine
 10
397.487904303632
 20
316.9273568615383
 30
0.0
 11
397.487904303632
 21
311.9273568615383
 31
0.0
  0
LINE
  5
148
330
1F
100
AcDbEntity
  8
GR1
  6
Continuous
 62
     6
370
    25
100
AcDbLine
 10
397.487904303632
 20
310.4232922732363
 30
0.0
 11
397.487904303632
 21
305.4232922732363
 31
0.0
  0
LINE
  5
149
330
1F
100
AcDbEntity
  8
GR1
  6
Continuous
 62
     6
370
    25
100
AcDbLine
 10
397.487904303632
 20
305.4232922732363
 30
0.0
 11
402.487904303632
 21
305.4232922732363
 31
0.0
  0
LINE
  5
14A
330
1F
100
AcDbEntity
  8
GR1
  6
Continuous
 62
     7
370
    25
100
AcDbLine
 10
403.987904303632
 20
305.4232922732363
 30
0.0
 11
408.987904303632
 21
305.4232922732363
 31
0.0
  0
LINE
  5
14B
330
1F
100
AcDbEntity
  8
GR1
  6
Continuous
 62
     6
370
    25
100
AcDbLine
 10
406.487904303632
 20
307.9232922732363
 30
0.0
 11
401.487904303632
 21
307.9232922732363
 31
0.0
  0
LINE
  5
14C
330
1F
100
AcDbEntity
  8
GR1
  6
Continuous
 62
     6
370
    25
100
AcDbLine
 10
399.987904303632
 20
307.9232922732363
 30
0.0
 11
394.987904303632
 21
307.9232922732363
 31
0.0
  0
LINE
  5
14D
330
1F
100
AcDbEntity
  8
GR1
  6
Continuous
 62
     6
370
    25
100
AcDbLine
 10
393.4838397153299
 20
307.9232922732363
 30
0.0
 11
388.4838397153299
 21
307.9232922732363
 31
0.0
  0
LINE
  5
14E
330
1F
100
AcDbEntity
  8
GR1
  6
Continuous
 62
     6
370
    25
100
AcDbLine
 10
390.9838397153299
 20
305.4232922732363
 30
0.0
 11
395.9838397153299
 21
305.4232922732363
 31
0.0
  0
LINE
  5
14F
330
1F
100
AcDbEntity
  8
GR1
  6
Continuous
 62
     6
370
    25
100
AcDbLine
 10
397.487904303632
 20
303.9192276849342
 30
0.0
 11
397.487904303632
 21
298.9192276849342
 31
0.0
  0
LINE
  5
150
330
1F
100
AcDbEntity
  8
GR1
  6
Continuous
 62
     6
370
    25
100
AcDbLine
 10
399.987904303632
 20
296.4192276849342
 30
0.0
 11
399.987904303632
 21
301.4192276849342
 31
0.0
  0
LINE
  5
151
330
1F
100
AcDbEntity
  8
GR1
  6
Continuous
 62
     6
370
    25
100
AcDbLine
 10
399.987904303632
 20
302.9232922732363
 30
0.0
 11
399.987904303632
 21
307.9232922732363
 31
0.0
  0
LINE
  5
152
330
1F
100
AcDbEntity
  8
GR1
  6
Continuous
 62
     6
370
    25
100
AcDbLine
 10
399.987904303632
 20
309.4273568615383
 30
0.0
 11
399.987904303632
 21
314.4273568615383
 31
0.0
  0
LINE
  5
153
330
1F
100
AcDbEntity
  8
GR1
  6
DASHDOT
 62
     6
370
    25
100
AcDbLine
 10
359.9838397153299
 20
292.0144541785143
 30
0.0
 11
359.9726718484364
 21
396.4232922732363
 31
0.0
  0
LINE
  5
154
330
1F
100
AcDbEntity
  8
GR1
  6
Continuous
 62
     6
370
    25
100
AcDbLine
 10
331.487904303632
 20
382.9232922732363
 30
0.0
 11
326.487904303632
 21
382.9232922732363
 31
0.0
  0
LINE
  5
155
330
1F
100
AcDbEntity
  8
GR1
  6
Continuous
 62
     6
370
    25
100
AcDbLine
 10
324.9838397153299
 20
382.9232922732363
 30
0.0
 11
319.9838397153299
 21
382.9232922732363
 31
0.0
  0
LINE
  5
156
330
1F
100
AcDbEntity
  8
GR1
  6
Continuous
 62
     6
370
    25
100
AcDbLine
 10
319.9838397153299
 20
382.9232922732363
 30
0.0
 11
319.9838397153299
 21
387.9232922732363
 31
0.0
  0
LINE
  5
157
330
1F
100
AcDbEntity
  8
GR1
  6
Continuous
 62
     6
370
    25
100
AcDbLine
 10
319.9838397153299
 20
389.4273568615383
 30
0.0
 11
319.9838397153299
 21
394.4273568615383
 31
0.0
  0
LINE
  5
158
330
1F
100
AcDbEntity
  8
GR1
  6
Continuous
 62
     6
370
    25
100
AcDbLine
 10
322.4838397153299
 20
391.9273568615383
 30
0.0
 11
322.4838397153299
 21
386.9273568615383
 31
0.0
  0
LINE
  5
159
330
1F
100
AcDbEntity
  8
GR1
  6
Continuous
 62
     6
370
    25
100
AcDbLine
 10
322.4838397153299
 20
385.4232922732363
 30
0.0
 11
322.4838397153299
 21
380.4232922732363
 31
0.0
  0
LINE
  5
15A
330
1F
100
AcDbEntity
  8
GR1
  6
Continuous
 62
     6
370
    25
100
AcDbLine
 10
322.4838397153299
 20
378.9192276849342
 30
0.0
 11
322.4838397153299
 21
373.9192276849342
 31
0.0
  0
LINE
  5
15B
330
1F
100
AcDbEntity
  8
GR1
  6
Continuous
 62
     6
370
    25
100
AcDbLine
 10
319.9838397153299
 20
376.4192276849342
 30
0.0
 11
319.9838397153299
 21
381.4192276849342
 31
0.0
  0
LINE
  5
15C
330
1F
100
AcDbEntity
  8
GR1
  6
Continuous
 62
     6
370
    25
100
AcDbLine
 10
318.4838397153299
 20
382.9232922732363
 30
0.0
 11
313.4838397153299
 21
382.9232922732363
 31
0.0
  0
LINE
  5
15D
330
1F
100
AcDbEntity
  8
GR1
  6
Continuous
 62
     6
370
    25
100
AcDbLine
 10
310.9838397153299
 20
385.4232922732363
 30
0.0
 11
315.9838397153299
 21
385.4232922732363
 31
0.0
  0
LINE
  5
15E
330
1F
100
AcDbEntity
  8
GR1
  6
Continuous
 62
     6
370
    25
100
AcDbLine
 10
317.4838397153299
 20
385.4232922732363
 30
0.0
 11
322.4838397153299
 21
385.4232922732363
 31
0.0
  0
LINE
  5
15F
330
1F
100
AcDbEntity
  8
GR1
  6
Continuous
 62
     6
370
    25
100
AcDbLine
 10
323.987904303632
 20
385.4232922732363
 30
0.0
 11
328.987904303632
 21
385.4232922732363
 31
0.0
  0
LINE
  5
160
330
1F
100
AcDbEntity
  8
GR1
  6
Continuous
 62
     6
370
    25
100
AcDbLine
 10
388.4838397153299
 20
382.9232922732363
 30
0.0
 11
393.4838397153299
 21
382.9232922732363
 31
0.0
  0
LINE
  5
161
330
1F
100
AcDbEntity
  8
GR1
  6
Continuous
 62
     6
370
    25
100
AcDbLine
 10
394.987904303632
 20
382.9232922732363
 30
0.0
 11
399.987904303632
 21
382.9232922732363
 31
0.0
  0
LINE
  5
162
330
1F
100
AcDbEntity
  8
GR1
  6
Continuous
 62
     6
370
    25
100
AcDbLine
 10
399.987904303632
 20
382.9232922732363
 30
0.0
 11
399.987904303632
 21
387.9232922732363
 31
0.0
  0
LINE
  5
163
330
1F
100
AcDbEntity
  8
GR1
  6
Continuous
 62
     6
370
    25
100
AcDbLine
 10
399.987904303632
 20
389.4273568615383
 30
0.0
 11
399.987904303632
 21
394.4273568615383
 31
0.0
  0
LINE
  5
164
330
1F
100
AcDbEntity
  8
GR1
  6
Continuous
 62
     6
370
    25
100
AcDbLine
 10
397.487904303632
 20
391.9273568615383
 30
0.0
 11
397.487904303632
 21
386.9273568615383
 31
0.0
  0
LINE
  5
165
330
1F
100
AcDbEntity
  8
GR1
  6
Continuous
 62
     6
370
    25
100
AcDbLine
 10
397.487904303632
 20
385.4232922732363
 30
0.0
 11
397.487904303632
 21
380.4232922732363
 31
0.0
  0
LINE
  5
166
330
1F
100
AcDbEntity
  8
GR1
  6
Continuous
 62
     6
370
    25
100
AcDbLine
 10
397.487904303632
 20
378.9192276849342
 30
0.0
 11
397.487904303632
 21
373.9192276849342
 31
0.0
  0
LINE
  5
167
330
1F
100
AcDbEntity
  8
GR1
  6
Continuous
 62
     6
370
    25
100
AcDbLine
 10
399.987904303632
 20
376.4192276849342
 30
0.0
 11
399.987904303632
 21
381.4192276849342
 31
0.0
  0
LINE
  5
168
330
1F
100
AcDbEntity
  8
GR1
  6
Continuous
 62
     6
370
    25
100
AcDbLine
 10
401.487904303632
 20
382.9232922732363
 30
0.0
 11
406.487904303632
 21
382.9232922732363
 31
0.0
  0
LINE
  5
169
330
1F
100
AcDbEntity
  8
GR1
  6
Continuous
 62
     6
370
    25
100
AcDbLine
 10
408.987904303632
 20
385.4232922732363
 30
0.0
 11
403.987904303632
 21
385.4232922732363
 31
0.0
  0
LINE
  5
16A
330
1F
100
AcDbEntity
  8
GR1
  6
Continuous
 62
     6
370
    25
100
AcDbLine
 10
402.487904303632
 20
385.4232922732363
 30
0.0
 11
397.487904303632
 21
385.4232922732363
 31
0.0
  0
LINE
  5
16B
330
1F
100
AcDbEntity
  8
GR1
  6
Continuous
 62
     6
370
    25
100
AcDbLine
 10
395.9838397153299
 20
385.4232922732363
 30
0.0
 11
390.9838397153299
 21
385.4232922732363
 31
0.0
  0
TEXT
  5
16C
330
1F
100
AcDbEntity
  8
GR1
  6
Continuous
 62
     7
370
    25
100
AcDbText
 10
329.8697814941406
 20
12.03846549987793
 30
0.0
 40
6.0
  1
ＳＵＳ－ＳＪ－１５０　Ｎ
 41
0.7887323943661974
  7
FX_VECTOR
 72
     5
 11
377.8697814941406
 21
12.03846549987793
 31
0.0
100
AcDbText
  0
LINE
  5
16D
330
1F
100
AcDbEntity
  8
GR1
  6
Continuous
 62
     3
370
    50
100
AcDbLine
 10
338.3982574375566
 20
112.2934822784453
 30
0.0
 11
376.2457110135131
 21
186.5732922732362
 31
0.0
  0
ARC
  5
16E
330
1F
100
AcDbEntity
  8
GR1
  6
Continuous
 62
     3
370
    50
100
AcDbCircle
 10
472.6970384909071
 20
143.0971591125539
 30
0.0
 40
105.7971300497176
100
AcDbArc
 50
150.2638149737379
 51
155.736185026262
  0
ARC
  5
16F
330
1F
100
AcDbEntity
  8
GR1
  6
Continuous
 62
     3
370
    50
100
AcDbCircle
 10
404.2683174030589
 20
183.5902168133503
 30
0.0
 40
26.32263887074231
100
AcDbArc
 50
108.3575094664204
 51
152.9197269764224
  0
LINE
  5
170
330
1F
100
AcDbEntity
  8
GR1
  6
Continuous
 62
     3
370
    50
100
AcDbLine
 10
395.9781269537892
 20
208.5732922732362
 30
0.0
 11
395.9781269537892
 21
217.8232922732362
 31
0.0
  0
LINE
  5
171
330
1F
100
AcDbEntity
  8
GR1
  6
Continuous
 62
     3
370
    50
100
AcDbLine
 10
397.5781269537893
 20
217.8232922732362
 30
0.0
 11
322.3781269537891
 21
217.8232922732362
 31
0.0
  0
LINE
  5
172
330
1F
100
AcDbEntity
  8
GR1
  6
Continuous
 62
     3
370
    50
100
AcDbLine
 10
323.9781269537893
 20
217.8232922732363
 30
0.0
 11
323.9781269537893
 21
215.8732922732362
 31
0.0
  0
ARC
  5
173
330
1F
100
AcDbEntity
  8
GR1
  6
Continuous
 62
     3
370
    50
100
AcDbCircle
 10
319.9781269537892
 20
215.8732922732362
 30
0.0
 40
4.0
100
AcDbArc
 50
270.0
 51
0.0
  0
LINE
  5
174
330
1F
100
AcDbEntity
  8
GR1
  6
Continuous
 62
     3
370
    50
100
AcDbLine
 10
319.9781269537892
 20
211.8732922732362
 30
0.0
 11
309.9781269537892
 21
211.8732922732362
 31
0.0
  0
LINE
  5
175
330
1F
100
AcDbEntity
  8
GR1
  6
Continuous
 62
     3
370
    50
100
AcDbLine
 10
309.9781269537892
 20
211.8732922732362
 30
0.0
 11
309.9781269537892
 21
209.3732922732362
 31
0.0
  0
LINE
  5
176
330
1F
100
AcDbEntity
  8
GR1
  6
Continuous
 62
     3
370
    50
100
AcDbLine
 10
313.928082536382
 20
211.8732922732362
 30
0.0
 11
300.7993569390013
 21
124.3398149348934
 31
0.0
  0
CIRCLE
  5
177
330
1F
100
AcDbEntity
  8
GR1
  6
Continuous
 62
     3
370
    50
100
AcDbCircle
 10
378.7281269537892
 20
222.9232922732362
 30
0.0
 40
2.1
  0
LINE
  5
178
330
1F
100
AcDbEntity
  8
GR1
  6
Continuous
 62
     3
370
    50
100
AcDbLine
 10
397.4781269537892
 20
221.1232922732362
 30
0.0
 11
397.4781269537892
 21
227.4232922732362
 31
0.0
  0
ARC
  5
179
330
1F
100
AcDbEntity
  8
GR1
  6
Continuous
 62
     3
370
    50
100
AcDbCircle
 10
393.4781269537892
 20
227.4232922732363
 30
0.0
 40
4.0
100
AcDbArc
 50
0.0
 51
25.10461224553865
  0
ARC
  5
17A
330
1F
100
AcDbEntity
  8
GR1
  6
Continuous
 62
     3
370
    50
100
AcDbCircle
 10
398.8894684172039
 20
233.5934142244558
 30
0.0
 40
4.473032676673776
100
AcDbArc
 50
270.0
 51
323.3491082367736
  0
LINE
  5
17B
330
1F
100
AcDbEntity
  8
GR1
  6
Continuous
 62
     3
370
    50
100
AcDbLine
 10
402.4781269537892
 20
230.9232922732363
 30
0.0
 11
402.4781269537892
 21
231.4232922732363
 31
0.0
  0
LINE
  5
17C
330
1F
100
AcDbEntity
  8
GR1
  6
Continuous
 62
     3
370
    50
100
AcDbLine
 10
398.8894684172039
 20
229.120381547782
 30
0.0
 11
321.0667854903745
 21
229.120381547782
 31
0.0
  0
LINE
  5
17D
330
1F
100
AcDbEntity
  8
GR1
  6
Continuous
 62
     3
370
    50
100
AcDbLine
 10
410.9781269537892
 20
231.4232922732363
 30
0.0
 11
308.9781269537891
 21
231.4232922732363
 31
0.0
  0
LINE
  5
17E
330
1F
100
AcDbEntity
  8
GR1
  6
Continuous
 62
     3
370
    50
100
AcDbLine
 10
410.9781269537892
 20
231.4232922732363
 30
0.0
 11
410.9781269537893
 21
234.9232922732363
 31
0.0
  0
ARC
  5
17F
330
1F
100
AcDbEntity
  8
GR1
  6
Continuous
 62
     3
370
    50
100
AcDbCircle
 10
401.9781269537892
 20
221.1232922732362
 30
0.0
 40
4.5
100
AcDbArc
 50
180.0000000000002
 51
220.9260633096044
  0
LINE
  5
180
330
1F
100
AcDbEntity
  8
GR1
  6
Continuous
 62
     3
370
    50
100
AcDbLine
 10
398.5781269537892
 20
218.1754116786395
 30
0.0
 11
397.5781269537893
 21
217.8232922732362
 31
0.0
  0
LINE
  5
181
330
1F
100
AcDbEntity
  8
GR1
  6
Continuous
 62
     6
370
    25
100
AcDbLine
 10
340.8535354548839
 20
123.3732922732362
 30
0.0
 11
340.8535354548839
 21
214.670614131686
 31
0.0
  0
LINE
  5
182
330
1F
100
AcDbEntity
  8
GR1
  6
Continuous
 62
     6
370
    25
100
AcDbLine
 10
398.5781269537892
 20
218.1754116786395
 30
0.0
 11
321.3781269537891
 21
218.1754116786395
 31
0.0
  0
LINE
  5
183
330
1F
100
AcDbEntity
  8
GR1
  6
Continuous
 62
     3
370
    50
100
AcDbLine
 10
322.4781269537891
 20
221.1232922732362
 30
0.0
 11
322.4781269537891
 21
227.4232922732362
 31
0.0
  0
ARC
  5
184
330
1F
100
AcDbEntity
  8
GR1
  6
Continuous
 62
     3
370
    50
100
AcDbCircle
 10
326.4781269537891
 20
227.4232922732363
 30
0.0
 40
4.0
100
AcDbArc
 50
154.8953877544614
 51
180.0
  0
ARC
  5
185
330
1F
100
AcDbEntity
  8
GR1
  6
Continuous
 62
     3
370
    50
100
AcDbCircle
 10
321.0667854903745
 20
233.5934142244558
 30
0.0
 40
4.473032676673776
100
AcDbArc
 50
216.650891763226
 51
270.0
  0
LINE
  5
186
330
1F
100
AcDbEntity
  8
GR1
  6
Continuous
 62
     3
370
    50
100
AcDbLine
 10
317.4781269537891
 20
230.9232922732363
 30
0.0
 11
317.4781269537891
 21
231.4232922732363
 31
0.0
  0
LINE
  5
187
330
1F
100
AcDbEntity
  8
GR1
  6
Continuous
 62
     3
370
    50
100
AcDbLine
 10
308.9781269537891
 20
231.4232922732363
 30
0.0
 11
308.9781269537891
 21
234.9232922732363
 31
0.0
  0
ARC
  5
188
330
1F
100
AcDbEntity
  8
GR1
  6
Continuous
 62
     3
370
    50
100
AcDbCircle
 10
317.9781269537891
 20
221.1232922732362
 30
0.0
 40
4.5
100
AcDbArc
 50
319.0739366903952
 51
359.9999999999997
  0
LINE
  5
189
330
1F
100
AcDbEntity
  8
GR1
  6
Continuous
 62
     3
370
    50
100
AcDbLine
 10
321.3781269537891
 20
218.1754116786395
 30
0.0
 11
322.3781269537891
 21
217.8232922732362
 31
0.0
  0
LINE
  5
18A
330
1F
100
AcDbEntity
  8
GR1
  6
Continuous
 62
     3
370
    50
100
AcDbLine
 10
308.9838397153299
 20
375.6232922732362
 30
0.0
 11
300.5781269537891
 21
375.6232922732362
 31
0.0
  0
LINE
  5
18B
330
1F
100
AcDbEntity
  8
GR1
  6
Continuous
 62
     3
370
    50
100
AcDbLine
 10
300.5781269537891
 20
315.2232922732362
 30
0.0
 11
300.5781269537891
 21
317.7232922732363
 31
0.0
  0
LINE
  5
18C
330
1F
100
AcDbEntity
  8
GR1
  6
Continuous
 62
     3
370
    50
100
AcDbLine
 10
308.9838397153299
 20
315.2232922732363
 30
0.0
 11
300.5781269537891
 21
315.2232922732363
 31
0.0
  0
LINE
  5
18D
330
1F
100
AcDbEntity
  8
GR1
  6
Continuous
 62
     3
370
    50
100
AcDbLine
 10
124.631073247871
 20
207.8732922732362
 30
0.0
 11
124.631073247871
 21
101.3732922732362
 31
0.0
  0
LINE
  5
18E
330
1F
100
AcDbEntity
  8
GR1
  6
Continuous
 62
     3
370
    50
100
AcDbLine
 10
124.631073247871
 20
101.3732922732362
 30
0.0
 11
127.131073247871
 21
101.3732922732362
 31
0.0
  0
ARC
  5
18F
330
1F
100
AcDbEntity
  8
GR1
  6
Continuous
 62
     3
370
    50
100
AcDbCircle
 10
128.631073247871
 20
207.8732922732362
 30
0.0
 40
4.0
100
AcDbArc
 50
90.0
 51
180.0
  0
TEXT
  5
191
330
1F
100
AcDbEntity
  8
図面枠ﾚｲﾔ
  6
Continuous
 62
     7
370
    25
100
AcDbText
 10
429.0
 20
12.0
 30
0.0
 40
6.0
  1
Ｓ４０Ｇ０ＵＡＡ－Ｃ０１
 41
0.7887323943661974
  7
FX_VECTOR
 72
     5
 11
477.0
 21
12.0
 31
0.0
100
AcDbText
  0
TEXT
  5
192
330
1F
100
AcDbEntity
  8
GR1
  6
Continuous
 62
     7
370
    25
100
AcDbText
 10
420.5245328204429
 20
280.086575056771
 30
0.0
 40
4.740658760070801
  1
４－１１
 50
45.0
 41
0.4520532036787091
  7
FX_VECTOR
 72
     5
 11
425.5035433514321
 21
285.0655855877602
 31
0.0
100
AcDbText
  0
LINE
  5
193
330
1F
100
AcDbEntity
  8
GR1
  6
Continuous
 62
     7
370
    25
100
AcDbLine
 10
396.6604378437531
 20
300.6856768392864
 30
0.0
 11
420.2622168313788
 21
277.0838978516607
 31
0.0
  0
LINE
  5
194
330
1F
100
AcDbEntity
  8
GR1
  6
Continuous
 62
     7
370
    25
100
AcDbLine
 10
404.7214551492798
 20
308.746694144813
 30
0.0
 11
428.3232341369054
 21
285.1449151571874
 31
0.0
  0
LINE
  5
195
330
1F
100
AcDbEntity
  8
GR1
  6
Continuous
 62
     7
370
    25
100
AcDbLine
 10
419.5551100501923
 20
277.7910046328473
 30
0.0
 11
427.6161273557189
 21
285.8520219383739
 31
0.0
  0
INSERT
  5
196
330
1F
100
AcDbEntity
  8
GR1
  6
Continuous
 62
     7
370
    25
100
AcDbBlockReference
  2
FXTIP_ARROW_S
 10
419.5551100501923
 20
277.7910046328473
 30
0.0
 41
4.0
 42
4.0
 50
225.0
  0
INSERT
  5
197
330
1F
100
AcDbEntity
  8
GR1
  6
Continuous
 62
     7
370
    25
100
AcDbBlockReference
  2
FXTIP_ARROW_E
 10
427.6161273557189
 20
285.8520219383739
 30
0.0
 41
4.0
 42
4.0
 50
45.0
  0
TEXT
  5
198
330
1F
100
AcDbEntity
  8
GR1
  6
Continuous
 62
     7
370
    25
100
AcDbText
 10
355.4838256835938
 20
265.3566284179688
 30
0.0
 40
4.0
  1
１０２
 41
0.9264705882352942
  7
FX_VECTOR
 72
     5
 11
364.4838256835938
 21
265.3566284179688
 31
0.0
100
AcDbText
  0
LINE
  5
199
330
1F
100
AcDbEntity
  8
GR1
  6
Continuous
 62
     7
370
    25
100
AcDbLine
 10
308.9838397153299
 20
303.4232922732363
 30
0.0
 11
308.9838397153299
 21
263.3566441237081
 31
0.0
  0
LINE
  5
19A
330
1F
100
AcDbEntity
  8
GR1
  6
Continuous
 62
     7
370
    25
100
AcDbLine
 10
410.9838397153299
 20
303.4232922732363
 30
0.0
 11
410.9838397153299
 21
263.3566441237081
 31
0.0
  0
LINE
  5
19B
330
1F
100
AcDbEntity
  8
GR1
  6
Continuous
 62
     7
370
    25
100
AcDbLine
 10
308.9838397153299
 20
264.3566441237081
 30
0.0
 11
410.9838397153299
 21
264.3566441237081
 31
0.0
  0
INSERT
  5
19C
330
1F
100
AcDbEntity
  8
GR1
  6
Continuous
 62
     7
370
    25
100
AcDbBlockReference
  2
FXTIP_ARROW_S
 10
308.9838397153299
 20
264.3566441237081
 30
0.0
 41
4.0
 42
4.0
 50
180.0
  0
INSERT
  5
19D
330
1F
100
AcDbEntity
  8
GR1
  6
Continuous
 62
     7
370
    25
100
AcDbBlockReference
  2
FXTIP_ARROW_E
 10
410.9838397153299
 20
264.3566441237081
 30
0.0
 41
4.0
 42
4.0
 50
360.0
  0
TEXT
  5
19E
330
1F
100
AcDbEntity
  8
GR1
  6
Continuous
 62
     7
370
    25
100
AcDbText
 10
356.9858703613281
 20
275.3566284179688
 30
0.0
 40
4.0
  1
８０
 41
0.9545454545454547
  7
FX_VECTOR
 72
     5
 11
362.9858703613281
 21
275.3566284179688
 31
0.0
100
AcDbText
  0
LINE
  5
19F
330
1F
100
AcDbEntity
  8
GR1
  6
Continuous
 62
     7
370
    25
100
AcDbLine
 10
319.9838397153299
 20
295.4192276849342
 30
0.0
 11
319.9838397153299
 21
273.3566441237081
 31
0.0
  0
LINE
  5
1A0
330
1F
100
AcDbEntity
  8
GR1
  6
Continuous
 62
     7
370
    25
100
AcDbLine
 10
399.987904303632
 20
295.4192276849342
 30
0.0
 11
399.987904303632
 21
273.3566441237081
 31
0.0
  0
LINE
  5
1A1
330
1F
100
AcDbEntity
  8
GR1
  6
Continuous
 62
     7
370
    25
100
AcDbLine
 10
319.9838397153299
 20
274.3566441237081
 30
0.0
 11
399.987904303632
 21
274.3566441237081
 31
0.0
  0
INSERT
  5
1A2
330
1F
100
AcDbEntity
  8
GR1
  6
Continuous
 62
     7
370
    25
100
AcDbBlockReference
  2
FXTIP_ARROW_S
 10
319.9838397153299
 20
274.3566441237081
 30
0.0
 41
4.0
 42
4.0
 50
180.0
  0
INSERT
  5
1A3
330
1F
100
AcDbEntity
  8
GR1
  6
Continuous
 62
     7
370
    25
100
AcDbBlockReference
  2
FXTIP_ARROW_E
 10
399.987904303632
 20
274.3566441237081
 30
0.0
 41
4.0
 42
4.0
 50
360.0
  0
TEXT
  5
1A4
330
1F
100
AcDbEntity
  8
GR1
  6
Continuous
 62
     7
370
    25
100
AcDbText
 10
356.9858703613281
 20
285.3566284179688
 30
0.0
 40
4.0
  1
７５
 41
0.9545454545454547
  7
FX_VECTOR
 72
     5
 11
362.9858703613281
 21
285.3566284179688
 31
0.0
100
AcDbText
  0
LINE
  5
1A5
330
1F
100
AcDbEntity
  8
GR1
  6
Continuous
 62
     7
370
    25
100
AcDbLine
 10
322.4838397153299
 20
297.9192276849342
 30
0.0
 11
322.4838397153299
 21
283.3566441237081
 31
0.0
  0
LINE
  5
1A6
330
1F
100
AcDbEntity
  8
GR1
  6
Continuous
 62
     7
370
    25
100
AcDbLine
 10
397.487904303632
 20
297.9192276849342
 30
0.0
 11
397.487904303632
 21
283.3566441237081
 31
0.0
  0
LINE
  5
1A7
330
1F
100
AcDbEntity
  8
GR1
  6
Continuous
 62
     7
370
    25
100
AcDbLine
 10
322.4838397153299
 20
284.3566441237081
 30
0.0
 11
397.487904303632
 21
284.3566441237081
 31
0.0
  0
INSERT
  5
1A8
330
1F
100
AcDbEntity
  8
GR1
  6
Continuous
 62
     7
370
    25
100
AcDbBlockReference
  2
FXTIP_ARROW_S
 10
322.4838397153299
 20
284.3566441237081
 30
0.0
 41
4.0
 42
4.0
 50
180.0
  0
INSERT
  5
1A9
330
1F
100
AcDbEntity
  8
GR1
  6
Continuous
 62
     7
370
    25
100
AcDbBlockReference
  2
FXTIP_ARROW_E
 10
397.487904303632
 20
284.3566441237081
 30
0.0
 41
4.0
 42
4.0
 50
360.0
  0
TEXT
  5
1AA
330
1F
100
AcDbEntity
  8
GR1
  6
Continuous
 62
     7
370
    25
100
AcDbText
 10
439.9193725585938
 20
340.9232788085938
 30
0.0
 40
4.0
  1
１０２
 50
90.0
 41
0.9264705882352942
  7
FX_VECTOR
 72
     5
 11
439.9193725585938
 21
349.9232788085938
 31
0.0
100
AcDbText
  0
LINE
  5
1AB
330
1F
100
AcDbEntity
  8
GR1
  6
Continuous
 62
     7
370
    25
100
AcDbLine
 10
401.9838397153299
 20
294.4232922732363
 30
0.0
 11
441.9193729003359
 21
294.4232922732363
 31
0.0
  0
LINE
  5
1AC
330
1F
100
AcDbEntity
  8
GR1
  6
Continuous
 62
     7
370
    25
100
AcDbLine
 10
401.9838397153299
 20
396.4232922732363
 30
0.0
 11
441.9193729003359
 21
396.4232922732363
 31
0.0
  0
LINE
  5
1AD
330
1F
100
AcDbEntity
  8
GR1
  6
Continuous
 62
     7
370
    25
100
AcDbLine
 10
440.9193729003359
 20
294.4232922732363
 30
0.0
 11
440.9193729003359
 21
396.4232922732363
 31
0.0
  0
INSERT
  5
1AE
330
1F
100
AcDbEntity
  8
GR1
  6
Continuous
 62
     7
370
    25
100
AcDbBlockReference
  2
FXTIP_ARROW_S
 10
440.9193729003359
 20
294.4232922732363
 30
0.0
 41
4.0
 42
4.0
 50
270.0
  0
INSERT
  5
1AF
330
1F
100
AcDbEntity
  8
GR1
  6
Continuous
 62
     7
370
    25
100
AcDbBlockReference
  2
FXTIP_ARROW_E
 10
440.9193729003359
 20
396.4232922732363
 30
0.0
 41
4.0
 42
4.0
 50
90.0
  0
TEXT
  5
1B0
330
1F
100
AcDbEntity
  8
GR1
  6
Continuous
 62
     7
370
    25
100
AcDbText
 10
429.9193725585938
 20
342.4232788085938
 30
0.0
 40
4.0
  1
８０
 50
90.0
 41
0.9545454545454547
  7
FX_VECTOR
 72
     5
 11
429.9193725585938
 21
348.4232788085938
 31
0.0
100
AcDbText
  0
LINE
  5
1B1
330
1F
100
AcDbEntity
  8
GR1
  6
Continuous
 62
     7
370
    25
100
AcDbLine
 10
409.987904303632
 20
305.4232922732363
 30
0.0
 11
431.9193729003359
 21
305.4232922732363
 31
0.0
  0
LINE
  5
1B2
330
1F
100
AcDbEntity
  8
GR1
  6
Continuous
 62
     7
370
    25
100
AcDbLine
 10
409.987904303632
 20
385.4232922732363
 30
0.0
 11
431.9193729003359
 21
385.4232922732363
 31
0.0
  0
LINE
  5
1B3
330
1F
100
AcDbEntity
  8
GR1
  6
Continuous
 62
     7
370
    25
100
AcDbLine
 10
430.9193729003359
 20
305.4232922732363
 30
0.0
 11
430.9193729003359
 21
385.4232922732363
 31
0.0
  0
INSERT
  5
1B4
330
1F
100
AcDbEntity
  8
GR1
  6
Continuous
 62
     7
370
    25
100
AcDbBlockReference
  2
FXTIP_ARROW_S
 10
430.9193729003359
 20
305.4232922732363
 30
0.0
 41
4.0
 42
4.0
 50
270.0
  0
INSERT
  5
1B5
330
1F
100
AcDbEntity
  8
GR1
  6
Continuous
 62
     7
370
    25
100
AcDbBlockReference
  2
FXTIP_ARROW_E
 10
430.9193729003359
 20
385.4232922732363
 30
0.0
 41
4.0
 42
4.0
 50
90.0
  0
TEXT
  5
1B6
330
1F
100
AcDbEntity
  8
GR1
  6
Continuous
 62
     7
370
    25
100
AcDbText
 10
419.9193725585938
 20
342.4232788085938
 30
0.0
 40
4.0
  1
７５
 50
90.0
 41
0.9545454545454547
  7
FX_VECTOR
 72
     5
 11
419.9193725585938
 21
348.4232788085938
 31
0.0
100
AcDbText
  0
LINE
  5
1B7
330
1F
100
AcDbEntity
  8
GR1
  6
Continuous
 62
     7
370
    25
100
AcDbLine
 10
407.487904303632
 20
382.9232922732363
 30
0.0
 11
421.9193729003359
 21
382.9232922732363
 31
0.0
  0
LINE
  5
1B8
330
1F
100
AcDbEntity
  8
GR1
  6
Continuous
 62
     7
370
    25
100
AcDbLine
 10
407.487904303632
 20
307.9232922732363
 30
0.0
 11
421.9193729003359
 21
307.9232922732363
 31
0.0
  0
LINE
  5
1B9
330
1F
100
AcDbEntity
  8
GR1
  6
Continuous
 62
     7
370
    25
100
AcDbLine
 10
420.9193729003359
 20
382.9232922732363
 30
0.0
 11
420.9193729003359
 21
307.9232922732363
 31
0.0
  0
INSERT
  5
1BA
330
1F
100
AcDbEntity
  8
GR1
  6
Continuous
 62
     7
370
    25
100
AcDbBlockReference
  2
FXTIP_ARROW_S
 10
420.9193729003359
 20
382.9232922732363
 30
0.0
 41
4.0
 42
4.0
 50
90.0
  0
INSERT
  5
1BB
330
1F
100
AcDbEntity
  8
GR1
  6
Continuous
 62
     7
370
    25
100
AcDbBlockReference
  2
FXTIP_ARROW_E
 10
420.9193729003359
 20
307.9232922732363
 30
0.0
 41
4.0
 42
4.0
 50
270.0
  0
TEXT
  5
1BC
330
1F
100
AcDbEntity
  8
GR1
  6
Continuous
 62
     7
370
    25
100
AcDbText
 10
204.3125
 20
113.9232940673828
 30
0.0
 40
4.0
  1
%%c１５０
 50
90.0
 41
0.9130434782608696
  7
FX_VECTOR
 72
     5
 11
204.3125
 21
125.9232940673828
 31
0.0
100
AcDbText
  0
LINE
  5
1BD
330
1F
100
AcDbEntity
  8
GR1
  6
Continuous
 62
     7
370
    25
100
AcDbLine
 10
155.831073247871
 20
44.92329227323633
 30
0.0
 11
206.3124890432938
 21
44.92329227323633
 31
0.0
  0
LINE
  5
1BE
330
1F
100
AcDbEntity
  8
GR1
  6
Continuous
 62
     7
370
    25
100
AcDbLine
 10
155.831073247871
 20
194.9232922732363
 30
0.0
 11
206.3124890432938
 21
194.9232922732363
 31
0.0
  0
LINE
  5
1BF
330
1F
100
AcDbEntity
  8
GR1
  6
Continuous
 62
     7
370
    25
100
AcDbLine
 10
205.3124890432938
 20
44.92329227323633
 30
0.0
 11
205.3124890432938
 21
194.9232922732363
 31
0.0
  0
INSERT
  5
1C0
330
1F
100
AcDbEntity
  8
GR1
  6
Continuous
 62
     7
370
    25
100
AcDbBlockReference
  2
FXTIP_ARROW_S
 10
205.3124890432938
 20
44.92329227323633
 30
0.0
 41
4.0
 42
4.0
 50
270.0
  0
INSERT
  5
1C1
330
1F
100
AcDbEntity
  8
GR1
  6
Continuous
 62
     7
370
    25
100
AcDbBlockReference
  2
FXTIP_ARROW_E
 10
205.3124890432938
 20
194.9232922732363
 30
0.0
 41
4.0
 42
4.0
 50
90.0
  0
TEXT
  5
1C3
330
1F
100
AcDbEntity
  8
基準ﾚｲﾔｸﾞﾙｰﾌﾟ
  6
Continuous
 62
     7
370
    25
100
AcDbText
 10
429.712158203125
 20
135.4232940673828
 30
0.0
 40
4.0
  1
１９０
 50
90.0
 41
0.9264705882352942
  7
FX_VECTOR
 72
     5
 11
429.712158203125
 21
144.4232940673828
 31
0.0
100
AcDbText
  0
LINE
  5
1C4
330
1F
100
AcDbEntity
  8
基準ﾚｲﾔｸﾞﾙｰﾌﾟ
  6
Continuous
 62
     7
370
    25
100
AcDbLine
 10
430.7121801309046
 20
44.9232922724223
 30
0.0
 11
430.7121801309046
 21
234.9232922732363
 31
0.0
  0
INSERT
  5
1C5
330
1F
100
AcDbEntity
  8
基準ﾚｲﾔｸﾞﾙｰﾌﾟ
  6
Continuous
 62
     7
370
    25
100
AcDbBlockReference
  2
FXTIP_ARROW_S
 10
430.7121801309046
 20
44.9232922724223
 30
0.0
 41
4.0
 42
4.0
 50
270.0
  0
INSERT
  5
1C6
330
1F
100
AcDbEntity
  8
基準ﾚｲﾔｸﾞﾙｰﾌﾟ
  6
Continuous
 62
     7
370
    25
100
AcDbBlockReference
  2
FXTIP_ARROW_E
 10
430.7121801309046
 20
234.9232922732363
 30
0.0
 41
4.0
 42
4.0
 50
90.0
  0
LINE
  5
1C7
330
1F
100
AcDbEntity
  8
基準ﾚｲﾔｸﾞﾙｰﾌﾟ
  6
Continuous
 62
     7
370
    25
100
AcDbLine
 10
320.9858720094809
 20
44.92329227242232
 30
0.0
 11
431.7121801309046
 21
44.9232922724223
 31
0.0
  0
LINE
  5
1C8
330
1F
100
AcDbEntity
  8
基準ﾚｲﾔｸﾞﾙｰﾌﾟ
  6
Continuous
 62
     7
370
    25
100
AcDbLine
 10
411.9781269537893
 20
234.9232922732363
 30
0.0
 11
431.7121801309046
 21
234.9232922732363
 31
0.0
  0
TEXT
  5
1C9
330
1F
100
AcDbEntity
  8
基準ﾚｲﾔｸﾞﾙｰﾌﾟ
  6
Continuous
 62
     7
370
    25
100
AcDbText
 10
419.712158203125
 20
172.9232940673828
 30
0.0
 40
4.0
  1
１１５
 50
90.0
 41
0.9264705882352942
  7
FX_VECTOR
 72
     5
 11
419.712158203125
 21
181.9232940673828
 31
0.0
100
AcDbText
  0
LINE
  5
1CA
330
1F
100
AcDbEntity
  8
基準ﾚｲﾔｸﾞﾙｰﾌﾟ
  6
Continuous
 62
     7
370
    25
100
AcDbLine
 10
420.7121801309046
 20
119.9232922732363
 30
0.0
 11
420.7121801309046
 21
234.9232922732363
 31
0.0
  0
INSERT
  5
1CB
330
1F
100
AcDbEntity
  8
基準ﾚｲﾔｸﾞﾙｰﾌﾟ
  6
Continuous
 62
     7
370
    25
100
AcDbBlockReference
  2
FXTIP_ARROW_S
 10
420.7121801309046
 20
119.9232922732363
 30
0.0
 41
4.0
 42
4.0
 50
270.0
  0
INSERT
  5
1CC
330
1F
100
AcDbEntity
  8
基準ﾚｲﾔｸﾞﾙｰﾌﾟ
  6
Continuous
 62
     7
370
    25
100
AcDbBlockReference
  2
FXTIP_ARROW_E
 10
420.7121801309046
 20
234.9232922732363
 30
0.0
 41
4.0
 42
4.0
 50
90.0
  0
LINE
  5
1CD
330
1F
100
AcDbEntity
  8
基準ﾚｲﾔｸﾞﾙｰﾌﾟ
  6
Continuous
 62
     7
370
    25
100
AcDbLine
 10
400.364008733924
 20
119.9232922732363
 30
0.0
 11
421.7121801309046
 21
119.9232922732363
 31
0.0
  0
TEXT
  5
1CE
330
1F
100
AcDbEntity
  8
基準ﾚｲﾔｸﾞﾙｰﾌﾟ
  6
Continuous
 62
     7
370
    25
100
AcDbText
 10
336.9858703613281
 20
37.1702766413221
 30
0.0
 40
4.0
  1
４０
 41
0.9545454545454547
  7
FX_VECTOR
 72
     5
 11
342.9858703613281
 21
37.1702766423693
 31
0.0
100
AcDbText
  0
LINE
  5
1CF
330
1F
100
AcDbEntity
  8
基準ﾚｲﾔｸﾞﾙｰﾌﾟ
  6
Continuous
 62
     7
370
    25
100
AcDbLine
 10
319.9858720094809
 20
36.17027729178339
 30
0.0
 11
359.9858720094809
 21
36.17027729178339
 31
0.0
  0
INSERT
  5
1D0
330
1F
100
AcDbEntity
  8
基準ﾚｲﾔｸﾞﾙｰﾌﾟ
  6
Continuous
 62
     7
370
    25
100
AcDbBlockReference
  2
FXTIP_ARROW_S
 10
319.9858720094809
 20
36.17027729178339
 30
0.0
 41
4.0
 42
4.0
 50
180.0
  0
INSERT
  5
1D1
330
1F
100
AcDbEntity
  8
基準ﾚｲﾔｸﾞﾙｰﾌﾟ
  6
Continuous
 62
     7
370
    25
100
AcDbBlockReference
  2
FXTIP_ARROW_E
 10
359.9858720094809
 20
36.17027729178339
 30
0.0
 41
4.0
 42
4.0
 50
360.0
  0
LINE
  5
1D2
330
1F
100
AcDbEntity
  8
基準ﾚｲﾔｸﾞﾙｰﾌﾟ
  6
Continuous
 62
     7
370
    25
100
AcDbLine
 10
319.9858720094809
 20
40.84672803965
 30
0.0
 11
319.9858720094809
 21
35.17027729178339
 31
0.0
  0
LINE
  5
1D3
330
1F
100
AcDbEntity
  8
基準ﾚｲﾔｸﾞﾙｰﾌﾟ
  6
Continuous
 62
     7
370
    25
100
AcDbLine
 10
359.9858720094809
 20
144.3856156270061
 30
0.0
 11
359.9858720094809
 21
35.17027729178339
 31
0.0
  0
LINE
  5
1D4
330
1F
100
AcDbEntity
  8
図面枠ﾚｲﾔ
  6
Continuous
 62
     7
370
    50
100
AcDbLine
 10
10.0
 20
10.0
 30
0.0
 11
584.0
 21
10.0
 31
0.0
  0
LINE
  5
1D5
330
1F
100
AcDbEntity
  8
図面枠ﾚｲﾔ
  6
Continuous
 62
     7
370
    50
100
AcDbLine
 10
10.0
 20
10.0
 30
0.0
 11
10.0
 21
410.0
 31
0.0
  0
LINE
  5
1D6
330
1F
100
AcDbEntity
  8
図面枠ﾚｲﾔ
  6
Continuous
 62
     7
370
    50
100
AcDbLine
 10
10.0
 20
410.0
 30
0.0
 11
584.0
 21
410.0
 31
0.0
  0
LINE
  5
1D7
330
1F
100
AcDbEntity
  8
図面枠ﾚｲﾔ
  6
Continuous
 62
     7
370
    50
100
AcDbLine
 10
584.0
 20
410.0
 30
0.0
 11
584.0
 21
10.0
 31
0.0
  0
LINE
  5
1D8
330
1F
100
AcDbEntity
  8
図面枠ﾚｲﾔ
  6
Continuous
 62
     7
370
    25
100
AcDbLine
 10
327.0
 20
9.999999999999998
 30
0.0
 11
327.0
 21
20.0
 31
0.0
  0
TEXT
  5
1D9
330
1F
100
AcDbEntity
  8
図面枠ﾚｲﾔ
  6
Continuous
 62
     7
370
    25
100
AcDbText
 10
311.7388305664062
 20
11.59687900543213
 30
0.0
 40
6.648748874664307
  1
品名
 41
1.083413404130886
  7
FX_VECTOR
 72
     5
 11
323.05837059021
 21
11.59687900543213
 31
0.0
100
AcDbText
  0
LINE
  5
1DA
330
1F
100
AcDbEntity
  8
図面枠ﾚｲﾔ
  6
Continuous
 62
     7
370
    50
100
AcDbLine
 10
407.0
 20
20.0
 30
0.0
 11
407.0
 21
10.0
 31
0.0
  0
LINE
  5
1DB
330
1F
100
AcDbEntity
  8
図面枠ﾚｲﾔ
  6
Continuous
 62
     7
370
    50
100
AcDbLine
 10
307.0
 20
20.0
 30
0.0
 11
584.0
 21
20.0
 31
0.0
  0
TEXT
  5
1DC
330
1F
100
AcDbEntity
  8
図面枠ﾚｲﾔ
  6
Continuous
 62
     7
370
    25
100
AcDbText
 10
523.2257690429688
 20
11.46128463745117
 30
0.0
 40
7.170907974243164
  1
ＧＯＬＤ　ＣＡＳＴＥＲ
 41
0.702117011671778
  7
FX_VECTOR
 72
     5
 11
569.9776363372803
 21
11.46128463745117
 31
0.0
100
AcDbText
  0
LINE
  5
1DD
330
1F
100
AcDbEntity
  8
図面枠ﾚｲﾔ
  6
Continuous
 62
     7
370
    25
100
AcDbLine
 10
427.0
 20
9.999999999999998
 30
0.0
 11
427.0
 21
20.0
 31
0.0
  0
TEXT
  5
1DE
330
1F
100
AcDbEntity
  8
図面枠ﾚｲﾔ
  6
Continuous
 62
     7
370
    25
100
AcDbText
 10
411.7388305664062
 20
11.59687900543213
 30
0.0
 40
6.648748874664307
  1
図番
 41
1.083413404130886
  7
FX_VECTOR
 72
     5
 11
423.05837059021
 21
11.59687900543213
 31
0.0
100
AcDbText
  0
LINE
  5
1DF
330
1F
100
AcDbEntity
  8
図面枠ﾚｲﾔ
  6
Continuous
 62
     7
370
    50
100
AcDbLine
 10
507.0
 20
20.0
 30
0.0
 11
507.0
 21
10.0
 31
0.0
  0
LINE
  5
1E0
330
1F
100
AcDbEntity
  8
図面枠ﾚｲﾔ
  6
Continuous
 62
     7
370
    50
100
AcDbLine
 10
307.0
 20
20.0
 30
0.0
 11
307.0
 21
10.0
 31
0.0
  0
LINE
  5
1E1
330
1F
100
AcDbEntity
  8
0
  6
Continuous
 62
     7
370
    25
100
AcDbLine
 10
518.8018997861325
 20
17.91346152
 30
0.0
 11
512.8018997861325
 21
17.91346152
 31
0.0
  0
LINE
  5
1E2
330
1F
100
AcDbEntity
  8
0
  6
Continuous
 62
     7
370
    25
100
AcDbLine
 10
512.8018997861325
 20
17.91346152
 30
0.0
 11
512.8018997861325
 21
11.91346152
 31
0.0
  0
LINE
  5
1E3
330
1F
100
AcDbEntity
  8
0
  6
Continuous
 62
     7
370
    25
100
AcDbLine
 10
512.8018997861325
 20
11.91346152
 30
0.0
 11
518.8018997861325
 21
11.91346152
 31
0.0
  0
LINE
  5
1E4
330
1F
100
AcDbEntity
  8
0
  6
Continuous
 62
     7
370
    25
100
AcDbLine
 10
518.8018997861325
 20
11.91346152
 30
0.0
 11
518.8018997861325
 21
17.91346152
 31
0.0
  0
LINE
  5
1E5
330
1F
100
AcDbEntity
  8
0
  6
Continuous
 62
     7
370
    25
100
AcDbLine
 10
518.2249766861325
 20
15.3461538
 30
0.0
 11
515.8018997861325
 21
17.76923076000002
 31
0.0
  0
LINE
  5
1E6
330
1F
100
AcDbEntity
  8
0
  6
Continuous
 62
     7
370
    25
100
AcDbLine
 10
515.8018997861325
 20
17.76923076000002
 30
0.0
 11
512.9461305461325
 21
14.91346152
 31
0.0
  0
LINE
  5
1E7
330
1F
100
AcDbEntity
  8
0
  6
Continuous
 62
     7
370
    25
100
AcDbLine
 10
512.9461305461325
 20
14.91346152
 30
0.0
 11
515.8018997861325
 21
12.05769228000001
 31
0.0
  0
LINE
  5
1E8
330
1F
100
AcDbEntity
  8
0
  6
Continuous
 62
     7
370
    25
100
AcDbLine
 10
515.8018997861325
 20
12.05769228000001
 30
0.0
 11
517.3595920661326
 21
13.61538462
 31
0.0
  0
LINE
  5
1E9
330
1F
100
AcDbEntity
  8
0
  6
Continuous
 62
     7
370
    25
100
AcDbLine
 10
517.3595920661326
 20
13.61538462
 30
0.0
 11
517.3595920661326
 21
12.98076924
 31
0.0
  0
LINE
  5
1EA
330
1F
100
AcDbEntity
  8
0
  6
Continuous
 62
     7
370
    25
100
AcDbLine
 10
517.3595920661326
 20
12.98076924
 30
0.0
 11
518.2249766861325
 21
12.98076924
 31
0.0
  0
LINE
  5
1EB
330
1F
100
AcDbEntity
  8
0
  6
Continuous
 62
     7
370
    25
100
AcDbLine
 10
518.2249766861325
 20
12.98076924
 30
0.0
 11
518.2249766861325
 21
15.00000000000001
 31
0.0
  0
LINE
  5
1EC
330
1F
100
AcDbEntity
  8
0
  6
Continuous
 62
     7
370
    25
100
AcDbLine
 10
518.2249766861325
 20
15.00000000000001
 30
0.0
 11
515.8018997861325
 21
15.00000000000001
 31
0.0
  0
LINE
  5
1ED
330
1F
100
AcDbEntity
  8
0
  6
Continuous
 62
     7
370
    25
100
AcDbLine
 10
515.8018997861325
 20
15.00000000000001
 30
0.0
 11
515.8018997861325
 21
14.13461538000001
 31
0.0
  0
LINE
  5
1EE
330
1F
100
AcDbEntity
  8
0
  6
Continuous
 62
     7
370
    25
100
AcDbLine
 10
515.8018997861325
 20
14.13461538000001
 30
0.0
 11
516.2461305461325
 21
14.13461538000001
 31
0.0
  0
LINE
  5
1EF
330
1F
100
AcDbEntity
  8
0
  6
Continuous
 62
     7
370
    25
100
AcDbLine
 10
516.2461305461325
 20
14.13461538000001
 30
0.0
 11
515.8018997861325
 21
13.69038462
 31
0.0
  0
LINE
  5
1F0
330
1F
100
AcDbEntity
  8
0
  6
Continuous
 62
     7
370
    25
100
AcDbLine
 10
515.8018997861325
 20
13.69038462
 30
0.0
 11
514.5788228861325
 21
14.91346152
 31
0.0
  0
LINE
  5
1F1
330
1F
100
AcDbEntity
  8
0
  6
Continuous
 62
     7
370
    25
100
AcDbLine
 10
514.5788228861325
 20
14.91346152
 30
0.0
 11
515.8018997861325
 21
16.13653842000003
 31
0.0
  0
LINE
  5
1F2
330
1F
100
AcDbEntity
  8
0
  6
Continuous
 62
     7
370
    25
100
AcDbLine
 10
515.8018997861325
 20
16.13653842000003
 30
0.0
 11
516.5922844061325
 21
15.3461538
 31
0.0
  0
LINE
  5
1F3
330
1F
100
AcDbEntity
  8
0
  6
Continuous
 62
     7
370
    25
100
AcDbLine
 10
516.5922844061325
 20
15.3461538
 30
0.0
 11
518.2249766861325
 21
15.3461538
 31
0.0
  0
LINE
  5
1F4
330
1F
100
AcDbEntity
  8
GR1
  6
Continuous
 62
     7
370
    25
100
AcDbLine
 10
513.7223799643118
 20
11.91346152
 30
0.0
 11
514.8342552552222
 21
13.02533681091035
 31
0.0
  0
LINE
  5
1F5
330
1F
100
AcDbEntity
  8
GR1
  6
Continuous
 62
     7
370
    25
100
AcDbLine
 10
515.6506014252221
 20
13.84168298091037
 30
0.0
 11
515.9435338243118
 21
14.13461538
 31
0.0
  0
LINE
  5
1F6
330
1F
100
AcDbEntity
  8
GR1
  6
Continuous
 62
     7
370
    25
100
AcDbLine
 10
516.8089184443118
 20
15.0
 30
0.0
 11
517.1550722443118
 21
15.34615379999997
 31
0.0
  0
LINE
  5
1F7
330
1F
100
AcDbEntity
  8
GR1
  6
Continuous
 62
     7
370
    25
100
AcDbLine
 10
517.6900244718454
 20
15.88110602753357
 30
0.0
 11
518.8018997861325
 21
16.9929813418207
 31
0.0
  0
LINE
  5
1F8
330
1F
100
AcDbEntity
  8
GR1
  6
Continuous
 62
     7
370
    25
100
AcDbLine
 10
513.651669286193
 20
11.91346151999999
 30
0.0
 11
514.7988999161628
 21
13.06069214996967
 31
0.0
  0
LINE
  5
1F9
330
1F
100
AcDbEntity
  8
GR1
  6
Continuous
 62
     7
370
    25
100
AcDbLine
 10
515.6152460861629
 20
13.87703831996969
 30
0.0
 11
515.8728231461931
 21
14.13461538
 31
0.0
  0
LINE
  5
1FA
330
1F
100
AcDbEntity
  8
GR1
  6
Continuous
 62
     7
370
    25
100
AcDbLine
 10
516.7382077661931
 20
15.0
 30
0.0
 11
517.0843615661931
 21
15.34615379999997
 31
0.0
  0
LINE
  5
1FB
330
1F
100
AcDbEntity
  8
GR1
  6
Continuous
 62
     7
370
    25
100
AcDbLine
 10
517.6546691332237
 20
15.91646136703062
 30
0.0
 11
518.8018997861325
 21
17.06369201993936
 31
0.0
  0
LINE
  5
1FC
330
1F
100
AcDbEntity
  8
GR1
  6
Continuous
 62
     7
370
    25
100
AcDbLine
 10
513.5809586080745
 20
11.91346152
 30
0.0
 11
514.7635445771034
 21
13.09604748902901
 31
0.0
  0
LINE
  5
1FD
330
1F
100
AcDbEntity
  8
GR1
  6
Continuous
 62
     7
370
    25
100
AcDbLine
 10
515.5798907471035
 20
13.91239365902902
 30
0.0
 11
515.8021124680745
 21
14.13461538
 31
0.0
  0
LINE
  5
1FE
330
1F
100
AcDbEntity
  8
GR1
  6
Continuous
 62
     7
370
    25
100
AcDbLine
 10
516.6674970880745
 20
15.0
 30
0.0
 11
517.0136508880745
 21
15.3461538
 31
0.0
  0
LINE
  5
1FF
330
1F
100
AcDbEntity
  8
GR1
  6
Continuous
 62
     7
370
    25
100
AcDbLine
 10
517.6193137946021
 20
15.95181670652768
 30
0.0
 11
518.8018997861325
 21
17.13440269805803
 31
0.0
  0
LINE
  5
200
330
1F
100
AcDbEntity
  8
GR1
  6
Continuous
 62
     7
370
    25
100
AcDbLine
 10
513.5102479299558
 20
11.91346151999999
 30
0.0
 11
514.7281892380441
 21
13.13140282808833
 31
0.0
  0
LINE
  5
201
330
1F
100
AcDbEntity
  8
GR1
  6
Continuous
 62
     7
370
    25
100
AcDbLine
 10
515.5445354080441
 20
13.94774899808835
 30
0.0
 11
515.8018997861325
 21
14.20511337617669
 31
0.0
  0
LINE
  5
202
330
1F
100
AcDbEntity
  8
GR1
  6
Continuous
 62
     7
370
    25
100
AcDbLine
 10
516.5967864099558
 20
15.00000000000002
 30
0.0
 11
516.9429402099559
 21
15.34615379999999
 31
0.0
  0
LINE
  5
203
330
1F
100
AcDbEntity
  8
GR1
  6
Continuous
 62
     7
370
    25
100
AcDbLine
 10
517.5839584559806
 20
15.98717204602474
 30
0.0
 11
518.8018997861325
 21
17.20511337617667
 31
0.0
  0
LINE
  5
204
330
1F
100
AcDbEntity
  8
GR1
  6
Continuous
 62
     7
370
    25
100
AcDbLine
 10
513.4395372518372
 20
11.91346152
 30
0.0
 11
514.6928338989849
 21
13.16675816714765
 31
0.0
  0
LINE
  5
205
330
1F
100
AcDbEntity
  8
GR1
  6
Continuous
 62
     7
370
    25
100
AcDbLine
 10
515.5091800689848
 20
13.98310433714767
 30
0.0
 11
515.8018997861325
 21
14.27582405429533
 31
0.0
  0
LINE
  5
206
330
1F
100
AcDbEntity
  8
GR1
  6
Continuous
 62
     7
370
    25
100
AcDbLine
 10
516.5260757318372
 20
15.0
 30
0.0
 11
516.8722295318371
 21
15.34615379999997
 31
0.0
  0
LINE
  5
207
330
1F
100
AcDbEntity
  8
GR1
  6
Continuous
 62
     7
370
    25
100
AcDbLine
 10
517.548603117359
 20
16.0225273855218
 30
0.0
 11
518.8018997861325
 21
17.2758240542953
 31
0.0
  0
LINE
  5
208
330
1F
100
AcDbEntity
  8
GR1
  6
Continuous
 62
     7
370
    25
100
AcDbLine
 10
513.3688265737185
 20
11.91346151999999
 30
0.0
 11
514.6574785599255
 21
13.20211350620697
 31
0.0
  0
LINE
  5
209
330
1F
100
AcDbEntity
  8
GR1
  6
Continuous
 62
     7
370
    25
100
AcDbLine
 10
515.4738247299256
 20
14.01845967620699
 30
0.0
 11
515.8018997861325
 21
14.34653473241399
 31
0.0
  0
LINE
  5
20A
330
1F
100
AcDbEntity
  8
GR1
  6
Continuous
 62
     7
370
    25
100
AcDbLine
 10
516.4553650537185
 20
15.0
 30
0.0
 11
516.8015188537186
 21
15.34615379999997
 31
0.0
  0
LINE
  5
20B
330
1F
100
AcDbEntity
  8
GR1
  6
Continuous
 62
     7
370
    25
100
AcDbLine
 10
517.5132477787374
 20
16.05788272501886
 30
0.0
 11
518.8018997861325
 21
17.34653473241396
 31
0.0
  0
LINE
  5
20C
330
1F
100
AcDbEntity
  8
GR1
  6
Continuous
 62
     7
370
    25
100
AcDbLine
 10
513.2981158955998
 20
11.91346152
 30
0.0
 11
514.6221232208661
 21
13.23746884526631
 31
0.0
  0
LINE
  5
20D
330
1F
100
AcDbEntity
  8
GR1
  6
Continuous
 62
     7
370
    25
100
AcDbLine
 10
515.4384693908662
 20
14.05381501526633
 30
0.0
 11
515.8018997861325
 21
14.41724541053265
 31
0.0
  0
LINE
  5
20E
330
1F
100
AcDbEntity
  8
GR1
  6
Continuous
 62
     7
370
    25
100
AcDbLine
 10
516.3846543755999
 20
15.0
 30
0.0
 11
516.7308081755998
 21
15.3461538
 31
0.0
  0
LINE
  5
20F
330
1F
100
AcDbEntity
  8
GR1
  6
Continuous
 62
     7
370
    25
100
AcDbLine
 10
517.4778924401157
 20
16.09323806451593
 30
0.0
 11
518.8018997861325
 21
17.41724541053263
 31
0.0
  0
LINE
  5
210
330
1F
100
AcDbEntity
  8
GR1
  6
Continuous
 62
     7
370
    25
100
AcDbLine
 10
513.2274052174812
 20
11.91346151999999
 30
0.0
 11
514.5867678818068
 21
13.27282418432563
 31
0.0
  0
LINE
  5
211
330
1F
100
AcDbEntity
  8
GR1
  6
Continuous
 62
     7
370
    25
100
AcDbLine
 10
515.4031140518068
 20
14.08917035432565
 30
0.0
 11
515.8018997861325
 21
14.48795608865129
 31
0.0
  0
LINE
  5
212
330
1F
100
AcDbEntity
  8
GR1
  6
Continuous
 62
     7
370
    25
100
AcDbLine
 10
516.3139436974812
 20
15.00000000000002
 30
0.0
 11
516.6600974974813
 21
15.34615379999999
 31
0.0
  0
LINE
  5
213
330
1F
100
AcDbEntity
  8
GR1
  6
Continuous
 62
     7
370
    25
100
AcDbLine
 10
517.4425371014943
 20
16.12859340401299
 30
0.0
 11
518.8018997861325
 21
17.48795608865128
 31
0.0
  0
LINE
  5
214
330
1F
100
AcDbEntity
  8
GR1
  6
Continuous
 62
     7
370
    25
100
AcDbLine
 10
513.1566945393625
 20
11.91346152
 30
0.0
 11
514.5514125427476
 21
13.30817952338495
 31
0.0
  0
LINE
  5
215
330
1F
100
AcDbEntity
  8
GR1
  6
Continuous
 62
     7
370
    25
100
AcDbLine
 10
515.3677587127476
 20
14.12452569338497
 30
0.0
 11
515.8018997861325
 21
14.55866676676994
 31
0.0
  0
LINE
  5
216
330
1F
100
AcDbEntity
  8
GR1
  6
Continuous
 62
     7
370
    25
100
AcDbLine
 10
516.2432330193626
 20
15.0
 30
0.0
 11
516.5908356127475
 21
15.34760259338495
 31
0.0
  0
LINE
  5
217
330
1F
100
AcDbEntity
  8
GR1
  6
Continuous
 62
     7
370
    25
100
AcDbLine
 10
517.4071817628726
 20
16.16394874351002
 30
0.0
 11
518.8018997861325
 21
17.55866676676991
 31
0.0
  0
LINE
  5
218
330
1F
100
AcDbEntity
  8
GR1
  6
Continuous
 62
     7
370
    25
100
AcDbLine
 10
513.0859838612439
 20
11.91346151999999
 30
0.0
 11
514.5160572036882
 21
13.34353486244428
 31
0.0
  0
LINE
  5
219
330
1F
100
AcDbEntity
  8
GR1
  6
Continuous
 62
     7
370
    25
100
AcDbLine
 10
515.3324033736883
 20
14.15988103244429
 30
0.0
 11
515.8018997861325
 21
14.62937744488858
 31
0.0
  0
LINE
  5
21A
330
1F
100
AcDbEntity
  8
GR1
  6
Continuous
 62
     7
370
    25
100
AcDbLine
 10
516.172522341244
 20
15.0
 30
0.0
 11
516.5554802736882
 21
15.38295793244427
 31
0.0
  0
LINE
  5
21B
330
1F
100
AcDbEntity
  8
GR1
  6
Continuous
 62
     7
370
    25
100
AcDbLine
 10
517.371826424251
 20
16.19930408300708
 30
0.0
 11
518.8018997861325
 21
17.62937744488856
 31
0.0
  0
LINE
  5
21C
330
1F
100
AcDbEntity
  8
GR1
  6
Continuous
 62
     7
370
    25
100
AcDbLine
 10
513.0152731831253
 20
11.91346152
 30
0.0
 11
514.4807018646288
 21
13.37889020150361
 31
0.0
  0
LINE
  5
21D
330
1F
100
AcDbEntity
  8
GR1
  6
Continuous
 62
     7
370
    25
100
AcDbLine
 10
515.2970480346289
 20
14.19523637150363
 30
0.0
 11
515.8018997861325
 21
14.70008812300725
 31
0.0
  0
LINE
  5
21E
330
1F
100
AcDbEntity
  8
GR1
  6
Continuous
 62
     7
370
    25
100
AcDbLine
 10
516.1018116631253
 20
15.0
 30
0.0
 11
516.5201249346289
 21
15.41831327150361
 31
0.0
  0
LINE
  5
21F
330
1F
100
AcDbEntity
  8
GR1
  6
Continuous
 62
     7
370
    25
100
AcDbLine
 10
517.3364710856295
 20
16.23465942250415
 30
0.0
 11
518.8018997861325
 21
17.70008812300724
 31
0.0
  0
LINE
  5
220
330
1F
100
AcDbEntity
  8
GR1
  6
Continuous
 62
     7
370
    25
100
AcDbLine
 10
512.9445625050066
 20
11.91346151999999
 30
0.0
 11
514.4453465255696
 21
13.41424554056293
 31
0.0
  0
LINE
  5
221
330
1F
100
AcDbEntity
  8
GR1
  6
Continuous
 62
     7
370
    25
100
AcDbLine
 10
515.2616926955695
 20
14.23059171056295
 30
0.0
 11
515.8018997861325
 21
14.7707988011259
 31
0.0
  0
LINE
  5
222
330
1F
100
AcDbEntity
  8
GR1
  6
Continuous
 62
     7
370
    25
100
AcDbLine
 10
516.0311009850066
 20
15.00000000000002
 30
0.0
 11
516.4847695955696
 21
15.45366861056293
 31
0.0
  0
LINE
  5
223
330
1F
100
AcDbEntity
  8
GR1
  6
Continuous
 62
     7
370
    25
100
AcDbLine
 10
517.3011157470078
 20
16.27001476200121
 30
0.0
 11
518.8018997861325
 21
17.77079880112588
 31
0.0
  0
LINE
  5
224
330
1F
100
AcDbEntity
  8
GR1
  6
Continuous
 62
     7
370
    25
100
AcDbLine
 10
512.873851826888
 20
11.91346152
 30
0.0
 11
514.4099911865103
 21
13.44960087962226
 31
0.0
  0
LINE
  5
225
330
1F
100
AcDbEntity
  8
GR1
  6
Continuous
 62
     7
370
    25
100
AcDbLine
 10
515.2263373565103
 20
14.26594704962227
 30
0.0
 11
515.8018997861325
 21
14.84150947924453
 31
0.0
  0
LINE
  5
226
330
1F
100
AcDbEntity
  8
GR1
  6
Continuous
 62
     7
370
    25
100
AcDbLine
 10
515.960390306888
 20
15.0
 30
0.0
 11
516.4494142565102
 21
15.48902394962225
 31
0.0
  0
LINE
  5
227
330
1F
100
AcDbEntity
  8
GR1
  6
Continuous
 62
     7
370
    25
100
AcDbLine
 10
517.2657604083863
 20
16.30537010149827
 30
0.0
 11
518.8018997861325
 21
17.84150947924451
 31
0.0
  0
LINE
  5
228
330
1F
100
AcDbEntity
  8
GR1
  6
Continuous
 62
     7
370
    25
100
AcDbLine
 10
512.8031411487693
 20
11.91346151999999
 30
0.0
 11
514.3746358474509
 21
13.48495621868158
 31
0.0
  0
LINE
  5
229
330
1F
100
AcDbEntity
  8
GR1
  6
Continuous
 62
     7
370
    25
100
AcDbLine
 10
515.190982017451
 20
14.3013023886816
 30
0.0
 11
515.8018997861325
 21
14.91222015736318
 31
0.0
  0
LINE
  5
22A
330
1F
100
AcDbEntity
  8
GR1
  6
Continuous
 62
     7
370
    25
100
AcDbLine
 10
515.8896796287693
 20
15.0
 30
0.0
 11
516.4140589174509
 21
15.52437928868158
 31
0.0
  0
LINE
  5
22B
330
1F
100
AcDbEntity
  8
GR1
  6
Continuous
 62
     7
370
    25
100
AcDbLine
 10
517.2304050697646
 20
16.34072544099533
 30
0.0
 11
518.8018997861325
 21
17.91222015736317
 31
0.0
  0
LINE
  5
22C
330
1F
100
AcDbEntity
  8
GR1
  6
Continuous
 62
     7
370
    25
100
AcDbLine
 10
512.8018997861325
 20
11.98293083548183
 30
0.0
 11
514.3392805083915
 21
13.5203115577409
 31
0.0
  0
LINE
  5
22D
330
1F
100
AcDbEntity
  8
GR1
  6
Continuous
 62
     7
370
    25
100
AcDbLine
 10
515.1556266783916
 20
14.3366577277409
 30
0.0
 11
515.8018997861325
 21
14.98293083548184
 31
0.0
  0
LINE
  5
22E
330
1F
100
AcDbEntity
  8
GR1
  6
Continuous
 62
     7
370
    25
100
AcDbLine
 10
515.8189689506507
 20
14.99999999999999
 30
0.0
 11
516.3787035783917
 21
15.55973462774091
 31
0.0
  0
LINE
  5
22F
330
1F
100
AcDbEntity
  8
GR1
  6
Continuous
 62
     7
370
    25
100
AcDbLine
 10
517.1950497311431
 20
16.37608078049238
 30
0.0
 11
518.7324304706507
 21
17.91346152
 31
0.0
  0
LINE
  5
230
330
1F
100
AcDbEntity
  8
GR1
  6
Continuous
 62
     7
370
    25
100
AcDbLine
 10
512.8018997861325
 20
12.0536415136005
 30
0.0
 11
514.3039251693323
 21
13.55566689680024
 31
0.0
  0
LINE
  5
231
330
1F
100
AcDbEntity
  8
GR1
  6
Continuous
 62
     7
370
    25
100
AcDbLine
 10
515.1202713393322
 20
14.37201306680024
 30
0.0
 11
516.3433482393323
 21
15.59508996680025
 31
0.0
  0
LINE
  5
232
330
1F
100
AcDbEntity
  8
GR1
  6
Continuous
 62
     7
370
    25
100
AcDbLine
 10
517.1596943925215
 20
16.41143611998945
 30
0.0
 11
518.661719792532
 21
17.91346152000002
 31
0.0
  0
LINE
  5
233
330
1F
100
AcDbEntity
  8
GR1
  6
Continuous
 62
     7
370
    25
100
AcDbLine
 10
512.8018997861325
 20
12.12435219171916
 30
0.0
 11
514.2685698302729
 21
13.59102223585956
 31
0.0
  0
LINE
  5
234
330
1F
100
AcDbEntity
  8
GR1
  6
Continuous
 62
     7
370
    25
100
AcDbLine
 10
515.0849160002729
 20
14.40736840585956
 30
0.0
 11
516.3079929002729
 21
15.63044530585957
 31
0.0
  0
LINE
  5
235
330
1F
100
AcDbEntity
  8
GR1
  6
Continuous
 62
     7
370
    25
100
AcDbLine
 10
517.1243390538998
 20
16.44679145948651
 30
0.0
 11
518.5910091144134
 21
17.91346152
 31
0.0
  0
LINE
  5
236
330
1F
100
AcDbEntity
  8
GR1
  6
Continuous
 62
     7
370
    25
100
AcDbLine
 10
512.8018997861325
 20
12.19506286983779
 30
0.0
 11
514.2332144912136
 21
13.62637757491888
 31
0.0
  0
LINE
  5
237
330
1F
100
AcDbEntity
  8
GR1
  6
Continuous
 62
     7
370
    25
100
AcDbLine
 10
515.0495606612136
 20
14.44272374491888
 30
0.0
 11
516.2726375612136
 21
15.66580064491889
 31
0.0
  0
LINE
  5
238
330
1F
100
AcDbEntity
  8
GR1
  6
Continuous
 62
     7
370
    25
100
AcDbLine
 10
517.0889837152783
 20
16.48214679898357
 30
0.0
 11
518.5202984362948
 21
17.91346152000002
 31
0.0
  0
LINE
  5
239
330
1F
100
AcDbEntity
  8
GR1
  6
Continuous
 62
     7
370
    25
100
AcDbLine
 10
512.8018997861325
 20
12.26577354795643
 30
0.0
 11
514.1978591521543
 21
13.6617329139782
 31
0.0
  0
LINE
  5
23A
330
1F
100
AcDbEntity
  8
GR1
  6
Continuous
 62
     7
370
    25
100
AcDbLine
 10
515.0142053221543
 20
14.4780790839782
 30
0.0
 11
516.2372822221544
 21
15.70115598397821
 31
0.0
  0
LINE
  5
23B
330
1F
100
AcDbEntity
  8
GR1
  6
Continuous
 62
     7
370
    25
100
AcDbLine
 10
517.0536283766567
 20
16.51750213848063
 30
0.0
 11
518.4495877581761
 21
17.91346152
 31
0.0
  0
LINE
  5
23C
330
1F
100
AcDbEntity
  8
GR1
  6
Continuous
 62
     7
370
    25
100
AcDbLine
 10
512.8018997861325
 20
12.3364842260751
 30
0.0
 11
514.1625038130949
 21
13.69708825303754
 31
0.0
  0
LINE
  5
23D
330
1F
100
AcDbEntity
  8
GR1
  6
Continuous
 62
     7
370
    25
100
AcDbLine
 10
514.978849983095
 20
14.51343442303754
 30
0.0
 11
516.201926883095
 21
15.73651132303755
 31
0.0
  0
LINE
  5
23E
330
1F
100
AcDbEntity
  8
GR1
  6
Continuous
 62
     7
370
    25
100
AcDbLine
 10
517.0182730380351
 20
16.55285747797767
 30
0.0
 11
518.3788770800575
 21
17.91346152000002
 31
0.0
  0
LINE
  5
23F
330
1F
100
AcDbEntity
  8
GR1
  6
Continuous
 62
     7
370
    25
100
AcDbLine
 10
512.8018997861325
 20
12.40719490419376
 30
0.0
 11
514.1271484740356
 21
13.73244359209686
 31
0.0
  0
LINE
  5
240
330
1F
100
AcDbEntity
  8
GR1
  6
Continuous
 62
     7
370
    25
100
AcDbLine
 10
514.9434946440356
 20
14.54878976209686
 30
0.0
 11
516.1665715440356
 21
15.77186666209687
 31
0.0
  0
LINE
  5
241
330
1F
100
AcDbEntity
  8
GR1
  6
Continuous
 62
     7
370
    25
100
AcDbLine
 10
516.9829176994135
 20
16.58821281747473
 30
0.0
 11
518.3081664019387
 21
17.91346152
 31
0.0
  0
LINE
  5
242
330
1F
100
AcDbEntity
  8
GR1
  6
Continuous
 62
     7
370
    25
100
AcDbLine
 10
512.8018997861325
 20
12.47790558231239
 30
0.0
 11
514.0917931349763
 21
13.76779893115618
 31
0.0
  0
LINE
  5
243
330
1F
100
AcDbEntity
  8
GR1
  6
Continuous
 62
     7
370
    25
100
AcDbLine
 10
514.9081393049763
 20
14.58414510115619
 30
0.0
 11
516.1312162049763
 21
15.80722200115619
 31
0.0
  0
LINE
  5
244
330
1F
100
AcDbEntity
  8
GR1
  6
Continuous
 62
     7
370
    25
100
AcDbLine
 10
516.9475623607918
 20
16.62356815697179
 30
0.0
 11
518.2374557238202
 21
17.91346152000002
 31
0.0
  0
LINE
  5
245
330
1F
100
AcDbEntity
  8
GR1
  6
Continuous
 62
     7
370
    25
100
AcDbLine
 10
512.8018997861325
 20
12.54861626043104
 30
0.0
 11
514.056437795917
 21
13.8031542702155
 31
0.0
  0
LINE
  5
246
330
1F
100
AcDbEntity
  8
GR1
  6
Continuous
 62
     7
370
    25
100
AcDbLine
 10
514.872783965917
 20
14.61950044021551
 30
0.0
 11
516.0958608659171
 21
15.84257734021552
 31
0.0
  0
LINE
  5
247
330
1F
100
AcDbEntity
  8
GR1
  6
Continuous
 62
     7
370
    25
100
AcDbLine
 10
516.9122070221704
 20
16.65892349646885
 30
0.0
 11
518.1667450457014
 21
17.91346152
 31
0.0
  0
LINE
  5
248
330
1F
100
AcDbEntity
  8
GR1
  6
Continuous
 62
     7
370
    25
100
AcDbLine
 10
512.8018997861325
 20
12.61932693854971
 30
0.0
 11
514.0210824568576
 21
13.83850960927484
 31
0.0
  0
LINE
  5
249
330
1F
100
AcDbEntity
  8
GR1
  6
Continuous
 62
     7
370
    25
100
AcDbLine
 10
514.8374286268577
 20
14.65485577927484
 30
0.0
 11
516.0605055268577
 21
15.87793267927485
 31
0.0
  0
LINE
  5
24A
330
1F
100
AcDbEntity
  8
GR1
  6
Continuous
 62
     7
370
    25
100
AcDbLine
 10
516.8768516835487
 20
16.69427883596592
 30
0.0
 11
518.0960343675829
 21
17.91346152000002
 31
0.0
  0
LINE
  5
24B
330
1F
100
AcDbEntity
  8
GR1
  6
Continuous
 62
     7
370
    25
100
AcDbLine
 10
512.8018997861325
 20
12.69003761666835
 30
0.0
 11
513.9857271177983
 21
13.87386494833416
 31
0.0
  0
LINE
  5
24C
330
1F
100
AcDbEntity
  8
GR1
  6
Continuous
 62
     7
370
    25
100
AcDbLine
 10
514.8020732877983
 20
14.69021111833417
 30
0.0
 11
516.0251501877983
 21
15.91328801833417
 31
0.0
  0
LINE
  5
24D
330
1F
100
AcDbEntity
  8
GR1
  6
Continuous
 62
     7
370
    25
100
AcDbLine
 10
516.8414963449271
 20
16.72963417546298
 30
0.0
 11
518.0253236894641
 21
17.91346152
 31
0.0
  0
LINE
  5
24E
330
1F
100
AcDbEntity
  8
GR1
  6
Continuous
 62
     7
370
    25
100
AcDbLine
 10
512.8018997861325
 20
12.760748294787
 30
0.0
 11
513.950371778739
 21
13.90922028739348
 31
0.0
  0
LINE
  5
24F
330
1F
100
AcDbEntity
  8
GR1
  6
Continuous
 62
     7
370
    25
100
AcDbLine
 10
514.766717948739
 20
14.72556645739349
 30
0.0
 11
515.989794848739
 21
15.94864335739353
 31
0.0
  0
LINE
  5
250
330
1F
100
AcDbEntity
  8
GR1
  6
Continuous
 62
     7
370
    25
100
AcDbLine
 10
516.8061410063056
 20
16.76498951496002
 30
0.0
 11
517.9546130113456
 21
17.91346152000002
 31
0.0
  0
LINE
  5
251
330
1F
100
AcDbEntity
  8
GR1
  6
Continuous
 62
     7
370
    25
100
AcDbLine
 10
512.8018997861325
 20
12.83145897290564
 30
0.0
 11
513.9150164396797
 21
13.94457562645281
 31
0.0
  0
LINE
  5
252
330
1F
100
AcDbEntity
  8
GR1
  6
Continuous
 62
     7
370
    25
100
AcDbLine
 10
514.7313626096796
 20
14.76092179645281
 30
0.0
 11
515.9544395096798
 21
15.98399869645285
 31
0.0
  0
LINE
  5
253
330
1F
100
AcDbEntity
  8
GR1
  6
Continuous
 62
     7
370
    25
100
AcDbLine
 10
516.770785667684
 20
16.80034485445708
 30
0.0
 11
517.8839023332268
 21
17.91346152
 31
0.0
  0
LINE
  5
254
330
1F
100
AcDbEntity
  8
GR1
  6
Continuous
 62
     7
370
    25
100
AcDbLine
 10
512.8018997861325
 20
12.9021696510243
 30
0.0
 11
513.8796611006203
 21
13.97993096551214
 31
0.0
  0
LINE
  5
255
330
1F
100
AcDbEntity
  8
GR1
  6
Continuous
 62
     7
370
    25
100
AcDbLine
 10
514.6960072706204
 20
14.79627713551215
 30
0.0
 11
515.9190841706204
 21
16.01935403551218
 31
0.0
  0
LINE
  5
256
330
1F
100
AcDbEntity
  8
GR1
  6
Continuous
 62
     7
370
    25
100
AcDbLine
 10
516.7354303290624
 20
16.83570019395416
 30
0.0
 11
517.8131916551082
 21
17.91346152000002
 31
0.0
  0
LINE
  5
257
330
1F
100
AcDbEntity
  8
GR1
  6
Continuous
 62
     7
370
    25
100
AcDbLine
 10
512.8018997861325
 20
12.97288032914296
 30
0.0
 11
513.844305761561
 21
14.01528630457146
 31
0.0
  0
LINE
  5
258
330
1F
100
AcDbEntity
  8
GR1
  6
Continuous
 62
     7
370
    25
100
AcDbLine
 10
514.660651931561
 20
14.83163247457147
 30
0.0
 11
515.883728831561
 21
16.05470937457151
 31
0.0
  0
LINE
  5
259
330
1F
100
AcDbEntity
  8
GR1
  6
Continuous
 62
     7
370
    25
100
AcDbLine
 10
516.7000749904407
 20
16.87105553345122
 30
0.0
 11
517.7424809769896
 21
17.91346152
 31
0.0
  0
LINE
  5
25A
330
1F
100
AcDbEntity
  8
GR1
  6
Continuous
 62
     7
370
    25
100
AcDbLine
 10
512.8018997861325
 20
13.0435910072616
 30
0.0
 11
513.8089504225018
 21
14.05064164363079
 31
0.0
  0
LINE
  5
25B
330
1F
100
AcDbEntity
  8
GR1
  6
Continuous
 62
     7
370
    25
100
AcDbLine
 10
514.6252965925016
 20
14.86698781363079
 30
0.0
 11
515.8483734925018
 21
16.09006471363083
 31
0.0
  0
LINE
  5
25C
330
1F
100
AcDbEntity
  8
GR1
  6
Continuous
 62
     7
370
    25
100
AcDbLine
 10
516.6647196518192
 20
16.90641087294827
 30
0.0
 11
517.6717702988709
 21
17.91346152000002
 31
0.0
  0
LINE
  5
25D
330
1F
100
AcDbEntity
  8
GR1
  6
Continuous
 62
     7
370
    25
100
AcDbLine
 10
512.8018997861325
 20
13.11430168538024
 30
0.0
 11
513.7735950834424
 21
14.08599698269011
 31
0.0
  0
LINE
  5
25E
330
1F
100
AcDbEntity
  8
GR1
  6
Continuous
 62
     7
370
    25
100
AcDbLine
 10
514.5899412534424
 20
14.90234315269011
 30
0.0
 11
515.8130181534424
 21
16.12542005269015
 31
0.0
  0
LINE
  5
25F
330
1F
100
AcDbEntity
  8
GR1
  6
Continuous
 62
     7
370
    25
100
AcDbLine
 10
516.6293643131976
 20
16.94176621244533
 30
0.0
 11
517.6010596207523
 21
17.91346152
 31
0.0
  0
LINE
  5
260
330
1F
100
AcDbEntity
  8
GR1
  6
Continuous
 62
     7
370
    25
100
AcDbLine
 10
512.8018997861325
 20
13.1850123634989
 30
0.0
 11
513.738239744383
 21
14.12135232174944
 31
0.0
  0
LINE
  5
261
330
1F
100
AcDbEntity
  8
GR1
  6
Continuous
 62
     7
370
    25
100
AcDbLine
 10
516.594008974576
 20
16.97712155194238
 30
0.0
 11
517.5303489426336
 21
17.91346152000002
 31
0.0
  0
LINE
  5
262
330
1F
100
AcDbEntity
  8
GR1
  6
Continuous
 62
     7
370
    25
100
AcDbLine
 10
512.8018997861325
 20
13.25572304161756
 30
0.0
 11
513.7028844053237
 21
14.15670766080877
 31
0.0
  0
LINE
  5
263
330
1F
100
AcDbEntity
  8
GR1
  6
Continuous
 62
     7
370
    25
100
AcDbLine
 10
516.5586536359544
 20
17.01247689143944
 30
0.0
 11
517.459638264515
 21
17.91346152
 31
0.0
  0
LINE
  5
264
330
1F
100
AcDbEntity
  8
GR1
  6
Continuous
 62
     7
370
    25
100
AcDbLine
 10
512.8018997861325
 20
13.3264337197362
 30
0.0
 11
513.6675290662644
 21
14.19206299986809
 31
0.0
  0
LINE
  5
265
330
1F
100
AcDbEntity
  8
GR1
  6
Continuous
 62
     7
370
    25
100
AcDbLine
 10
516.5232982973328
 20
17.0478322309365
 30
0.0
 11
517.3889275863963
 21
17.91346152000002
 31
0.0
  0
LINE
  5
266
330
1F
100
AcDbEntity
  8
GR1
  6
Continuous
 62
     7
370
    25
100
AcDbLine
 10
512.8018997861325
 20
13.39714439785483
 30
0.0
 11
513.6321737272051
 21
14.2274183389274
 31
0.0
  0
LINE
  5
267
330
1F
100
AcDbEntity
  8
GR1
  6
Continuous
 62
     7
370
    25
100
AcDbLine
 10
516.4879429587112
 20
17.08318757043356
 30
0.0
 11
517.3182169082777
 21
17.91346152
 31
0.0
  0
LINE
  5
268
330
1F
100
AcDbEntity
  8
GR1
  6
Continuous
 62
     7
370
    25
100
AcDbLine
 10
512.8018997861325
 20
13.46785507597349
 30
0.0
 11
513.5968183881457
 21
14.26277367798672
 31
0.0
  0
LINE
  5
269
330
1F
100
AcDbEntity
  8
GR1
  6
Continuous
 62
     7
370
    25
100
AcDbLine
 10
516.4525876200896
 20
17.11854290993061
 30
0.0
 11
517.247506230159
 21
17.91346152
 31
0.0
  0
LINE
  5
26A
330
1F
100
AcDbEntity
  8
GR1
  6
Continuous
 62
     7
370
    25
100
AcDbLine
 10
512.8018997861325
 20
13.53856575409216
 30
0.0
 11
513.5614630490863
 21
14.29812901704605
 31
0.0
  0
LINE
  5
26B
330
1F
100
AcDbEntity
  8
GR1
  6
Continuous
 62
     7
370
    25
100
AcDbLine
 10
516.417232281468
 20
17.15389824942769
 30
0.0
 11
517.1767955520404
 21
17.91346152000002
 31
0.0
  0
LINE
  5
26C
330
1F
100
AcDbEntity
  8
GR1
  6
Continuous
 62
     7
370
    25
100
AcDbLine
 10
512.8018997861325
 20
13.60927643221081
 30
0.0
 11
513.5261077100271
 21
14.33348435610538
 31
0.0
  0
LINE
  5
26D
330
1F
100
AcDbEntity
  8
GR1
  6
Continuous
 62
     7
370
    25
100
AcDbLine
 10
516.3818769428465
 20
17.18925358892473
 30
0.0
 11
517.1060848739216
 21
17.91346152000002
 31
0.0
  0
LINE
  5
26E
330
1F
100
AcDbEntity
  8
GR1
  6
Continuous
 62
     7
370
    25
100
AcDbLine
 10
512.8018997861325
 20
13.67998711032944
 30
0.0
 11
513.4907523709678
 21
14.3688396951647
 31
0.0
  0
LINE
  5
26F
330
1F
100
AcDbEntity
  8
GR1
  6
Continuous
 62
     7
370
    25
100
AcDbLine
 10
516.3465216042248
 20
17.22460892842179
 30
0.0
 11
517.0353741958031
 21
17.91346152
 31
0.0
  0
LINE
  5
270
330
1F
100
AcDbEntity
  8
GR1
  6
Continuous
 62
     7
370
    25
100
AcDbLine
 10
512.8018997861325
 20
13.7506977884481
 30
0.0
 11
513.4553970319084
 21
14.40419503422402
 31
0.0
  0
LINE
  5
271
330
1F
100
AcDbEntity
  8
GR1
  6
Continuous
 62
     7
370
    25
100
AcDbLine
 10
516.3111662656033
 20
17.25996426791885
 30
0.0
 11
516.9646635176844
 21
17.91346152000002
 31
0.0
  0
LINE
  5
272
330
1F
100
AcDbEntity
  8
GR1
  6
Continuous
 62
     7
370
    25
100
AcDbLine
 10
512.8018997861325
 20
13.82140846656677
 30
0.0
 11
513.420041692849
 21
14.43955037328336
 31
0.0
  0
LINE
  5
273
330
1F
100
AcDbEntity
  8
GR1
  6
Continuous
 62
     7
370
    25
100
AcDbLine
 10
516.2758109269816
 20
17.29531960741592
 30
0.0
 11
516.8939528395658
 21
17.91346152000002
 31
0.0
  0
LINE
  5
274
330
1F
100
AcDbEntity
  8
GR1
  6
Continuous
 62
     7
370
    25
100
AcDbLine
 10
512.8018997861325
 20
13.89211914468541
 30
0.0
 11
513.3846863537898
 21
14.47490571234268
 31
0.0
  0
LINE
  5
275
330
1F
100
AcDbEntity
  8
GR1
  6
Continuous
 62
     7
370
    25
100
AcDbLine
 10
516.2404555883601
 20
17.33067494691298
 30
0.0
 11
516.8232421614471
 21
17.91346152000002
 31
0.0
  0
LINE
  5
276
330
1F
100
AcDbEntity
  8
GR1
  6
Continuous
 62
     7
370
    25
100
AcDbLine
 10
512.8018997861325
 20
13.96282982280404
 30
0.0
 11
513.3493310147305
 21
14.510261051402
 31
0.0
  0
LINE
  5
277
330
1F
100
AcDbEntity
  8
GR1
  6
Continuous
 62
     7
370
    25
100
AcDbLine
 10
516.2051002497385
 20
17.36603028641001
 30
0.0
 11
516.7525314833284
 21
17.91346152
 31
0.0
  0
LINE
  5
278
330
1F
100
AcDbEntity
  8
GR1
  6
Continuous
 62
     7
370
    25
100
AcDbLine
 10
512.8018997861325
 20
14.0335405009227
 30
0.0
 11
513.3139756756711
 21
14.54561639046132
 31
0.0
  0
LINE
  5
279
330
1F
100
AcDbEntity
  8
GR1
  6
Continuous
 62
     7
370
    25
100
AcDbLine
 10
516.1697449111168
 20
17.40138562590707
 30
0.0
 11
516.6818208052098
 21
17.91346152000002
 31
0.0
  0
LINE
  5
27A
330
1F
100
AcDbEntity
  8
GR1
  6
Continuous
 62
     7
370
    25
100
AcDbLine
 10
512.8018997861325
 20
14.10425117904137
 30
0.0
 11
513.2786203366118
 21
14.58097172952066
 31
0.0
  0
LINE
  5
27B
330
1F
100
AcDbEntity
  8
GR1
  6
Continuous
 62
     7
370
    25
100
AcDbLine
 10
516.1343895724953
 20
17.43674096540414
 30
0.0
 11
516.6111101270911
 21
17.91346152000002
 31
0.0
  0
LINE
  5
27C
330
1F
100
AcDbEntity
  8
GR1
  6
Continuous
 62
     7
370
    25
100
AcDbLine
 10
512.8018997861325
 20
14.17496185716002
 30
0.0
 11
513.2432649975525
 21
14.61632706857998
 31
0.0
  0
LINE
  5
27D
330
1F
100
AcDbEntity
  8
GR1
  6
Continuous
 62
     7
370
    25
100
AcDbLine
 10
516.0990342338737
 20
17.4720963049012
 30
0.0
 11
516.5403994489725
 21
17.91346152000002
 31
0.0
  0
LINE
  5
27E
330
1F
100
AcDbEntity
  8
GR1
  6
Continuous
 62
     7
370
    25
100
AcDbLine
 10
512.8018997861325
 20
14.24567253527865
 30
0.0
 11
513.2079096584931
 21
14.6516824076393
 31
0.0
  0
LINE
  5
27F
330
1F
100
AcDbEntity
  8
GR1
  6
Continuous
 62
     7
370
    25
100
AcDbLine
 10
516.0636788952521
 20
17.50745164439826
 30
0.0
 11
516.4696887708538
 21
17.91346152
 31
0.0
  0
LINE
  5
280
330
1F
100
AcDbEntity
  8
GR1
  6
Continuous
 62
     7
370
    25
100
AcDbLine
 10
512.8018997861325
 20
14.31638321339731
 30
0.0
 11
513.1725543194339
 21
14.68703774669862
 31
0.0
  0
LINE
  5
281
330
1F
100
AcDbEntity
  8
GR1
  6
Continuous
 62
     7
370
    25
100
AcDbLine
 10
516.0283235566305
 20
17.54280698389532
 30
0.0
 11
516.3989780927352
 21
17.91346152000002
 31
0.0
  0
LINE
  5
282
330
1F
100
AcDbEntity
  8
GR1
  6
Continuous
 62
     7
370
    25
100
AcDbLine
 10
512.8018997861325
 20
14.38709389151598
 30
0.0
 11
513.1371989803745
 21
14.72239308575796
 31
0.0
  0
LINE
  5
283
330
1F
100
AcDbEntity
  8
GR1
  6
Continuous
 62
     7
370
    25
100
AcDbLine
 10
515.9929682180089
 20
17.57816232339238
 30
0.0
 11
516.3282674146166
 21
17.91346152000002
 31
0.0
  0
LINE
  5
284
330
1F
100
AcDbEntity
  8
GR1
  6
Continuous
 62
     7
370
    25
100
AcDbLine
 10
512.8018997861325
 20
14.45780456963462
 30
0.0
 11
513.1018436413151
 21
14.75774842481728
 31
0.0
  0
LINE
  5
285
330
1F
100
AcDbEntity
  8
GR1
  6
Continuous
 62
     7
370
    25
100
AcDbLine
 10
515.9576128793874
 20
17.61351766288944
 30
0.0
 11
516.2575567364979
 21
17.91346152000002
 31
0.0
  0
LINE
  5
286
330
1F
100
AcDbEntity
  8
GR1
  6
Continuous
 62
     7
370
    25
100
AcDbLine
 10
512.8018997861325
 20
14.52851524775325
 30
0.0
 11
513.0664883022558
 21
14.7931037638766
 31
0.0
  0
LINE
  5
287
330
1F
100
AcDbEntity
  8
GR1
  6
Continuous
 62
     7
370
    25
100
AcDbLine
 10
515.9222575407657
 20
17.6488730023865
 30
0.0
 11
516.1868460583793
 21
17.91346152
 31
0.0
  0
LINE
  5
288
330
1F
100
AcDbEntity
  8
GR1
  6
Continuous
 62
     7
370
    25
100
AcDbLine
 10
512.8018997861325
 20
14.59922592587191
 30
0.0
 11
513.0311329631966
 21
14.82845910293593
 31
0.0
  0
LINE
  5
289
330
1F
100
AcDbEntity
  8
GR1
  6
Continuous
 62
     7
370
    25
100
AcDbLine
 10
515.8869022021441
 20
17.68422834188356
 30
0.0
 11
516.1161353802606
 21
17.91346152000002
 31
0.0
  0
LINE
  5
28A
330
1F
100
AcDbEntity
  8
GR1
  6
Continuous
 62
     7
370
    25
100
AcDbLine
 10
512.8018997861325
 20
14.66993660399058
 30
0.0
 11
512.9957776241372
 21
14.86381444199526
 31
0.0
  0
LINE
  5
28B
330
1F
100
AcDbEntity
  8
GR1
  6
Continuous
 62
     7
370
    25
100
AcDbLine
 10
515.8515468635226
 20
17.71958368138063
 30
0.0
 11
516.045424702142
 21
17.91346152000002
 31
0.0
  0
LINE
  5
28C
330
1F
100
AcDbEntity
  8
GR1
  6
Continuous
 62
     7
370
    25
100
AcDbLine
 10
512.8018997861325
 20
14.74064728210923
 30
0.0
 11
512.9604222850778
 21
14.89916978105459
 31
0.0
  0
LINE
  5
28D
330
1F
100
AcDbEntity
  8
GR1
  6
Continuous
 62
     7
370
    25
100
AcDbLine
 10
515.816191524901
 20
17.75493902087769
 30
0.0
 11
515.9747140240233
 21
17.91346152000002
 31
0.0
  0
LINE
  5
28E
330
1F
100
AcDbEntity
  8
GR1
  6
Continuous
 62
     7
370
    25
100
AcDbLine
 10
512.8018997861325
 20
14.81135796022786
 30
0.0
 11
515.9040033459046
 21
17.91346152
 31
0.0
  0
LINE
  5
28F
330
1F
100
AcDbEntity
  8
GR1
  6
Continuous
 62
     7
370
    25
100
AcDbLine
 10
512.8018997861325
 20
14.88206863834651
 30
0.0
 11
515.833292667786
 21
17.91346151999999
 31
0.0
  0
LINE
  5
290
330
1F
100
AcDbEntity
  8
GR1
  6
Continuous
 62
     7
370
    25
100
AcDbLine
 10
512.8018997861325
 20
14.95277931646517
 30
0.0
 11
515.7625819896673
 21
17.91346152
 31
0.0
  0
LINE
  5
291
330
1F
100
AcDbEntity
  8
GR1
  6
Continuous
 62
     7
370
    25
100
AcDbLine
 10
512.8018997861325
 20
15.02348999458383
 30
0.0
 11
515.6918713115487
 21
17.91346152
 31
0.0
  0
LINE
  5
292
330
1F
100
AcDbEntity
  8
GR1
  6
Continuous
 62
     7
370
    25
100
AcDbLine
 10
512.8018997861325
 20
15.09420067270246
 30
0.0
 11
515.62116063343
 21
17.91346152
 31
0.0
  0
LINE
  5
293
330
1F
100
AcDbEntity
  8
GR1
  6
Continuous
 62
     7
370
    25
100
AcDbLine
 10
512.8018997861325
 20
15.16491135082112
 30
0.0
 11
515.5504499553114
 21
17.91346151999999
 31
0.0
  0
LINE
  5
294
330
1F
100
AcDbEntity
  8
GR1
  6
Continuous
 62
     7
370
    25
100
AcDbLine
 10
512.8018997861325
 20
15.23562202893978
 30
0.0
 11
515.4797392771927
 21
17.91346152
 31
0.0
  0
LINE
  5
295
330
1F
100
AcDbEntity
  8
GR1
  6
Continuous
 62
     7
370
    25
100
AcDbLine
 10
512.8018997861325
 20
15.30633270705843
 30
0.0
 11
515.4090285990741
 21
17.91346152
 31
0.0
  0
LINE
  5
296
330
1F
100
AcDbEntity
  8
GR1
  6
Continuous
 62
     7
370
    25
100
AcDbLine
 10
512.8018997861325
 20
15.37704338517706
 30
0.0
 11
515.3383179209554
 21
17.91346152
 31
0.0
  0
LINE
  5
297
330
1F
100
AcDbEntity
  8
GR1
  6
Continuous
 62
     7
370
    25
100
AcDbLine
 10
512.8018997861325
 20
15.44775406329572
 30
0.0
 11
515.2676072428368
 21
17.91346151999999
 31
0.0
  0
LINE
  5
298
330
1F
100
AcDbEntity
  8
GR1
  6
Continuous
 62
     7
370
    25
100
AcDbLine
 10
512.8018997861325
 20
15.51846474141438
 30
0.0
 11
515.1968965647181
 21
17.91346152
 31
0.0
  0
LINE
  5
299
330
1F
100
AcDbEntity
  8
GR1
  6
Continuous
 62
     7
370
    25
100
AcDbLine
 10
512.8018997861325
 20
15.58917541953304
 30
0.0
 11
515.1261858865995
 21
17.91346152
 31
0.0
  0
LINE
  5
29A
330
1F
100
AcDbEntity
  8
GR1
  6
Continuous
 62
     7
370
    25
100
AcDbLine
 10
512.8018997861325
 20
15.65988609765167
 30
0.0
 11
515.0554752084809
 21
17.91346152
 31
0.0
  0
LINE
  5
29B
330
1F
100
AcDbEntity
  8
GR1
  6
Continuous
 62
     7
370
    25
100
AcDbLine
 10
512.8018997861325
 20
15.73059677577033
 30
0.0
 11
514.9847645303622
 21
17.91346151999999
 31
0.0
  0
LINE
  5
29C
330
1F
100
AcDbEntity
  8
GR1
  6
Continuous
 62
     7
370
    25
100
AcDbLine
 10
512.8018997861325
 20
15.80130745388898
 30
0.0
 11
514.9140538522436
 21
17.91346152
 31
0.0
  0
LINE
  5
29D
330
1F
100
AcDbEntity
  8
GR1
  6
Continuous
 62
     7
370
    25
100
AcDbLine
 10
512.8018997861325
 20
15.87201813200764
 30
0.0
 11
514.8433431741248
 21
17.91346152
 31
0.0
  0
LINE
  5
29E
330
1F
100
AcDbEntity
  8
GR1
  6
Continuous
 62
     7
370
    25
100
AcDbLine
 10
512.8018997861325
 20
15.94272881012627
 30
0.0
 11
514.7726324960063
 21
17.91346152
 31
0.0
  0
LINE
  5
29F
330
1F
100
AcDbEntity
  8
GR1
  6
Continuous
 62
     7
370
    25
100
AcDbLine
 10
512.8018997861325
 20
16.01343948824493
 30
0.0
 11
514.7019218178875
 21
17.91346151999999
 31
0.0
  0
LINE
  5
2A0
330
1F
100
AcDbEntity
  8
GR1
  6
Continuous
 62
     7
370
    25
100
AcDbLine
 10
512.8018997861325
 20
16.08415016636359
 30
0.0
 11
514.631211139769
 21
17.91346152
 31
0.0
  0
LINE
  5
2A1
330
1F
100
AcDbEntity
  8
GR1
  6
Continuous
 62
     7
370
    25
100
AcDbLine
 10
512.8018997861325
 20
16.15486084448223
 30
0.0
 11
514.5605004616502
 21
17.91346152
 31
0.0
  0
LINE
  5
2A2
330
1F
100
AcDbEntity
  8
GR1
  6
Continuous
 62
     7
370
    25
100
AcDbLine
 10
512.8018997861325
 20
16.22557152260088
 30
0.0
 11
514.4897897835317
 21
17.91346152
 31
0.0
  0
LINE
  5
2A3
330
1F
100
AcDbEntity
  8
GR1
  6
Continuous
 62
     7
370
    25
100
AcDbLine
 10
512.8018997861325
 20
16.29628220071953
 30
0.0
 11
514.419079105413
 21
17.91346152
 31
0.0
  0
LINE
  5
2A4
330
1F
100
AcDbEntity
  8
GR1
  6
Continuous
 62
     7
370
    25
100
AcDbLine
 10
512.8018997861325
 20
16.36699287883819
 30
0.0
 11
514.3483684272943
 21
17.91346152
 31
0.0
  0
LINE
  5
2A5
330
1F
100
AcDbEntity
  8
GR1
  6
Continuous
 62
     7
370
    25
100
AcDbLine
 10
512.8018997861325
 20
16.43770355695684
 30
0.0
 11
514.2776577491757
 21
17.91346152
 31
0.0
  0
LINE
  5
2A6
330
1F
100
AcDbEntity
  8
GR1
  6
Continuous
 62
     7
370
    25
100
AcDbLine
 10
512.8018997861325
 20
16.50841423507548
 30
0.0
 11
514.206947071057
 21
17.91346152000002
 31
0.0
  0
LINE
  5
2A7
330
1F
100
AcDbEntity
  8
GR1
  6
Continuous
 62
     7
370
    25
100
AcDbLine
 10
512.8018997861325
 20
16.57912491319414
 30
0.0
 11
514.1362363929384
 21
17.91346152
 31
0.0
  0
LINE
  5
2A8
330
1F
100
AcDbEntity
  8
GR1
  6
Continuous
 62
     7
370
    25
100
AcDbLine
 10
512.8018997861325
 20
16.6498355913128
 30
0.0
 11
514.0655257148197
 21
17.91346152
 31
0.0
  0
LINE
  5
2A9
330
1F
100
AcDbEntity
  8
GR1
  6
Continuous
 62
     7
370
    25
100
AcDbLine
 10
512.8018997861325
 20
16.72054626943143
 30
0.0
 11
513.9948150367011
 21
17.91346151999999
 31
0.0
  0
LINE
  5
2AA
330
1F
100
AcDbEntity
  8
GR1
  6
Continuous
 62
     7
370
    25
100
AcDbLine
 10
512.8018997861325
 20
16.79125694755009
 30
0.0
 11
513.9241043585824
 21
17.91346152000002
 31
0.0
  0
LINE
  5
2AB
330
1F
100
AcDbEntity
  8
GR1
  6
Continuous
 62
     7
370
    25
100
AcDbLine
 10
512.8018997861325
 20
16.86196762566874
 30
0.0
 11
513.8533936804638
 21
17.91346152
 31
0.0
  0
LINE
  5
2AC
330
1F
100
AcDbEntity
  8
GR1
  6
Continuous
 62
     7
370
    25
100
AcDbLine
 10
512.8018997861325
 20
16.9326783037874
 30
0.0
 11
513.7826830023452
 21
17.91346152
 31
0.0
  0
LINE
  5
2AD
330
1F
100
AcDbEntity
  8
GR1
  6
Continuous
 62
     7
370
    25
100
AcDbLine
 10
512.8018997861325
 20
17.00338898190603
 30
0.0
 11
513.7119723242265
 21
17.91346151999999
 31
0.0
  0
LINE
  5
2AE
330
1F
100
AcDbEntity
  8
GR1
  6
Continuous
 62
     7
370
    25
100
AcDbLine
 10
512.8018997861325
 20
17.07409966002469
 30
0.0
 11
513.6412616461078
 21
17.91346152000002
 31
0.0
  0
LINE
  5
2AF
330
1F
100
AcDbEntity
  8
GR1
  6
Continuous
 62
     7
370
    25
100
AcDbLine
 10
512.8018997861325
 20
17.14481033814335
 30
0.0
 11
513.5705509679892
 21
17.91346152
 31
0.0
  0
LINE
  5
2B0
330
1F
100
AcDbEntity
  8
GR1
  6
Continuous
 62
     7
370
    25
100
AcDbLine
 10
512.8018997861325
 20
17.21552101626201
 30
0.0
 11
513.4998402898705
 21
17.91346152
 31
0.0
  0
LINE
  5
2B1
330
1F
100
AcDbEntity
  8
GR1
  6
Continuous
 62
     7
370
    25
100
AcDbLine
 10
512.8018997861325
 20
17.28623169438064
 30
0.0
 11
513.4291296117519
 21
17.91346151999999
 31
0.0
  0
LINE
  5
2B2
330
1F
100
AcDbEntity
  8
GR1
  6
Continuous
 62
     7
370
    25
100
AcDbLine
 10
512.8018997861325
 20
17.35694237249929
 30
0.0
 11
513.3584189336332
 21
17.91346152000002
 31
0.0
  0
LINE
  5
2B3
330
1F
100
AcDbEntity
  8
GR1
  6
Continuous
 62
     7
370
    25
100
AcDbLine
 10
512.8018997861325
 20
17.42765305061795
 30
0.0
 11
513.2877082555145
 21
17.91346152
 31
0.0
  0
LINE
  5
2B4
330
1F
100
AcDbEntity
  8
GR1
  6
Continuous
 62
     7
370
    25
100
AcDbLine
 10
512.8018997861325
 20
17.49836372873661
 30
0.0
 11
513.2169975773959
 21
17.91346152
 31
0.0
  0
LINE
  5
2B5
330
1F
100
AcDbEntity
  8
GR1
  6
Continuous
 62
     7
370
    25
100
AcDbLine
 10
512.8018997861325
 20
17.56907440685524
 30
0.0
 11
513.1462868992772
 21
17.91346151999999
 31
0.0
  0
LINE
  5
2B6
330
1F
100
AcDbEntity
  8
GR1
  6
Continuous
 62
     7
370
    25
100
AcDbLine
 10
512.8018997861325
 20
17.6397850849739
 30
0.0
 11
513.0755762211586
 21
17.91346152000002
 31
0.0
  0
LINE
  5
2B7
330
1F
100
AcDbEntity
  8
GR1
  6
Continuous
 62
     7
370
    25
100
AcDbLine
 10
512.8018997861325
 20
17.71049576309256
 30
0.0
 11
513.00486554304
 21
17.91346152
 31
0.0
  0
LINE
  5
2B8
330
1F
100
AcDbEntity
  8
GR1
  6
Continuous
 62
     7
370
    25
100
AcDbLine
 10
512.8018997861325
 20
17.78120644121121
 30
0.0
 11
512.9341548649213
 21
17.91346152
 31
0.0
  0
LINE
  5
2B9
330
1F
100
AcDbEntity
  8
GR1
  6
Continuous
 62
     7
370
    25
100
AcDbLine
 10
512.8018997861325
 20
17.85191711932984
 30
0.0
 11
512.8634441868027
 21
17.91346151999999
 31
0.0
  0
LINE
  5
2BA
330
1F
100
AcDbEntity
  8
GR1
  6
Continuous
 62
     7
370
    25
100
AcDbLine
 10
513.7930906424303
 20
11.91346151999999
 30
0.0
 11
514.8696105942814
 21
12.98998147185103
 31
0.0
  0
LINE
  5
2BB
330
1F
100
AcDbEntity
  8
GR1
  6
Continuous
 62
     7
370
    25
100
AcDbLine
 10
515.6859567642815
 20
13.80632764185104
 30
0.0
 11
516.0142445024304
 21
14.13461538000002
 31
0.0
  0
LINE
  5
2BC
330
1F
100
AcDbEntity
  8
GR1
  6
Continuous
 62
     7
370
    25
100
AcDbLine
 10
516.8796291224305
 20
15.00000000000002
 30
0.0
 11
517.2257829224304
 21
15.34615379999999
 31
0.0
  0
LINE
  5
2BD
330
1F
100
AcDbEntity
  8
GR1
  6
Continuous
 62
     7
370
    25
100
AcDbLine
 10
517.725379810467
 20
15.84575068803651
 30
0.0
 11
518.8018997861325
 21
16.92227066370207
 31
0.0
  0
LINE
  5
2BE
330
1F
100
AcDbEntity
  8
GR1
  6
Continuous
 62
     7
370
    25
100
AcDbLine
 10
513.8638013205491
 20
11.91346152
 30
0.0
 11
514.9049659333408
 21
12.95462613279171
 31
0.0
  0
LINE
  5
2BF
330
1F
100
AcDbEntity
  8
GR1
  6
Continuous
 62
     7
370
    25
100
AcDbLine
 10
515.7213121033408
 20
13.77097230279172
 30
0.0
 11
516.0849551805491
 21
14.13461538
 31
0.0
  0
LINE
  5
2C0
330
1F
100
AcDbEntity
  8
GR1
  6
Continuous
 62
     7
370
    25
100
AcDbLine
 10
516.950339800549
 20
15.0
 30
0.0
 11
517.2964936005491
 21
15.3461538
 31
0.0
  0
LINE
  5
2C1
330
1F
100
AcDbEntity
  8
GR1
  6
Continuous
 62
     7
370
    25
100
AcDbLine
 10
517.7607351490885
 20
15.81039534853945
 30
0.0
 11
518.8018997861325
 21
16.85155998558342
 31
0.0
  0
LINE
  5
2C2
330
1F
100
AcDbEntity
  8
GR1
  6
Continuous
 62
     7
370
    25
100
AcDbLine
 10
513.9345119986677
 20
11.91346151999999
 30
0.0
 11
514.9403212724001
 21
12.91927079373237
 31
0.0
  0
LINE
  5
2C3
330
1F
100
AcDbEntity
  8
GR1
  6
Continuous
 62
     7
370
    25
100
AcDbLine
 10
515.7566674424002
 20
13.73561696373239
 30
0.0
 11
516.1556658586677
 21
14.13461537999999
 31
0.0
  0
LINE
  5
2C4
330
1F
100
AcDbEntity
  8
GR1
  6
Continuous
 62
     7
370
    25
100
AcDbLine
 10
517.0210504786678
 20
14.99999999999999
 30
0.0
 11
517.3672042786677
 21
15.34615379999997
 31
0.0
  0
LINE
  5
2C5
330
1F
100
AcDbEntity
  8
GR1
  6
Continuous
 62
     7
370
    25
100
AcDbLine
 10
517.7960904877101
 20
15.77504000904237
 30
0.0
 11
518.8018997861325
 21
16.78084930746475
 31
0.0
  0
LINE
  5
2C6
330
1F
100
AcDbEntity
  8
GR1
  6
Continuous
 62
     7
370
    25
100
AcDbLine
 10
514.0052226767864
 20
11.91346152
 30
0.0
 11
514.9756766114594
 21
12.88391545467305
 31
0.0
  0
LINE
  5
2C7
330
1F
100
AcDbEntity
  8
GR1
  6
Continuous
 62
     7
370
    25
100
AcDbLine
 10
515.7920227814595
 20
13.70026162467306
 30
0.0
 11
516.2263765367863
 21
14.13461538
 31
0.0
  0
LINE
  5
2C8
330
1F
100
AcDbEntity
  8
GR1
  6
Continuous
 62
     7
370
    25
100
AcDbLine
 10
517.0917611567863
 20
15.0
 30
0.0
 11
517.4379149567864
 21
15.34615379999997
 31
0.0
  0
LINE
  5
2C9
330
1F
100
AcDbEntity
  8
GR1
  6
Continuous
 62
     7
370
    25
100
AcDbLine
 10
517.8314458263317
 20
15.73968466954534
 30
0.0
 11
518.8018997861325
 21
16.71013862934611
 31
0.0
  0
LINE
  5
2CA
330
1F
100
AcDbEntity
  8
GR1
  6
Continuous
 62
     7
370
    25
100
AcDbLine
 10
514.075933354905
 20
11.91346151999999
 30
0.0
 11
515.0110319505188
 21
12.84856011561373
 31
0.0
  0
LINE
  5
2CB
330
1F
100
AcDbEntity
  8
GR1
  6
Continuous
 62
     7
370
    25
100
AcDbLine
 10
517.1624718349051
 20
14.99999999999999
 30
0.0
 11
517.508625634905
 21
15.34615379999999
 31
0.0
  0
LINE
  5
2CC
330
1F
100
AcDbEntity
  8
GR1
  6
Continuous
 62
     7
370
    25
100
AcDbLine
 10
517.8668011649534
 20
15.70432933004829
 30
0.0
 11
518.8018997861325
 21
16.63942795122746
 31
0.0
  0
LINE
  5
2CD
330
1F
100
AcDbEntity
  8
GR1
  6
Continuous
 62
     7
370
    25
100
AcDbLine
 10
514.1466440330237
 20
11.91346152
 30
0.0
 11
515.0463872895781
 21
12.8132047765544
 31
0.0
  0
LINE
  5
2CE
330
1F
100
AcDbEntity
  8
GR1
  6
Continuous
 62
     7
370
    25
100
AcDbLine
 10
517.2331825130236
 20
15.0
 30
0.0
 11
517.5793363130236
 21
15.3461538
 31
0.0
  0
LINE
  5
2CF
330
1F
100
AcDbEntity
  8
GR1
  6
Continuous
 62
     7
370
    25
100
AcDbLine
 10
517.9021565035749
 20
15.66897399055123
 30
0.0
 11
518.8018997861325
 21
16.56871727310882
 31
0.0
  0
LINE
  5
2D0
330
1F
100
AcDbEntity
  8
GR1
  6
Continuous
 62
     7
370
    25
100
AcDbLine
 10
514.2173547111423
 20
11.91346151999999
 30
0.0
 11
515.0817426286374
 21
12.77784943749507
 31
0.0
  0
LINE
  5
2D1
330
1F
100
AcDbEntity
  8
GR1
  6
Continuous
 62
     7
370
    25
100
AcDbLine
 10
517.3038931911424
 20
14.99999999999999
 30
0.0
 11
517.6500469911423
 21
15.34615379999997
 31
0.0
  0
LINE
  5
2D2
330
1F
100
AcDbEntity
  8
GR1
  6
Continuous
 62
     7
370
    25
100
AcDbLine
 10
517.9375118421965
 20
15.63361865105415
 30
0.0
 11
518.8018997861325
 21
16.49800659499016
 31
0.0
  0
LINE
  5
2D3
330
1F
100
AcDbEntity
  8
GR1
  6
Continuous
 62
     7
370
    25
100
AcDbLine
 10
514.288065389261
 20
11.91346151999999
 30
0.0
 11
515.1170979676967
 21
12.74249409843576
 31
0.0
  0
LINE
  5
2D4
330
1F
100
AcDbEntity
  8
GR1
  6
Continuous
 62
     7
370
    25
100
AcDbLine
 10
517.374603869261
 20
14.99999999999999
 30
0.0
 11
517.7207576692609
 21
15.34615379999997
 31
0.0
  0
LINE
  5
2D5
330
1F
100
AcDbEntity
  8
GR1
  6
Continuous
 62
     7
370
    25
100
AcDbLine
 10
517.9728671808181
 20
15.59826331155709
 30
0.0
 11
518.8018997861325
 21
16.4272959168715
 31
0.0
  0
LINE
  5
2D6
330
1F
100
AcDbEntity
  8
GR1
  6
Continuous
 62
     7
370
    25
100
AcDbLine
 10
514.3587760673796
 20
11.91346151999999
 30
0.0
 11
515.1524533067561
 21
12.70713875937644
 31
0.0
  0
LINE
  5
2D7
330
1F
100
AcDbEntity
  8
GR1
  6
Continuous
 62
     7
370
    25
100
AcDbLine
 10
517.4453145473797
 20
14.99999999999999
 30
0.0
 11
517.7914683473796
 21
15.34615379999999
 31
0.0
  0
LINE
  5
2D8
330
1F
100
AcDbEntity
  8
GR1
  6
Continuous
 62
     7
370
    25
100
AcDbLine
 10
518.0082225194396
 20
15.56290797206004
 30
0.0
 11
518.8018997861325
 21
16.35658523875286
 31
0.0
  0
LINE
  5
2D9
330
1F
100
AcDbEntity
  8
GR1
  6
Continuous
 62
     7
370
    25
100
AcDbLine
 10
514.4294867454983
 20
11.91346152
 30
0.0
 11
515.1878086458154
 21
12.67178342031712
 31
0.0
  0
LINE
  5
2DA
330
1F
100
AcDbEntity
  8
GR1
  6
Continuous
 62
     7
370
    25
100
AcDbLine
 10
517.5160252254983
 20
15.0
 30
0.0
 11
517.8621790254983
 21
15.34615379999999
 31
0.0
  0
LINE
  5
2DB
330
1F
100
AcDbEntity
  8
GR1
  6
Continuous
 62
     7
370
    25
100
AcDbLine
 10
518.0435778580613
 20
15.52755263256299
 30
0.0
 11
518.8018997861325
 21
16.28587456063423
 31
0.0
  0
LINE
  5
2DC
330
1F
100
AcDbEntity
  8
GR1
  6
Continuous
 62
     7
370
    25
100
AcDbLine
 10
514.500197423617
 20
11.91346151999999
 30
0.0
 11
515.2231639848748
 21
12.63642808125779
 31
0.0
  0
LINE
  5
2DD
330
1F
100
AcDbEntity
  8
GR1
  6
Continuous
 62
     7
370
    25
100
AcDbLine
 10
517.586735903617
 20
14.99999999999999
 30
0.0
 11
517.9328897036169
 21
15.34615379999999
 31
0.0
  0
LINE
  5
2DE
330
1F
100
AcDbEntity
  8
GR1
  6
Continuous
 62
     7
370
    25
100
AcDbLine
 10
518.0789331966829
 20
15.49219729306593
 30
0.0
 11
518.8018997861325
 21
16.21516388251557
 31
0.0
  0
LINE
  5
2DF
330
1F
100
AcDbEntity
  8
GR1
  6
Continuous
 62
     7
370
    25
100
AcDbLine
 10
514.5709081017355
 20
11.91346151999999
 30
0.0
 11
515.258519323934
 21
12.60107274219846
 31
0.0
  0
LINE
  5
2E0
330
1F
100
AcDbEntity
  8
GR1
  6
Continuous
 62
     7
370
    25
100
AcDbLine
 10
517.6574465817356
 20
14.99999999999999
 30
0.0
 11
518.0036003817356
 21
15.34615379999997
 31
0.0
  0
LINE
  5
2E1
330
1F
100
AcDbEntity
  8
GR1
  6
Continuous
 62
     7
370
    25
100
AcDbLine
 10
518.1142885353045
 20
15.45684195356886
 30
0.0
 11
518.8018997861325
 21
16.1444532043969
 31
0.0
  0
LINE
  5
2E2
330
1F
100
AcDbEntity
  8
GR1
  6
Continuous
 62
     7
370
    25
100
AcDbLine
 10
514.6416187798543
 20
11.91346151999999
 30
0.0
 11
515.2938746629934
 21
12.56571740313914
 31
0.0
  0
LINE
  5
2E3
330
1F
100
AcDbEntity
  8
GR1
  6
Continuous
 62
     7
370
    25
100
AcDbLine
 10
517.7281572598542
 20
14.99999999999999
 30
0.0
 11
518.0743110598542
 21
15.34615379999999
 31
0.0
  0
LINE
  5
2E4
330
1F
100
AcDbEntity
  8
GR1
  6
Continuous
 62
     7
370
    25
100
AcDbLine
 10
518.149643873926
 20
15.4214866140718
 30
0.0
 11
518.8018997861325
 21
16.07374252627826
 31
0.0
  0
LINE
  5
2E5
330
1F
100
AcDbEntity
  8
GR1
  6
Continuous
 62
     7
370
    25
100
AcDbLine
 10
514.7123294579728
 20
11.91346152
 30
0.0
 11
515.3292300020528
 21
12.53036206407981
 31
0.0
  0
LINE
  5
2E6
330
1F
100
AcDbEntity
  8
GR1
  6
Continuous
 62
     7
370
    25
100
AcDbLine
 10
517.7988679379729
 20
15.0
 30
0.0
 11
518.1450217379729
 21
15.34615379999999
 31
0.0
  0
LINE
  5
2E7
330
1F
100
AcDbEntity
  8
GR1
  6
Continuous
 62
     7
370
    25
100
AcDbLine
 10
518.1849992125476
 20
15.38613127457474
 30
0.0
 11
518.8018997861325
 21
16.00303184815963
 31
0.0
  0
LINE
  5
2E8
330
1F
100
AcDbEntity
  8
GR1
  6
Continuous
 62
     7
370
    25
100
AcDbLine
 10
514.7830401360916
 20
11.91346151999999
 30
0.0
 11
515.364585341112
 21
12.49500672502049
 31
0.0
  0
LINE
  5
2E9
330
1F
100
AcDbEntity
  8
GR1
  6
Continuous
 62
     7
370
    25
100
AcDbLine
 10
517.8695786160915
 20
14.99999999999999
 30
0.0
 11
518.2157324160914
 21
15.34615379999999
 31
0.0
  0
LINE
  5
2EA
330
1F
100
AcDbEntity
  8
GR1
  6
Continuous
 62
     7
370
    25
100
AcDbLine
 10
518.2203545511692
 20
15.35077593507768
 30
0.0
 11
518.8018997861325
 21
15.93232117004097
 31
0.0
  0
LINE
  5
2EB
330
1F
100
AcDbEntity
  8
GR1
  6
Continuous
 62
     7
370
    25
100
AcDbLine
 10
514.8537508142101
 20
11.91346151999999
 30
0.0
 11
515.3999406801713
 21
12.45965138596116
 31
0.0
  0
LINE
  5
2EC
330
1F
100
AcDbEntity
  8
GR1
  6
Continuous
 62
     7
370
    25
100
AcDbLine
 10
517.9402892942102
 20
14.99999999999999
 30
0.0
 11
518.8018997861325
 21
15.8616104919223
 31
0.0
  0
LINE
  5
2ED
330
1F
100
AcDbEntity
  8
GR1
  6
Continuous
 62
     7
370
    25
100
AcDbLine
 10
514.9244614923289
 20
11.91346151999999
 30
0.0
 11
515.4352960192307
 21
12.42429604690183
 31
0.0
  0
LINE
  5
2EE
330
1F
100
AcDbEntity
  8
GR1
  6
Continuous
 62
     7
370
    25
100
AcDbLine
 10
518.0109999723288
 20
14.99999999999999
 30
0.0
 11
518.8018997861325
 21
15.79089981380365
 31
0.0
  0
LINE
  5
2EF
330
1F
100
AcDbEntity
  8
GR1
  6
Continuous
 62
     7
370
    25
100
AcDbLine
 10
514.9951721704475
 20
11.91346152
 30
0.0
 11
515.4706513582901
 21
12.38894070784251
 31
0.0
  0
LINE
  5
2F0
330
1F
100
AcDbEntity
  8
GR1
  6
Continuous
 62
     7
370
    25
100
AcDbLine
 10
518.0817106504475
 20
15.0
 30
0.0
 11
518.8018997861325
 21
15.72018913568502
 31
0.0
  0
LINE
  5
2F1
330
1F
100
AcDbEntity
  8
GR1
  6
Continuous
 62
     7
370
    25
100
AcDbLine
 10
515.0658828485662
 20
11.91346151999999
 30
0.0
 11
515.5060066973493
 21
12.35358536878319
 31
0.0
  0
LINE
  5
2F2
330
1F
100
AcDbEntity
  8
GR1
  6
Continuous
 62
     7
370
    25
100
AcDbLine
 10
518.1524213285661
 20
14.99999999999999
 30
0.0
 11
518.8018997861325
 21
15.64947845756636
 31
0.0
  0
LINE
  5
2F3
330
1F
100
AcDbEntity
  8
GR1
  6
Continuous
 62
     7
370
    25
100
AcDbLine
 10
515.1365935266848
 20
11.91346151999999
 30
0.0
 11
515.5413620364086
 21
12.31823002972385
 31
0.0
  0
LINE
  5
2F4
330
1F
100
AcDbEntity
  8
GR1
  6
Continuous
 62
     7
370
    25
100
AcDbLine
 10
518.2231320066849
 20
14.99999999999999
 30
0.0
 11
518.8018997861325
 21
15.57876777944769
 31
0.0
  0
LINE
  5
2F5
330
1F
100
AcDbEntity
  8
GR1
  6
Continuous
 62
     7
370
    25
100
AcDbLine
 10
515.2073042048034
 20
11.91346151999999
 30
0.0
 11
515.576717375468
 21
12.28287469066453
 31
0.0
  0
LINE
  5
2F6
330
1F
100
AcDbEntity
  8
GR1
  6
Continuous
 62
     7
370
    25
100
AcDbLine
 10
518.2249766861325
 20
14.93113400132905
 30
0.0
 11
518.8018997861325
 21
15.50805710132905
 31
0.0
  0
LINE
  5
2F7
330
1F
100
AcDbEntity
  8
GR1
  6
Continuous
 62
     7
370
    25
100
AcDbLine
 10
515.2780148829221
 20
11.91346152
 30
0.0
 11
515.6120727145274
 21
12.24751935160521
 31
0.0
  0
LINE
  5
2F8
330
1F
100
AcDbEntity
  8
GR1
  6
Continuous
 62
     7
370
    25
100
AcDbLine
 10
518.2249766861325
 20
14.86042332321039
 30
0.0
 11
518.8018997861325
 21
15.43734642321042
 31
0.0
  0
LINE
  5
2F9
330
1F
100
AcDbEntity
  8
GR1
  6
Continuous
 62
     7
370
    25
100
AcDbLine
 10
515.3487255610407
 20
11.91346151999999
 30
0.0
 11
515.6474280535866
 21
12.21216401254589
 31
0.0
  0
LINE
  5
2FA
330
1F
100
AcDbEntity
  8
GR1
  6
Continuous
 62
     7
370
    25
100
AcDbLine
 10
518.2249766861325
 20
14.78971264509174
 30
0.0
 11
518.8018997861325
 21
15.36663574509176
 31
0.0
  0
LINE
  5
2FB
330
1F
100
AcDbEntity
  8
GR1
  6
Continuous
 62
     7
370
    25
100
AcDbLine
 10
515.4194362391594
 20
11.91346151999999
 30
0.0
 11
515.682783392646
 21
12.17680867348655
 31
0.0
  0
LINE
  5
2FC
330
1F
100
AcDbEntity
  8
GR1
  6
Continuous
 62
     7
370
    25
100
AcDbLine
 10
518.2249766861325
 20
14.7190019669731
 30
0.0
 11
518.8018997861325
 21
15.29592506697309
 31
0.0
  0
LINE
  5
2FD
330
1F
100
AcDbEntity
  8
GR1
  6
Continuous
 62
     7
370
    25
100
AcDbLine
 10
515.490146917278
 20
11.91346151999999
 30
0.0
 11
515.7181387317053
 21
12.14145333442723
 31
0.0
  0
LINE
  5
2FE
330
1F
100
AcDbEntity
  8
GR1
  6
Continuous
 62
     7
370
    25
100
AcDbLine
 10
518.2249766861325
 20
14.64829128885444
 30
0.0
 11
518.8018997861325
 21
15.22521438885444
 31
0.0
  0
LINE
  5
2FF
330
1F
100
AcDbEntity
  8
GR1
  6
Continuous
 62
     7
370
    25
100
AcDbLine
 10
515.5608575953967
 20
11.91346152
 30
0.0
 11
515.7534940707646
 21
12.10609799536791
 31
0.0
  0
LINE
  5
300
330
1F
100
AcDbEntity
  8
GR1
  6
Continuous
 62
     7
370
    25
100
AcDbLine
 10
518.2249766861325
 20
14.57758061073578
 30
0.0
 11
518.8018997861325
 21
15.15450371073581
 31
0.0
  0
LINE
  5
301
330
1F
100
AcDbEntity
  8
GR1
  6
Continuous
 62
     7
370
    25
100
AcDbLine
 10
515.6315682735153
 20
11.91346151999999
 30
0.0
 11
515.7888494098239
 21
12.07074265630859
 31
0.0
  0
LINE
  5
302
330
1F
100
AcDbEntity
  8
GR1
  6
Continuous
 62
     7
370
    25
100
AcDbLine
 10
518.2249766861325
 20
14.50686993261714
 30
0.0
 11
518.8018997861325
 21
15.08379303261716
 31
0.0
  0
LINE
  5
303
330
1F
100
AcDbEntity
  8
GR1
  6
Continuous
 62
     7
370
    25
100
AcDbLine
 10
515.7022789516341
 20
11.91346151999999
 30
0.0
 11
517.3595920661326
 21
13.57077463449849
 31
0.0
  0
LINE
  5
304
330
1F
100
AcDbEntity
  8
GR1
  6
Continuous
 62
     7
370
    25
100
AcDbLine
 10
518.2249766861325
 20
14.4361592544985
 30
0.0
 11
518.8018997861325
 21
15.01308235449848
 31
0.0
  0
LINE
  5
305
330
1F
100
AcDbEntity
  8
GR1
  6
Continuous
 62
     7
370
    25
100
AcDbLine
 10
515.7729896297526
 20
11.91346151999999
 30
0.0
 11
517.3595920661326
 21
13.50006395637985
 31
0.0
  0
LINE
  5
306
330
1F
100
AcDbEntity
  8
GR1
  6
Continuous
 62
     7
370
    25
100
AcDbLine
 10
518.2249766861325
 20
14.36544857637984
 30
0.0
 11
518.8018997861325
 21
14.94237167637984
 31
0.0
  0
LINE
  5
307
330
1F
100
AcDbEntity
  8
GR1
  6
Continuous
 62
     7
370
    25
100
AcDbLine
 10
515.8437003078714
 20
11.91346152
 30
0.0
 11
517.3595920661326
 21
13.42935327826119
 31
0.0
  0
LINE
  5
308
330
1F
100
AcDbEntity
  8
GR1
  6
Continuous
 62
     7
370
    25
100
AcDbLine
 10
518.2249766861325
 20
14.29473789826118
 30
0.0
 11
518.8018997861325
 21
14.87166099826121
 31
0.0
  0
LINE
  5
309
330
1F
100
AcDbEntity
  8
GR1
  6
Continuous
 62
     7
370
    25
100
AcDbLine
 10
515.9144109859899
 20
11.91346152000002
 30
0.0
 11
517.3595920661326
 21
13.35864260014256
 31
0.0
  0
LINE
  5
30A
330
1F
100
AcDbEntity
  8
GR1
  6
Continuous
 62
     7
370
    25
100
AcDbLine
 10
518.2249766861325
 20
14.22402722014253
 30
0.0
 11
518.8018997861325
 21
14.80095032014255
 31
0.0
  0
LINE
  5
30B
330
1F
100
AcDbEntity
  8
GR1
  6
Continuous
 62
     7
370
    25
100
AcDbLine
 10
515.9851216641086
 20
11.91346151999999
 30
0.0
 11
517.3595920661326
 21
13.28793192202389
 31
0.0
  0
LINE
  5
30C
330
1F
100
AcDbEntity
  8
GR1
  6
Continuous
 62
     7
370
    25
100
AcDbLine
 10
518.2249766861325
 20
14.15331654202389
 30
0.0
 11
518.8018997861325
 21
14.73023964202388
 31
0.0
  0
LINE
  5
30D
330
1F
100
AcDbEntity
  8
GR1
  6
Continuous
 62
     7
370
    25
100
AcDbLine
 10
516.0558323422273
 20
11.91346152
 30
0.0
 11
517.3595920661326
 21
13.21722124390525
 31
0.0
  0
LINE
  5
30E
330
1F
100
AcDbEntity
  8
GR1
  6
Continuous
 62
     7
370
    25
100
AcDbLine
 10
518.2249766861325
 20
14.08260586390523
 30
0.0
 11
518.8018997861325
 21
14.65952896390523
 31
0.0
  0
LINE
  5
30F
330
1F
100
AcDbEntity
  8
GR1
  6
Continuous
 62
     7
370
    25
100
AcDbLine
 10
516.1265430203459
 20
11.91346152
 30
0.0
 11
517.3595920661326
 21
13.14651056578659
 31
0.0
  0
LINE
  5
310
330
1F
100
AcDbEntity
  8
GR1
  6
Continuous
 62
     7
370
    25
100
AcDbLine
 10
518.2249766861325
 20
14.01189518578657
 30
0.0
 11
518.8018997861325
 21
14.5888182857866
 31
0.0
  0
LINE
  5
311
330
1F
100
AcDbEntity
  8
GR1
  6
Continuous
 62
     7
370
    25
100
AcDbLine
 10
516.1972536984646
 20
11.91346152000002
 30
0.0
 11
517.3595920661326
 21
13.07579988766796
 31
0.0
  0
LINE
  5
312
330
1F
100
AcDbEntity
  8
GR1
  6
Continuous
 62
     7
370
    25
100
AcDbLine
 10
518.2249766861325
 20
13.94118450766793
 30
0.0
 11
518.8018997861325
 21
14.51810760766795
 31
0.0
  0
LINE
  5
313
330
1F
100
AcDbEntity
  8
GR1
  6
Continuous
 62
     7
370
    25
100
AcDbLine
 10
516.2679643765832
 20
11.91346152
 30
0.0
 11
517.3595920661326
 21
13.0050892095493
 31
0.0
  0
LINE
  5
314
330
1F
100
AcDbEntity
  8
GR1
  6
Continuous
 62
     7
370
    25
100
AcDbLine
 10
518.2249766861325
 20
13.8704738295493
 30
0.0
 11
518.8018997861325
 21
14.44739692954929
 31
0.0
  0
LINE
  5
315
330
1F
100
AcDbEntity
  8
GR1
  6
Continuous
 62
     7
370
    25
100
AcDbLine
 10
516.3386750547019
 20
11.91346152
 30
0.0
 11
517.4059827747019
 21
12.98076924
 31
0.0
  0
LINE
  5
316
330
1F
100
AcDbEntity
  8
GR1
  6
Continuous
 62
     7
370
    25
100
AcDbLine
 10
518.2249766861325
 20
13.79976315143063
 30
0.0
 11
518.8018997861325
 21
14.37668625143063
 31
0.0
  0
LINE
  5
317
330
1F
100
AcDbEntity
  8
GR1
  6
Continuous
 62
     7
370
    25
100
AcDbLine
 10
516.4093857328205
 20
11.91346152
 30
0.0
 11
517.4766934528205
 21
12.98076924
 31
0.0
  0
LINE
  5
318
330
1F
100
AcDbEntity
  8
GR1
  6
Continuous
 62
     7
370
    25
100
AcDbLine
 10
518.2249766861325
 20
13.72905247331197
 30
0.0
 11
518.8018997861325
 21
14.305975573312
 31
0.0
  0
LINE
  5
319
330
1F
100
AcDbEntity
  8
GR1
  6
Continuous
 62
     7
370
    25
100
AcDbLine
 10
516.4800964109392
 20
11.91346152000002
 30
0.0
 11
517.5474041309392
 21
12.98076924000002
 31
0.0
  0
LINE
  5
31A
330
1F
100
AcDbEntity
  8
GR1
  6
Continuous
 62
     7
370
    25
100
AcDbLine
 10
518.2249766861325
 20
13.65834179519333
 30
0.0
 11
518.8018997861325
 21
14.23526489519334
 31
0.0
  0
LINE
  5
31B
330
1F
100
AcDbEntity
  8
GR1
  6
Continuous
 62
     7
370
    25
100
AcDbLine
 10
516.5508070890578
 20
11.91346152
 30
0.0
 11
517.6181148090578
 21
12.98076924
 31
0.0
  0
LINE
  5
31C
330
1F
100
AcDbEntity
  8
GR1
  6
Continuous
 62
     7
370
    25
100
AcDbLine
 10
518.2249766861325
 20
13.5876311170747
 30
0.0
 11
518.8018997861325
 21
14.16455421707468
 31
0.0
  0
LINE
  5
31D
330
1F
100
AcDbEntity
  8
GR1
  6
Continuous
 62
     7
370
    25
100
AcDbLine
 10
516.6215177671764
 20
11.91346152
 30
0.0
 11
517.6888254871765
 21
12.98076924
 31
0.0
  0
LINE
  5
31E
330
1F
100
AcDbEntity
  8
GR1
  6
Continuous
 62
     7
370
    25
100
AcDbLine
 10
518.2249766861325
 20
13.51692043895602
 30
0.0
 11
518.8018997861325
 21
14.09384353895603
 31
0.0
  0
LINE
  5
31F
330
1F
100
AcDbEntity
  8
GR1
  6
Continuous
 62
     7
370
    25
100
AcDbLine
 10
516.6922284452951
 20
11.91346152
 30
0.0
 11
517.7595361652951
 21
12.98076924
 31
0.0
  0
LINE
  5
320
330
1F
100
AcDbEntity
  8
GR1
  6
Continuous
 62
     7
370
    25
100
AcDbLine
 10
518.2249766861325
 20
13.44620976083737
 30
0.0
 11
518.8018997861325
 21
14.0231328608374
 31
0.0
  0
LINE
  5
321
330
1F
100
AcDbEntity
  8
GR1
  6
Continuous
 62
     7
370
    25
100
AcDbLine
 10
516.7629391234138
 20
11.91346152
 30
0.0
 11
517.8302468434138
 21
12.98076923999999
 31
0.0
  0
LINE
  5
322
330
1F
100
AcDbEntity
  8
GR1
  6
Continuous
 62
     7
370
    25
100
AcDbLine
 10
518.2249766861325
 20
13.37549908271872
 30
0.0
 11
518.8018997861325
 21
13.95242218271874
 31
0.0
  0
LINE
  5
323
330
1F
100
AcDbEntity
  8
GR1
  6
Continuous
 62
     7
370
    25
100
AcDbLine
 10
516.8336498015324
 20
11.91346152
 30
0.0
 11
517.9009575215324
 21
12.98076924
 31
0.0
  0
LINE
  5
324
330
1F
100
AcDbEntity
  8
GR1
  6
Continuous
 62
     7
370
    25
100
AcDbLine
 10
518.2249766861325
 20
13.30478840460009
 30
0.0
 11
518.8018997861325
 21
13.88171150460008
 31
0.0
  0
LINE
  5
325
330
1F
100
AcDbEntity
  8
GR1
  6
Continuous
 62
     7
370
    25
100
AcDbLine
 10
516.9043604796511
 20
11.91346152
 30
0.0
 11
517.971668199651
 21
12.98076923999999
 31
0.0
  0
LINE
  5
326
330
1F
100
AcDbEntity
  8
GR1
  6
Continuous
 62
     7
370
    25
100
AcDbLine
 10
518.2249766861325
 20
13.23407772648142
 30
0.0
 11
518.8018997861325
 21
13.81100082648142
 31
0.0
  0
LINE
  5
327
330
1F
100
AcDbEntity
  8
GR1
  6
Continuous
 62
     7
370
    25
100
AcDbLine
 10
516.9750711577697
 20
11.91346152
 30
0.0
 11
518.0423788777697
 21
12.98076924
 31
0.0
  0
LINE
  5
328
330
1F
100
AcDbEntity
  8
GR1
  6
Continuous
 62
     7
370
    25
100
AcDbLine
 10
518.2249766861325
 20
13.16336704836276
 30
0.0
 11
518.8018997861325
 21
13.74029014836279
 31
0.0
  0
LINE
  5
329
330
1F
100
AcDbEntity
  8
GR1
  6
Continuous
 62
     7
370
    25
100
AcDbLine
 10
517.0457818358884
 20
11.91346152
 30
0.0
 11
518.1130895558883
 21
12.98076923999999
 31
0.0
  0
LINE
  5
32A
330
1F
100
AcDbEntity
  8
GR1
  6
Continuous
 62
     7
370
    25
100
AcDbLine
 10
518.2249766861325
 20
13.09265637024412
 30
0.0
 11
518.8018997861325
 21
13.66957947024413
 31
0.0
  0
LINE
  5
32B
330
1F
100
AcDbEntity
  8
GR1
  6
Continuous
 62
     7
370
    25
100
AcDbLine
 10
517.116492514007
 20
11.91346152
 30
0.0
 11
518.183800234007
 21
12.98076924
 31
0.0
  0
LINE
  5
32C
330
1F
100
AcDbEntity
  8
GR1
  6
Continuous
 62
     7
370
    25
100
AcDbLine
 10
518.2249766861325
 20
13.02194569212549
 30
0.0
 11
518.8018997861325
 21
13.59886879212548
 31
0.0
  0
LINE
  5
32D
330
1F
100
AcDbEntity
  8
GR1
  6
Continuous
 62
     7
370
    25
100
AcDbLine
 10
517.1872031921257
 20
11.91346152
 30
0.0
 11
518.8018997861325
 21
13.52815811400683
 31
0.0
  0
LINE
  5
32E
330
1F
100
AcDbEntity
  8
GR1
  6
Continuous
 62
     7
370
    25
100
AcDbLine
 10
517.2579138702444
 20
11.91346151999999
 30
0.0
 11
518.8018997861325
 21
13.45744743588819
 31
0.0
  0
LINE
  5
32F
330
1F
100
AcDbEntity
  8
GR1
  6
Continuous
 62
     7
370
    25
100
AcDbLine
 10
517.328624548363
 20
11.91346152
 30
0.0
 11
518.8018997861325
 21
13.38673675776953
 31
0.0
  0
LINE
  5
330
330
1F
100
AcDbEntity
  8
GR1
  6
Continuous
 62
     7
370
    25
100
AcDbLine
 10
517.3993352264816
 20
11.91346152
 30
0.0
 11
518.8018997861325
 21
13.31602607965087
 31
0.0
  0
LINE
  5
331
330
1F
100
AcDbEntity
  8
GR1
  6
Continuous
 62
     7
370
    25
100
AcDbLine
 10
517.4700459046003
 20
11.91346152
 30
0.0
 11
518.8018997861325
 21
13.24531540153223
 31
0.0
  0
LINE
  5
332
330
1F
100
AcDbEntity
  8
GR1
  6
Continuous
 62
     7
370
    25
100
AcDbLine
 10
517.5407565827189
 20
11.91346151999999
 30
0.0
 11
518.8018997861325
 21
13.17460472341358
 31
0.0
  0
LINE
  5
333
330
1F
100
AcDbEntity
  8
GR1
  6
Continuous
 62
     7
370
    25
100
AcDbLine
 10
517.6114672608376
 20
11.91346152
 30
0.0
 11
518.8018997861325
 21
13.10389404529493
 31
0.0
  0
LINE
  5
334
330
1F
100
AcDbEntity
  8
GR1
  6
Continuous
 62
     7
370
    25
100
AcDbLine
 10
517.6821779389562
 20
11.91346152
 30
0.0
 11
518.8018997861325
 21
13.03318336717627
 31
0.0
  0
LINE
  5
335
330
1F
100
AcDbEntity
  8
GR1
  6
Continuous
 62
     7
370
    25
100
AcDbLine
 10
517.7528886170749
 20
11.91346152000002
 30
0.0
 11
518.8018997861325
 21
12.96247268905764
 31
0.0
  0
LINE
  5
336
330
1F
100
AcDbEntity
  8
GR1
  6
Continuous
 62
     7
370
    25
100
AcDbLine
 10
517.8235992951935
 20
11.91346151999999
 30
0.0
 11
518.8018997861325
 21
12.89176201093898
 31
0.0
  0
LINE
  5
337
330
1F
100
AcDbEntity
  8
GR1
  6
Continuous
 62
     7
370
    25
100
AcDbLine
 10
517.8943099733121
 20
11.91346152
 30
0.0
 11
518.8018997861325
 21
12.82105133282032
 31
0.0
  0
LINE
  5
338
330
1F
100
AcDbEntity
  8
GR1
  6
Continuous
 62
     7
370
    25
100
AcDbLine
 10
517.9650206514308
 20
11.91346152
 30
0.0
 11
518.8018997861325
 21
12.75034065470166
 31
0.0
  0
LINE
  5
339
330
1F
100
AcDbEntity
  8
GR1
  6
Continuous
 62
     7
370
    25
100
AcDbLine
 10
518.0357313295494
 20
11.91346152000002
 30
0.0
 11
518.8018997861325
 21
12.67962997658303
 31
0.0
  0
LINE
  5
33A
330
1F
100
AcDbEntity
  8
GR1
  6
Continuous
 62
     7
370
    25
100
AcDbLine
 10
518.1064420076682
 20
11.91346151999999
 30
0.0
 11
518.8018997861325
 21
12.60891929846438
 31
0.0
  0
LINE
  5
33B
330
1F
100
AcDbEntity
  8
GR1
  6
Continuous
 62
     7
370
    25
100
AcDbLine
 10
518.1771526857867
 20
11.91346152
 30
0.0
 11
518.8018997861325
 21
12.53820862034572
 31
0.0
  0
LINE
  5
33C
330
1F
100
AcDbEntity
  8
GR1
  6
Continuous
 62
     7
370
    25
100
AcDbLine
 10
518.2478633639055
 20
11.91346152
 30
0.0
 11
518.8018997861325
 21
12.46749794222706
 31
0.0
  0
LINE
  5
33D
330
1F
100
AcDbEntity
  8
GR1
  6
Continuous
 62
     7
370
    25
100
AcDbLine
 10
518.318574042024
 20
11.91346152000002
 30
0.0
 11
518.8018997861325
 21
12.39678726410843
 31
0.0
  0
LINE
  5
33E
330
1F
100
AcDbEntity
  8
GR1
  6
Continuous
 62
     7
370
    25
100
AcDbLine
 10
518.3892847201428
 20
11.91346151999999
 30
0.0
 11
518.8018997861325
 21
12.32607658598977
 31
0.0
  0
LINE
  5
33F
330
1F
100
AcDbEntity
  8
GR1
  6
Continuous
 62
     7
370
    25
100
AcDbLine
 10
518.4599953982614
 20
11.91346152
 30
0.0
 11
518.8018997861325
 21
12.25536590787111
 31
0.0
  0
LINE
  5
340
330
1F
100
AcDbEntity
  8
GR1
  6
Continuous
 62
     7
370
    25
100
AcDbLine
 10
518.53070607638
 20
11.91346152
 30
0.0
 11
518.8018997861325
 21
12.18465522975245
 31
0.0
  0
LINE
  5
341
330
1F
100
AcDbEntity
  8
GR1
  6
Continuous
 62
     7
370
    25
100
AcDbLine
 10
518.6014167544987
 20
11.91346152000002
 30
0.0
 11
518.8018997861325
 21
12.11394455163382
 31
0.0
  0
LINE
  5
342
330
1F
100
AcDbEntity
  8
GR1
  6
Continuous
 62
     7
370
    25
100
AcDbLine
 10
518.6721274326173
 20
11.91346151999999
 30
0.0
 11
518.8018997861325
 21
12.04323387351517
 31
0.0
  0
LINE
  5
343
330
1F
100
AcDbEntity
  8
GR1
  6
Continuous
 62
     7
370
    25
100
AcDbLine
 10
518.742838110736
 20
11.91346152
 30
0.0
 11
518.8018997861325
 21
11.97252319539651
 31
0.0
  0
LINE
  5
344
330
1F
100
AcDbEntity
  8
GR1
  6
Continuous
 62
     3
370
    50
100
AcDbLine
 10
308.9838397153299
 20
373.1232922732362
 30
0.0
 11
300.5781269537891
 21
373.1232922732362
 31
0.0
  0
LINE
  5
345
330
1F
100
AcDbEntity
  8
GR1
  6
Continuous
 62
     3
370
    50
100
AcDbLine
 10
308.9838397153299
 20
317.7232922732363
 30
0.0
 11
300.5781269537891
 21
317.7232922732363
 31
0.0
  0
LINE
  5
346
330
1F
100
AcDbEntity
  8
GR1
  6
Continuous
 62
     3
370
    50
100
AcDbLine
 10
410.9781269537892
 20
234.9232922732363
 30
0.0
 11
308.9781269537891
 21
234.9232922732363
 31
0.0
  0
LINE
  5
347
330
1F
100
AcDbEntity
  8
GR1
  6
Continuous
 62
     3
370
    50
100
AcDbLine
 10
313.553119550888
 20
209.3732922732362
 30
0.0
 11
309.9781269537892
 21
209.3732922732362
 31
0.0
  0
LINE
  5
348
330
1F
100
AcDbEntity
  8
GR1
  6
Continuous
 62
     3
370
    50
100
AcDbLine
 10
205.831073247871
 20
234.9232922732363
 30
0.0
 11
103.831073247871
 21
234.9232922732363
 31
0.0
  0
LINE
  5
349
330
1F
100
AcDbEntity
  8
GR1
  6
Continuous
 62
     3
370
    50
100
AcDbLine
 10
182.031073247871
 20
209.3732922732363
 30
0.0
 11
127.631073247871
 21
209.3732922732362
 31
0.0
  0
LINE
  5
34A
330
1F
100
AcDbEntity
  8
GR1
  6
Continuous
 62
     3
370
    50
100
AcDbLine
 10
182.531073247871
 20
208.8732922732362
 30
0.0
 11
182.531073247871
 21
101.3732922732362
 31
0.0
  0
ARC
  5
34B
330
1F
100
AcDbEntity
  8
基準ﾚｲﾔｸﾞﾙｰﾌﾟ
  6
Continuous
 62
     3
370
    50
100
AcDbCircle
 10
182.031073247871
 20
208.8732922732362
 30
0.0
 40
0.5
100
AcDbArc
 50
0.0
 51
90.0
  0
LINE
  5
34C
330
1F
100
AcDbEntity
  8
GR1
  6
Continuous
 62
     3
370
    50
100
AcDbLine
 10
127.131073247871
 20
208.8732922732362
 30
0.0
 11
127.131073247871
 21
101.3732922732362
 31
0.0
  0
ARC
  5
34D
330
1F
100
AcDbEntity
  8
基準ﾚｲﾔｸﾞﾙｰﾌﾟ
  6
Continuous
 62
     3
370
    50
100
AcDbCircle
 10
127.631073247871
 20
208.8732922732362
 30
0.0
 40
0.5
100
AcDbArc
 50
90.0
 51
180.0
  0
TEXT
  5
34E
330
1F
100
AcDbEntity
  8
基準ﾚｲﾔｸﾞﾙｰﾌﾟ
  6
Continuous
 62
     7
370
    25
100
AcDbText
 10
151.8310699462891
 20
25.74125099129769
 30
0.0
 40
4.0
  1
５３
 41
0.9545454545454547
  7
FX_VECTOR
 72
     5
 11
157.8310699462891
 21
25.74125099234489
 31
0.0
100
AcDbText
  0
LINE
  5
34F
330
1F
100
AcDbEntity
  8
基準ﾚｲﾔｸﾞﾙｰﾌﾟ
  6
Continuous
 62
     7
370
    25
100
AcDbLine
 10
128.3310732478709
 20
24.74125039355979
 30
0.0
 11
181.3310732478711
 21
24.74125039355978
 31
0.0
  0
INSERT
  5
350
330
1F
100
AcDbEntity
  8
基準ﾚｲﾔｸﾞﾙｰﾌﾟ
  6
Continuous
 62
     7
370
    25
100
AcDbBlockReference
  2
FXTIP_ARROW_S
 10
128.3310732478709
 20
24.74125039355979
 30
0.0
 41
4.0
 42
4.0
 50
180.0
  0
INSERT
  5
351
330
1F
100
AcDbEntity
  8
基準ﾚｲﾔｸﾞﾙｰﾌﾟ
  6
Continuous
 62
     7
370
    25
100
AcDbBlockReference
  2
FXTIP_ARROW_E
 10
181.3310732478711
 20
24.74125039355978
 30
0.0
 41
4.0
 42
4.0
 50
360.0
  0
LINE
  5
352
330
1F
100
AcDbEntity
  8
基準ﾚｲﾔｸﾞﾙｰﾌﾟ
  6
Continuous
 62
     7
370
    25
100
AcDbLine
 10
128.3310732478709
 20
105.5915953315176
 30
0.0
 11
128.3310732478709
 21
23.74125039355979
 31
0.0
  0
LINE
  5
353
330
1F
100
AcDbEntity
  8
基準ﾚｲﾔｸﾞﾙｰﾌﾟ
  6
Continuous
 62
     7
370
    25
100
AcDbLine
 10
181.3310732478711
 20
105.5915953315176
 30
0.0
 11
181.3310732478711
 21
23.74125039355978
 31
0.0
  0
TEXT
  5
354
330
1F
100
AcDbEntity
  8
基準ﾚｲﾔｸﾞﾙｰﾌﾟ
  6
Continuous
 62
     7
370
    25
100
AcDbText
 10
151.8310699462891
 20
34.66658019967171
 30
0.0
 40
4.0
  1
３５
 41
0.9545454545454547
  7
FX_VECTOR
 72
     5
 11
157.8310699462891
 21
34.66658020071891
 31
0.0
100
AcDbText
  0
LINE
  5
355
330
1F
100
AcDbEntity
  8
基準ﾚｲﾔｸﾞﾙｰﾌﾟ
  6
Continuous
 62
     7
370
    25
100
AcDbLine
 10
137.3310609516047
 20
33.66658014846639
 30
0.0
 11
172.3310855441373
 21
33.66658014846638
 31
0.0
  0
INSERT
  5
356
330
1F
100
AcDbEntity
  8
基準ﾚｲﾔｸﾞﾙｰﾌﾟ
  6
Continuous
 62
     7
370
    25
100
AcDbBlockReference
  2
FXTIP_ARROW_S
 10
137.3310609516047
 20
33.66658014846639
 30
0.0
 41
4.0
 42
4.0
 50
180.0
  0
INSERT
  5
357
330
1F
100
AcDbEntity
  8
基準ﾚｲﾔｸﾞﾙｰﾌﾟ
  6
Continuous
 62
     7
370
    25
100
AcDbBlockReference
  2
FXTIP_ARROW_E
 10
172.3310855441373
 20
33.66658014846638
 30
0.0
 41
4.0
 42
4.0
 50
360.0
  0
LINE
  5
358
330
1F
100
AcDbEntity
  8
基準ﾚｲﾔｸﾞﾙｰﾌﾟ
  6
Continuous
 62
     7
370
    25
100
AcDbLine
 10
137.3310609516047
 20
46.94572543432903
 30
0.0
 11
137.3310609516047
 21
32.66658014846639
 31
0.0
  0
LINE
  5
359
330
1F
100
AcDbEntity
  8
基準ﾚｲﾔｸﾞﾙｰﾌﾟ
  6
Continuous
 62
     7
370
    25
100
AcDbLine
 10
172.3310855441373
 20
46.94573195154349
 30
0.0
 11
172.3310855441373
 21
32.66658014846638
 31
0.0
  0
LINE
  5
35A
330
1F
100
AcDbEntity
  8
基準ﾚｲﾔｸﾞﾙｰﾌﾟ
  6
Continuous
 62
     3
370
    50
100
AcDbLine
 10
115.631073247871
 20
112.4232922732363
 30
0.0
 11
115.631073247871
 21
127.4232922732364
 31
0.0
  0
ARC
  5
35B
330
1F
100
AcDbEntity
  8
基準ﾚｲﾔｸﾞﾙｰﾌﾟ
  6
Continuous
 62
     3
370
    50
100
AcDbCircle
 10
116.631073247871
 20
127.4232922732364
 30
0.0
 40
1.0
100
AcDbArc
 50
90.0
 51
180.0
  0
ARC
  5
35C
330
1F
100
AcDbEntity
  8
基準ﾚｲﾔｸﾞﾙｰﾌﾟ
  6
Continuous
 62
     3
370
    50
100
AcDbCircle
 10
116.631073247871
 20
112.4232922732363
 30
0.0
 40
1.0
100
AcDbArc
 50
180.0
 51
270.0
  0
LINE
  5
35D
330
1F
100
AcDbEntity
  8
基準ﾚｲﾔｸﾞﾙｰﾌﾟ
  6
Continuous
 62
     3
370
    50
100
AcDbLine
 10
117.3902626264259
 20
110.1083376970127
 30
0.0
 11
116.631073247871
 21
111.4232922732363
 31
0.0
  0
LINE
  5
35E
330
1F
100
AcDbEntity
  8
基準ﾚｲﾔｸﾞﾙｰﾌﾟ
  6
Continuous
 62
     3
370
    50
100
AcDbLine
 10
116.631073247871
 20
111.4232922732363
 30
0.0
 11
116.631073247871
 21
128.4232922732363
 31
0.0
  0
LINE
  5
35F
330
1F
100
AcDbEntity
  8
基準ﾚｲﾔｸﾞﾙｰﾌﾟ
  6
Continuous
 62
     3
370
    50
100
AcDbLine
 10
116.631073247871
 20
128.4232922732363
 30
0.0
 11
117.3902626264259
 21
129.73824684946
 31
0.0
  0
ARC
  5
360
330
1F
100
AcDbEntity
  8
基準ﾚｲﾔｸﾞﾙｰﾌﾟ
  6
Continuous
 62
     3
370
    50
100
AcDbCircle
 10
120.9759719201903
 20
112.5620763410686
 30
0.0
 40
4.344898672319338
100
AcDbArc
 50
145.6157525319584
 51
214.3842474680425
  0
ARC
  5
361
330
1F
100
AcDbEntity
  8
基準ﾚｲﾔｸﾞﾙｰﾌﾟ
  6
Continuous
 62
     3
370
    50
100
AcDbCircle
 10
132.871883869316
 20
119.9232922732363
 30
0.0
 40
16.24081062144499
100
AcDbArc
 50
162.4120462260061
 51
197.5879537739939
  0
ARC
  5
362
330
1F
100
AcDbEntity
  8
基準ﾚｲﾔｸﾞﾙｰﾌﾟ
  6
Continuous
 62
     3
370
    50
100
AcDbCircle
 10
120.9759719201904
 20
127.2845082054041
 30
0.0
 40
4.344898672319338
100
AcDbArc
 50
145.6157525319584
 51
214.3842474680425
  0
LINE
  5
363
330
1F
100
AcDbEntity
  8
基準ﾚｲﾔｸﾞﾙｰﾌﾟ
  6
Continuous
 62
     3
370
    50
100
AcDbLine
 10
117.3902626264259
 20
129.73824684946
 30
0.0
 11
123.8718838693163
 21
129.7382468494589
 31
0.0
  0
LINE
  5
364
330
1F
100
AcDbEntity
  8
基準ﾚｲﾔｸﾞﾙｰﾌﾟ
  6
Continuous
 62
     3
370
    50
100
AcDbLine
 10
124.631073247871
 20
111.4232922732363
 30
0.0
 11
123.8718838693162
 21
110.1083376970127
 31
0.0
  0
LINE
  5
365
330
1F
100
AcDbEntity
  8
基準ﾚｲﾔｸﾞﾙｰﾌﾟ
  6
Continuous
 62
     3
370
    50
100
AcDbLine
 10
123.8718838693162
 20
110.1083376970127
 30
0.0
 11
117.3902626264259
 21
110.1083376970127
 31
0.0
  0
ARC
  5
366
330
1F
100
AcDbEntity
  8
基準ﾚｲﾔｸﾞﾙｰﾌﾟ
  6
Continuous
 62
     3
370
    50
100
AcDbCircle
 10
120.2861745755516
 20
112.5620763410686
 30
0.0
 40
4.344898672319338
100
AcDbArc
 50
325.6157525319585
 51
34.38424746804251
  0
ARC
  5
367
330
1F
100
AcDbEntity
  8
基準ﾚｲﾔｸﾞﾙｰﾌﾟ
  6
Continuous
 62
     3
370
    50
100
AcDbCircle
 10
108.390262626426
 20
119.9232922732363
 30
0.0
 40
16.24081062144499
100
AcDbArc
 50
342.4120462260061
 51
17.28017993351368
  0
LINE
  5
368
330
1F
100
AcDbEntity
  8
基準ﾚｲﾔｸﾞﾙｰﾌﾟ
  6
Continuous
 62
     3
370
    50
100
AcDbLine
 10
117.3902626264259
 20
115.0158149851245
 30
0.0
 11
123.8718838693162
 21
115.0158149851245
 31
0.0
  0
LINE
  5
369
330
1F
100
AcDbEntity
  8
基準ﾚｲﾔｸﾞﾙｰﾌﾟ
  6
Continuous
 62
     3
370
    50
100
AcDbLine
 10
117.3902626264259
 20
124.8307695613481
 30
0.0
 11
123.8718838693161
 21
124.8307695613481
 31
0.0
  0
LINE
  5
36A
330
1F
100
AcDbEntity
  8
基準ﾚｲﾔｸﾞﾙｰﾌﾟ
  6
Continuous
 62
     3
370
    50
100
AcDbLine
 10
124.631073247871
 20
128.4232922732363
 30
0.0
 11
123.8718838693162
 21
129.7382468494599
 31
0.0
  0
ARC
  5
36B
330
1F
100
AcDbEntity
  8
基準ﾚｲﾔｸﾞﾙｰﾌﾟ
  6
Continuous
 62
     3
370
    50
100
AcDbCircle
 10
120.2861745755516
 20
127.284508205404
 30
0.0
 40
4.344898672319338
100
AcDbArc
 50
325.6157525319575
 51
34.38424746804154
  0
LINE
  5
36C
330
1F
100
AcDbEntity
  8
基準ﾚｲﾔｸﾞﾙｰﾌﾟ
  6
Continuous
 62
     3
370
    50
100
AcDbLine
 10
172.3310609516051
 20
187.9246633303944
 30
0.0
 11
172.3310609516052
 21
191.9008525949291
 31
0.0
  0
ARC
  5
36D
330
1F
100
AcDbEntity
  8
基準ﾚｲﾔｸﾞﾙｰﾌﾟ
  6
Continuous
 62
     3
370
    50
100
AcDbCircle
 10
154.8310486553396
 20
74.9232922732349
 30
0.0
 40
120.0
100
AcDbArc
 50
82.45204050467717
 51
97.54793540440804
  0
LINE
  5
36E
330
1F
100
AcDbEntity
  8
基準ﾚｲﾔｸﾞﾙｰﾌﾟ
  6
Continuous
 62
     3
370
    50
100
AcDbLine
 10
137.3310855441368
 20
187.9246633303944
 30
0.0
 11
137.3310855441368
 21
191.9008591121436
 31
0.0
  0
LINE
  5
36F
330
1F
100
AcDbEntity
  8
基準ﾚｲﾔｸﾞﾙｰﾌﾟ
  6
Continuous
 62
     3
370
    50
100
AcDbLine
 10
137.3310609516047
 20
47.94572543432903
 30
0.0
 11
137.3310609516051
 21
187.9246633303944
 31
0.0
  0
LINE
  5
370
330
1F
100
AcDbEntity
  8
基準ﾚｲﾔｸﾞﾙｰﾌﾟ
  6
Continuous
 62
     3
370
    50
100
AcDbLine
 10
172.3310855441373
 20
47.94573195154349
 30
0.0
 11
172.3310855441369
 21
187.9246633303944
 31
0.0
  0
LINE
  5
371
330
1F
100
AcDbEntity
  8
基準ﾚｲﾔｸﾞﾙｰﾌﾟ
  6
Continuous
 62
     3
370
    50
100
AcDbLine
 10
172.331085544137
 20
136.2584284747817
 30
0.0
 11
179.6094194497912
 21
135.2355253524382
 31
0.0
  0
LINE
  5
372
330
1F
100
AcDbEntity
  8
基準ﾚｲﾔｸﾞﾙｰﾌﾟ
  6
Continuous
 62
     3
370
    50
100
AcDbLine
 10
137.3310609516049
 20
136.2584284747817
 30
0.0
 11
130.0527270459507
 21
135.2355253524382
 31
0.0
  0
ARC
  5
373
330
1F
100
AcDbEntity
  8
基準ﾚｲﾔｸﾞﾙｰﾌﾟ
  6
Continuous
 62
     3
370
    50
100
AcDbCircle
 10
154.8310486553396
 20
164.9232922732377
 30
0.0
 40
120.0
100
AcDbArc
 50
262.4520645955919
 51
277.5479594953228
  0
LINE
  5
374
330
1F
100
AcDbEntity
  8
基準ﾚｲﾔｸﾞﾙｰﾌﾟ
  6
Continuous
 62
     3
370
    50
100
AcDbLine
 10
181.3310732478711
 20
106.5915953315175
 30
0.0
 11
181.3310732478711
 21
133.2549892149551
 31
0.0
  0
LINE
  5
375
330
1F
100
AcDbEntity
  8
基準ﾚｲﾔｸﾞﾙｰﾌﾟ
  6
Continuous
 62
     3
370
    50
100
AcDbLine
 10
128.3310732478709
 20
106.5915953315176
 30
0.0
 11
128.3310732478709
 21
133.2549892149551
 31
0.0
  0
ARC
  5
376
330
1F
100
AcDbEntity
  8
基準ﾚｲﾔｸﾞﾙｰﾌﾟ
  6
Continuous
 62
     3
370
    50
100
AcDbCircle
 10
130.3310732478709
 20
133.2549892149551
 30
0.0
 40
2.0
100
AcDbArc
 50
98.00000000000077
 51
180.0
  0
ARC
  5
377
330
1F
100
AcDbEntity
  8
基準ﾚｲﾔｸﾞﾙｰﾌﾟ
  6
Continuous
 62
     3
370
    50
100
AcDbCircle
 10
179.3310732478711
 20
133.2549892149551
 30
0.0
 40
2.0
100
AcDbArc
 50
0.0000000000008142
 51
81.99999999999926
  0
ARC
  5
378
330
1F
100
AcDbEntity
  8
基準ﾚｲﾔｸﾞﾙｰﾌﾟ
  6
Continuous
 62
     3
370
    50
100
AcDbCircle
 10
139.3310855441368
 20
191.9008591121436
 30
0.0
 40
2.0
100
AcDbArc
 50
97.54793540440771
 51
180.0
  0
ARC
  5
379
330
1F
100
AcDbEntity
  8
基準ﾚｲﾔｸﾞﾙｰﾌﾟ
  6
Continuous
 62
     3
370
    50
100
AcDbCircle
 10
170.3310609516052
 20
191.9008525949291
 30
0.0
 40
2.0
100
AcDbArc
 50
0.0
 51
82.45204050467713
  0
ARC
  5
37A
330
1F
100
AcDbEntity
  8
基準ﾚｲﾔｸﾞﾙｰﾌﾟ
  6
Continuous
 62
     3
370
    50
100
AcDbCircle
 10
139.3310855441368
 20
47.94572543432903
 30
0.0
 40
2.0
100
AcDbArc
 50
180.0
 51
262.4520645955927
  0
ARC
  5
37B
330
1F
100
AcDbEntity
  8
基準ﾚｲﾔｸﾞﾙｰﾌﾟ
  6
Continuous
 62
     3
370
    50
100
AcDbCircle
 10
170.3310609516051
 20
47.94573195154351
 30
0.0
 40
2.0
100
AcDbArc
 50
277.5479594953229
 51
359.9999999999996
  0
LINE
  5
37C
330
1F
100
AcDbEntity
  8
基準ﾚｲﾔｸﾞﾙｰﾌﾟ
  6
Continuous
 62
     3
370
    50
100
AcDbLine
 10
172.331085544137
 20
103.588156071691
 30
0.0
 11
179.6094194497912
 21
104.6110591940344
 31
0.0
  0
LINE
  5
37D
330
1F
100
AcDbEntity
  8
基準ﾚｲﾔｸﾞﾙｰﾌﾟ
  6
Continuous
 62
     3
370
    50
100
AcDbLine
 10
137.3310609516049
 20
103.588156071691
 30
0.0
 11
130.0527270459507
 21
104.6110591940344
 31
0.0
  0
ARC
  5
37E
330
1F
100
AcDbEntity
  8
基準ﾚｲﾔｸﾞﾙｰﾌﾟ
  6
Continuous
 62
     3
370
    50
100
AcDbCircle
 10
130.3310732478709
 20
106.5915953315176
 30
0.0
 40
2.0
100
AcDbArc
 50
180.0
 51
261.9999999999992
  0
ARC
  5
37F
330
1F
100
AcDbEntity
  8
基準ﾚｲﾔｸﾞﾙｰﾌﾟ
  6
Continuous
 62
     3
370
    50
100
AcDbCircle
 10
179.3310732478711
 20
106.5915953315176
 30
0.0
 40
2.0
100
AcDbArc
 50
278.0000000000007
 51
359.9999999999993
  0
ARC
  5
380
330
1F
100
AcDbEntity
  8
基準ﾚｲﾔｸﾞﾙｰﾌﾟ
  6
Continuous
 62
     6
370
    25
100
AcDbCircle
 10
319.985872009481
 20
119.9232922732363
 30
0.0
 40
67.00000000000006
100
AcDbArc
 50
98.43308437809505
 51
45.53942695995927
  0
ARC
  5
381
330
1F
100
AcDbEntity
  8
基準ﾚｲﾔｸﾞﾙｰﾌﾟ
  6
Continuous
 62
     6
370
    25
100
AcDbCircle
 10
319.985872009481
 20
119.9232922732363
 30
0.0
 40
25.17390995343794
100
AcDbArc
 50
132.4113108009361
 51
10.00554191307719
  0
ARC
  5
382
330
1F
100
AcDbEntity
  8
基準ﾚｲﾔｸﾞﾙｰﾌﾟ
  6
Continuous
 62
     6
370
    25
100
AcDbCircle
 10
319.985872009481
 20
119.9232922732363
 30
0.0
 40
73.71709889325214
100
AcDbArc
 50
96.84710529200134
 51
47.17447080003431
  0
ARC
  5
383
330
1F
100
AcDbEntity
  8
基準ﾚｲﾔｸﾞﾙｰﾌﾟ
  6
Continuous
 62
     6
370
    25
100
AcDbCircle
 10
319.985872009481
 20
119.9232922732363
 30
0.0
 40
64.92286392405097
100
AcDbArc
 50
98.9930743118353
 51
44.9619090082645
  0
INSERT
  5
387
330
1F
100
AcDbEntity
  8
基準ﾚｲﾔｸﾞﾙｰﾌﾟ
  6
Continuous
 62
     7
370
    25
100
AcDbBlockReference
  2
BLKF023
 10
0.0
 20
0.0
 30
0.0
  0
LINE
  5
3DF
330
1F
100
AcDbEntity
  8
基準ﾚｲﾔｸﾞﾙｰﾌﾟ
  6
Continuous
 62
     7
370
    25
100
AcDbLine
 10
254.8951413873509
 20
89.75241533076439
 30
0.0
 11
258.0545300342445
 21
91.17526003570885
 31
0.0
  0
LINE
  5
3E0
330
1F
100
AcDbEntity
  8
基準ﾚｲﾔｸﾞﾙｰﾌﾟ
  6
Continuous
 62
     7
370
    25
100
AcDbLine
 10
258.0545300342445
 20
91.17526003570885
 30
0.0
 11
256.6316853293
 21
94.33464868260245
 31
0.0
  0
LINE
  5
3E1
330
1F
100
AcDbEntity
  8
基準ﾚｲﾔｸﾞﾙｰﾌﾟ
  6
Continuous
 62
     7
370
    25
100
AcDbLine
 10
256.6316853293
 20
94.33464868260245
 30
0.0
 11
253.4722966824064
 21
92.91180397765808
 31
0.0
  0
LINE
  5
3E2
330
1F
100
AcDbEntity
  8
基準ﾚｲﾔｸﾞﾙｰﾌﾟ
  6
Continuous
 62
     7
370
    25
100
AcDbLine
 10
253.4722966824064
 20
92.91180397765808
 30
0.0
 11
254.8951413873509
 21
89.75241533076439
 31
0.0
  0
LINE
  5
3E3
330
1F
100
AcDbEntity
  8
基準ﾚｲﾔｸﾞﾙｰﾌﾟ
  6
Continuous
 62
     7
370
    25
100
AcDbLine
 10
256.4341487846199
 20
90.55418191560202
 30
0.0
 11
254.274063267244
 21
91.37279658038915
 31
0.0
  0
LINE
  5
3E4
330
1F
100
AcDbEntity
  8
基準ﾚｲﾔｸﾞﾙｰﾌﾟ
  6
Continuous
 62
     7
370
    25
100
AcDbLine
 10
254.274063267244
 20
91.37279658038915
 30
0.0
 11
255.0058507349336
 21
93.30377043017307
 31
0.0
  0
LINE
  5
3E5
330
1F
100
AcDbEntity
  8
基準ﾚｲﾔｸﾞﾙｰﾌﾟ
  6
Continuous
 62
     7
370
    25
100
AcDbLine
 10
255.0058507349336
 20
93.30377043017307
 30
0.0
 11
255.341218448081
 21
92.55909538463243
 31
0.0
  0
LINE
  5
3E6
330
1F
100
AcDbEntity
  8
基準ﾚｲﾔｸﾞﾙｰﾌﾟ
  6
Continuous
 62
     7
370
    25
100
AcDbLine
 10
255.341218448081
 20
92.55909538463243
 30
0.0
 11
255.0187383127847
 21
91.70816429353636
 31
0.0
  0
LINE
  5
3E7
330
1F
100
AcDbEntity
  8
基準ﾚｲﾔｸﾞﾙｰﾌﾟ
  6
Continuous
 62
     7
370
    25
100
AcDbLine
 10
255.0187383127847
 20
91.70816429353636
 30
0.0
 11
256.0987810714727
 21
91.2988569611428
 31
0.0
  0
LINE
  5
3E8
330
1F
100
AcDbEntity
  8
基準ﾚｲﾔｸﾞﾙｰﾌﾟ
  6
Continuous
 62
     7
370
    25
100
AcDbLine
 10
256.0987810714727
 20
91.2988569611428
 30
0.0
 11
256.5080884038662
 21
92.37889971983068
 31
0.0
  0
LINE
  5
3E9
330
1F
100
AcDbEntity
  8
基準ﾚｲﾔｸﾞﾙｰﾌﾟ
  6
Continuous
 62
     7
370
    25
100
AcDbLine
 10
256.5080884038662
 20
92.37889971983068
 30
0.0
 11
255.9402711182965
 21
92.59408729140972
 31
0.0
  0
ARC
  5
3EA
330
1F
100
AcDbEntity
  8
基準ﾚｲﾔｸﾞﾙｰﾌﾟ
  6
Continuous
 62
     7
370
    25
100
AcDbCircle
 10
255.9198057516767
 20
92.54008515347522
 30
0.0
 40
0.057749996817
100
AcDbArc
 50
69.24463115962384
 51
204.2446311596239
  0
LINE
  5
3EB
330
1F
100
AcDbEntity
  8
基準ﾚｲﾔｸﾞﾙｰﾌﾟ
  6
Continuous
 62
     7
370
    25
100
AcDbLine
 10
255.8671492742286
 20
92.51637107505945
 30
0.0
 11
256.0266957455665
 21
92.16210239876216
 31
0.0
  0
LINE
  5
3EC
330
1F
100
AcDbEntity
  8
基準ﾚｲﾔｸﾞﾙｰﾌﾟ
  6
Continuous
 62
     7
370
    25
100
AcDbLine
 10
256.0266957455667
 20
92.16210239876216
 30
0.0
 11
255.7634133583255
 21
92.04353200668353
 31
0.0
  0
LINE
  5
3ED
330
1F
100
AcDbEntity
  8
基準ﾚｲﾔｸﾞﾙｰﾌﾟ
  6
Continuous
 62
     7
370
    25
100
AcDbLine
 10
255.7634133583255
 20
92.04353200668353
 30
0.0
 11
255.092677932031
 21
93.53288209776491
 31
0.0
  0
LINE
  5
3EE
330
1F
100
AcDbEntity
  8
基準ﾚｲﾔｸﾞﾙｰﾌﾟ
  6
Continuous
 62
     7
370
    25
100
AcDbLine
 10
255.092677932031
 20
93.53288209776491
 30
0.0
 11
256.1586138630004
 21
94.0129310770765
 31
0.0
  0
LINE
  5
3EF
330
1F
100
AcDbEntity
  8
基準ﾚｲﾔｸﾞﾙｰﾌﾟ
  6
Continuous
 62
     7
370
    25
100
AcDbLine
 10
256.1586138630004
 20
94.0129310770765
 30
0.0
 11
256.3957546471577
 21
93.48636630259432
 31
0.0
  0
LINE
  5
3F0
330
1F
100
AcDbEntity
  8
基準ﾚｲﾔｸﾞﾙｰﾌﾟ
  6
Continuous
 62
     7
370
    25
100
AcDbLine
 10
256.3957546471577
 20
93.48636630259432
 30
0.0
 11
255.983507472673
 21
93.3007089571706
 31
0.0
  0
ARC
  5
3F1
330
1F
100
AcDbEntity
  8
基準ﾚｲﾔｸﾞﾙｰﾌﾟ
  6
Continuous
 62
     7
370
    25
100
AcDbCircle
 10
256.0072215510888
 20
93.24805247972222
 30
0.0
 40
0.057749996817
100
AcDbArc
 50
114.2446311596238
 51
249.2446311596267
  0
LINE
  5
3F2
330
1F
100
AcDbEntity
  8
基準ﾚｲﾔｸﾞﾙｰﾌﾟ
  6
Continuous
 62
     7
370
    25
100
AcDbLine
 10
255.9867561844691
 20
93.194050341788
 30
0.0
 11
257.2527634494069
 21
92.71426743297792
 31
0.0
  0
LINE
  5
3F3
330
1F
100
AcDbEntity
  8
基準ﾚｲﾔｸﾞﾙｰﾌﾟ
  6
Continuous
 62
     7
370
    25
100
AcDbLine
 10
257.2527634494069
 20
92.71426743297792
 30
0.0
 11
256.4341487846199
 21
90.55418191560202
 31
0.0
  0
INSERT
  5
3F7
330
1F
100
AcDbEntity
  8
基準ﾚｲﾔｸﾞﾙｰﾌﾟ
  6
Continuous
 62
     7
370
    25
100
AcDbBlockReference
  2
BLKF024
 10
0.0
 20
0.0
 30
0.0
  0
INSERT
  5
406
330
1F
100
AcDbEntity
  8
基準ﾚｲﾔｸﾞﾙｰﾌﾟ
  6
Continuous
 62
     7
370
    25
100
AcDbBlockReference
  2
BLKF025
 10
0.0
 20
0.0
 30
0.0
  0
LINE
  5
40D
330
1F
100
AcDbEntity
  8
基準ﾚｲﾔｸﾞﾙｰﾌﾟ
  6
Continuous
 62
     3
370
    50
100
AcDbLine
 10
248.0083051705697
 20
362.9233045695026
 30
0.0
 11
308.9875201827195
 21
362.9233045695024
 31
0.0
  0
LINE
  5
40E
330
1F
100
AcDbEntity
  8
基準ﾚｲﾔｸﾞﾙｰﾌﾟ
  6
Continuous
 62
     3
370
    50
100
AcDbLine
 10
248.0083116877842
 20
327.92327997697
 30
0.0
 11
308.9875201827195
 21
327.9232799769702
 31
0.0
  0
ARC
  5
40F
330
1F
100
AcDbEntity
  8
基準ﾚｲﾔｸﾞﾙｰﾌﾟ
  6
Continuous
 62
     3
370
    50
100
AcDbCircle
 10
364.9858720094784
 20
345.4233168657677
 30
0.0
 40
120.0
100
AcDbArc
 50
172.4520645955919
 51
187.5479594953228
  0
ARC
  5
410
330
1F
100
AcDbEntity
  8
基準ﾚｲﾔｸﾞﾙｰﾌﾟ
  6
Continuous
 62
     3
370
    50
100
AcDbCircle
 10
248.0083051705697
 20
360.9232799769705
 30
0.0
 40
2.0
100
AcDbArc
 50
89.99999999999996
 51
172.4520645955926
  0
ARC
  5
411
330
1F
100
AcDbEntity
  8
基準ﾚｲﾔｸﾞﾙｰﾌﾟ
  6
Continuous
 62
     3
370
    50
100
AcDbCircle
 10
248.0083116877842
 20
329.9233045695022
 30
0.0
 40
2.0
100
AcDbArc
 50
187.5479594953228
 51
269.9999999999995
  0
LINE
  5
412
330
1F
100
AcDbEntity
  8
基準ﾚｲﾔｸﾞﾙｰﾌﾟ
  6
Continuous
 62
     3
370
    50
100
AcDbLine
 10
306.6541750677582
 20
318.9232922732362
 30
0.0
 11
308.9875201827195
 21
318.9232922732362
 31
0.0
  0
LINE
  5
413
330
1F
100
AcDbEntity
  8
基準ﾚｲﾔｸﾞﾙｰﾌﾟ
  6
Continuous
 62
     3
370
    50
100
AcDbLine
 10
306.6541750677582
 20
371.9232922732364
 30
0.0
 11
308.9875201827195
 21
371.9232922732364
 31
0.0
  0
LINE
  5
414
330
1F
100
AcDbEntity
  8
基準ﾚｲﾔｸﾞﾙｰﾌﾟ
  6
Continuous
 62
     3
370
    50
100
AcDbLine
 10
303.6507358079317
 20
327.9232799769702
 30
0.0
 11
304.6736389302751
 21
320.644946071316
 31
0.0
  0
LINE
  5
415
330
1F
100
AcDbEntity
  8
基準ﾚｲﾔｸﾞﾙｰﾌﾟ
  6
Continuous
 62
     3
370
    50
100
AcDbLine
 10
303.6507358079317
 20
362.9233045695024
 30
0.0
 11
304.6736389302751
 21
370.2016384751565
 31
0.0
  0
ARC
  5
416
330
1F
100
AcDbEntity
  8
基準ﾚｲﾔｸﾞﾙｰﾌﾟ
  6
Continuous
 62
     3
370
    50
100
AcDbCircle
 10
306.6541750677582
 20
369.9232922732364
 30
0.0
 40
2.0
100
AcDbArc
 50
90.0
 51
171.9999999999992
  0
ARC
  5
417
330
1F
100
AcDbEntity
  8
基準ﾚｲﾔｸﾞﾙｰﾌﾟ
  6
Continuous
 62
     3
370
    50
100
AcDbCircle
 10
306.6541750677582
 20
320.9232922732362
 30
0.0
 40
2.0
100
AcDbArc
 50
188.0000000000007
 51
269.9999999999992
  0
LINE
  5
418
330
1F
100
AcDbEntity
  8
基準ﾚｲﾔｸﾞﾙｰﾌﾟ
  6
Continuous
 62
     3
370
    50
100
AcDbLine
 10
127.131073247871
 20
125.9232922732363
 30
0.0
 11
128.3310732478709
 21
125.9232922732363
 31
0.0
  0
LINE
  5
419
330
1F
100
AcDbEntity
  8
基準ﾚｲﾔｸﾞﾙｰﾌﾟ
  6
Continuous
 62
     3
370
    50
100
AcDbLine
 10
127.131073247871
 20
113.9232922732363
 30
0.0
 11
128.3310732478709
 21
113.9232922732363
 31
0.0
  0
LINE
  5
41A
330
1F
100
AcDbEntity
  8
基準ﾚｲﾔｸﾞﾙｰﾌﾟ
  6
Continuous
 62
     3
370
    50
100
AcDbLine
 10
181.331073247871
 20
125.9232922732363
 30
0.0
 11
182.531073247871
 21
125.9232922732364
 31
0.0
  0
LINE
  5
41B
330
1F
100
AcDbEntity
  8
基準ﾚｲﾔｸﾞﾙｰﾌﾟ
  6
Continuous
 62
     3
370
    50
100
AcDbLine
 10
181.331073247871
 20
113.9232922732363
 30
0.0
 11
182.531073247871
 21
113.9232922732363
 31
0.0
  0
ENDSEC
  0
SECTION
  2
OBJECTS
  0
DICTIONARY
  5
C
330
0
100
AcDbDictionary
281
     1
  3
ACAD_GROUP
350
D
  3
ACAD_LAYOUT
350
1A
  3
ACAD_MATERIAL
350
43
  3
ACAD_MLEADERSTYLE
350
6B
  3
ACAD_MLINESTYLE
350
17
  3
ACAD_PLOTSETTINGS
350
19
  3
ACAD_PLOTSTYLENAME
350
E
  3
ACAD_SCALELIST
350
47
  3
ACAD_TABLESTYLE
350
69
  3
ACAD_VISUALSTYLE
350
2A
  3
AcDbVariableDictionary
350
41C
  0
DICTIONARY
  5
426
330
8
100
AcDbDictionary
280
     1
281
     1
  3
ACAD_XREC_ROUNDTRIP
360
427
  0
DICTIONARY
  5
D
102
{ACAD_REACTORS
330
C
102
}
330
C
100
AcDbDictionary
281
     1
  0
DICTIONARY
  5
1A
102
{ACAD_REACTORS
330
C
102
}
330
C
100
AcDbDictionary
281
     1
  3
Layout1
350
1E
  3
Layout2
350
26
  3
Model
350
22
  0
DICTIONARY
  5
43
102
{ACAD_REACTORS
330
C
102
}
330
C
100
AcDbDictionary
281
     1
  3
ByBlock
350
45
  3
ByLayer
350
44
  3
Global
350
46
  0
DICTIONARY
  5
6B
102
{ACAD_REACTORS
330
C
102
}
330
C
100
AcDbDictionary
281
     1
  3
Standard
350
6C
  0
DICTIONARY
  5
17
102
{ACAD_REACTORS
330
C
102
}
330
C
100
AcDbDictionary
281
     1
  3
Standard
350
18
  0
DICTIONARY
  5
19
102
{ACAD_REACTORS
330
C
102
}
330
C
100
AcDbDictionary
281
     1
  0
ACDBDICTIONARYWDFLT
  5
E
102
{ACAD_REACTORS
330
C
102
}
330
C
100
AcDbDictionary
281
     1
  3
Normal
350
F
100
AcDbDictionaryWithDefault
340
F
  0
DICTIONARY
  5
47
102
{ACAD_REACTORS
330
C
102
}
330
C
100
AcDbDictionary
281
     1
  3
A0
350
48
  3
A1
350
49
  3
A2
350
4A
  3
A3
350
4B
  3
A4
350
4C
  3
A5
350
4D
  3
A6
350
4E
  3
A7
350
4F
  3
A8
350
50
  3
A9
350
51
  3
B0
350
52
  3
B1
350
53
  3
B2
350
54
  3
B3
350
55
  3
B4
350
56
  3
B5
350
57
  3
B6
350
58
  3
B7
350
59
  3
B8
350
5A
  3
B9
350
5B
  3
C0
350
5C
  3
C1
350
5D
  3
C2
350
5E
  3
C3
350
5F
  3
C4
350
60
  3
C5
350
61
  3
C6
350
62
  3
C7
350
63
  3
C8
350
64
  3
C9
350
65
  3
D0
350
66
  3
D1
350
67
  3
D2
350
68
  0
DICTIONARY
  5
69
102
{ACAD_REACTORS
330
C
102
}
330
C
100
AcDbDictionary
281
     1
  3
Standard
350
6A
  0
DICTIONARY
  5
2A
102
{ACAD_REACTORS
330
C
102
}
330
C
100
AcDbDictionary
281
     1
  3
2dWireframe
350
2F
  3
Basic
350
32
  3
Brighten
350
36
  3
ColorChange
350
3A
  3
Conceptual
350
34
  3
Dim
350
35
  3
EdgeColorOff
350
3D
  3
Facepattern
350
39
  3
Flat
350
2B
  3
FlatWithEdges
350
2C
  3
Gouraud
350
2D
  3
GouraudWithEdges
350
2E
  3
Hidden
350
31
  3
JitterOff
350
3B
  3
Linepattern
350
38
  3
OverhangOff
350
3C
  3
Realistic
350
33
  3
Shaded
350
42
  3
Shaded with edges
350
41
  3
Shades of Gray
350
3E
  3
Sketchy
350
3F
  3
Thicken
350
37
  3
Wireframe
350
30
  3
X-Ray
350
40
  0
DICTIONARY
  5
41C
102
{ACAD_REACTORS
330
C
102
}
330
C
100
AcDbDictionary
281
     1
  3
CANNOSCALE
350
428
  3
CMLEADERSTYLE
350
41E
  3
CTABLESTYLE
350
41D
  3
DIMASSOC
350
424
  3
HIDETEXT
350
425
  3
MSLTSCALE
350
429
  3
PSOLHEIGHT
350
420
  3
PSOLWIDTH
350
41F
  3
SECTIONTHICKNESSINC
350
423
  0
XRECORD
  5
427
102
{ACAD_REACTORS
330
426
102
}
330
426
100
AcDbXrecord
280
     1
102
VTR_0.000_0.000_1.000_1.000_VISUALSTYLE
340
2F
102
VTR_0.000_0.000_1.000_1.000_GRIDDISPLAY
 70
     3
102
VTR_0.000_0.000_1.000_1.000_GRIDMAJOR
 70
     5
102
VTR_0.000_0.000_1.000_1.000_DEFAULTLIGHTING
280
     1
102
VTR_0.000_0.000_1.000_1.000_DEFAULTLIGHTINGTYPE
 70
     1
102
VTR_0.000_0.000_1.000_1.000_BRIGHTNESS
141
0.0
102
VTR_0.000_0.000_1.000_1.000_CONTRAST
142
0.0
  0
LAYOUT
  5
1E
102
{ACAD_REACTORS
330
1A
102
}
330
1A
100
AcDbPlotSettings
  1

  2
none_device
  4

  6

 40
0.0
 41
0.0
 42
0.0
 43
0.0
 44
0.0
 45
0.0
 46
0.0
 47
0.0
 48
0.0
 49
0.0
140
0.0
141
0.0
142
1.0
143
1.0
 70
   688
 72
     1
 73
     0
 74
     5
  7

 75
    16
147
1.0
148
0.0
149
0.0
100
AcDbLayout
  1
Layout1
 70
     1
 71
     1
 10
0.0
 20
0.0
 11
420.0
 21
297.0
 12
0.0
 22
0.0
 32
0.0
 14
1.000000000000000E+20
 24
1.000000000000000E+20
 34
1.000000000000000E+20
 15
-1.000000000000000E+20
 25
-1.000000000000000E+20
 35
-1.000000000000000E+20
146
0.0
 13
0.0
 23
0.0
 33
0.0
 16
1.0
 26
0.0
 36
0.0
 17
0.0
 27
1.0
 37
0.0
 76
     0
330
1B
  0
LAYOUT
  5
26
102
{ACAD_REACTORS
330
1A
102
}
330
1A
100
AcDbPlotSettings
  1

  2
none_device
  4

  6

 40
0.0
 41
0.0
 42
0.0
 43
0.0
 44
0.0
 45
0.0
 46
0.0
 47
0.0
 48
0.0
 49
0.0
140
0.0
141
0.0
142
1.0
143
1.0
 70
   688
 72
     1
 73
     0
 74
     5
  7

 75
    16
147
1.0
148
0.0
149
0.0
100
AcDbLayout
  1
Layout2
 70
     1
 71
     2
 10
0.0
 20
0.0
 11
0.0
 21
0.0
 12
0.0
 22
0.0
 32
0.0
 14
0.0
 24
0.0
 34
0.0
 15
0.0
 25
0.0
 35
0.0
146
0.0
 13
0.0
 23
0.0
 33
0.0
 16
1.0
 26
0.0
 36
0.0
 17
0.0
 27
1.0
 37
0.0
 76
     0
330
23
  0
LAYOUT
  5
22
102
{ACAD_REACTORS
330
1A
102
}
330
1A
100
AcDbPlotSettings
  1

  2
none_device
  4
Letter_(8.50_x_11.00_Inches)
  6

 40
6.35
 41
6.35
 42
6.35000508
 43
6.35000508
 44
215.9
 45
279.4
 46
0.0
 47
0.0
 48
0.0
 49
0.0
140
0.0
141
0.0
142
1.0
143
1.0
 70
  1712
 72
     1
 73
     0
 74
     0
  7

 75
     0
147
1.0
148
0.0
149
0.0
100
AcDbLayout
  1
Model
 70
     1
 71
     0
 10
0.0
 20
0.0
 11
594.0
 21
420.0
 12
0.0
 22
0.0
 32
0.0
 14
0.0
 24
0.0
 34
0.0
 15
594.0
 25
420.0
 35
0.0
146
0.0
 13
0.0
 23
0.0
 33
0.0
 16
1.0
 26
0.0
 36
0.0
 17
0.0
 27
1.0
 37
0.0
 76
     0
330
1F
331
29
  0
MATERIAL
  5
45
102
{ACAD_REACTORS
330
43
102
}
102
{ACAD_XDICTIONARY
360
45C
102
}
330
43
100
AcDbMaterial
  1
ByBlock
  0
MATERIAL
  5
44
102
{ACAD_REACTORS
330
43
102
}
102
{ACAD_XDICTIONARY
360
45A
102
}
330
43
100
AcDbMaterial
  1
ByLayer
  0
MATERIAL
  5
46
102
{ACAD_REACTORS
330
43
102
}
102
{ACAD_XDICTIONARY
360
45E
102
}
330
43
100
AcDbMaterial
  1
Global
  0
MLEADERSTYLE
  5
6C
102
{ACAD_REACTORS
330
6B
102
}
102
{ACAD_XDICTIONARY
360
461
102
}
330
6B
100
AcDbMLeaderStyle
170
     2
171
     1
172
     0
 90
        2
 40
0.0
 41
0.0
173
     1
 91
-1056964608
340
14
 92
       -2
290
     1
 42
2.0
291
     1
 43
8.0
  3
Standard
341
0
 44
4.0
300

342
11
174
     1
178
     6
175
     1
176
     0
 93
-1056964608
 45
4.0
292
     0
297
     0
 46
4.0
343
0
 94
-1056964608
 47
1.0
 49
1.0
140
1.0
293
     1
141
0.0
294
     1
177
     0
142
1.0
295
     0
296
     0
143
3.75
1001
ACAD_MLEADERVER
1070
     2
  0
MLINESTYLE
  5
18
102
{ACAD_REACTORS
330
17
102
}
330
17
100
AcDbMlineStyle
  2
Standard
 70
     0
  3

 62
   256
 51
90.0
 52
90.0
 71
     2
 49
0.5
 62
   256
  6
BYLAYER
 49
-0.5
 62
   256
  6
BYLAYER
  0
ACDBPLACEHOLDER
  5
F
102
{ACAD_REACTORS
330
E
102
}
330
E
  0
SCALE
  5
48
102
{ACAD_REACTORS
330
47
102
}
330
47
100
AcDbScale
 70
     0
300
1:1
140
1.0
141
1.0
290
     1
  0
SCALE
  5
49
102
{ACAD_REACTORS
330
47
102
}
330
47
100
AcDbScale
 70
     0
300
1:2
140
1.0
141
2.0
290
     0
  0
SCALE
  5
4A
102
{ACAD_REACTORS
330
47
102
}
330
47
100
AcDbScale
 70
     0
300
1:4
140
1.0
141
4.0
290
     0
  0
SCALE
  5
4B
102
{ACAD_REACTORS
330
47
102
}
330
47
100
AcDbScale
 70
     0
300
1:5
140
1.0
141
5.0
290
     0
  0
SCALE
  5
4C
102
{ACAD_REACTORS
330
47
102
}
330
47
100
AcDbScale
 70
     0
300
1:8
140
1.0
141
8.0
290
     0
  0
SCALE
  5
4D
102
{ACAD_REACTORS
330
47
102
}
330
47
100
AcDbScale
 70
     0
300
1:10
140
1.0
141
10.0
290
     0
  0
SCALE
  5
4E
102
{ACAD_REACTORS
330
47
102
}
330
47
100
AcDbScale
 70
     0
300
1:16
140
1.0
141
16.0
290
     0
  0
SCALE
  5
4F
102
{ACAD_REACTORS
330
47
102
}
330
47
100
AcDbScale
 70
     0
300
1:20
140
1.0
141
20.0
290
     0
  0
SCALE
  5
50
102
{ACAD_REACTORS
330
47
102
}
330
47
100
AcDbScale
 70
     0
300
1:30
140
1.0
141
30.0
290
     0
  0
SCALE
  5
51
102
{ACAD_REACTORS
330
47
102
}
330
47
100
AcDbScale
 70
     0
300
1:40
140
1.0
141
40.0
290
     0
  0
SCALE
  5
52
102
{ACAD_REACTORS
330
47
102
}
330
47
100
AcDbScale
 70
     0
300
1:50
140
1.0
141
50.0
290
     0
  0
SCALE
  5
53
102
{ACAD_REACTORS
330
47
102
}
330
47
100
AcDbScale
 70
     0
300
1:100
140
1.0
141
100.0
290
     0
  0
SCALE
  5
54
102
{ACAD_REACTORS
330
47
102
}
330
47
100
AcDbScale
 70
     0
300
2:1
140
2.0
141
1.0
290
     0
  0
SCALE
  5
55
102
{ACAD_REACTORS
330
47
102
}
330
47
100
AcDbScale
 70
     0
300
4:1
140
4.0
141
1.0
290
     0
  0
SCALE
  5
56
102
{ACAD_REACTORS
330
47
102
}
330
47
100
AcDbScale
 70
     0
300
8:1
140
8.0
141
1.0
290
     0
  0
SCALE
  5
57
102
{ACAD_REACTORS
330
47
102
}
330
47
100
AcDbScale
 70
     0
300
10:1
140
10.0
141
1.0
290
     0
  0
SCALE
  5
58
102
{ACAD_REACTORS
330
47
102
}
330
47
100
AcDbScale
 70
     0
300
100:1
140
100.0
141
1.0
290
     0
  0
SCALE
  5
59
102
{ACAD_REACTORS
330
47
102
}
330
47
100
AcDbScale
 70
     0
300
1/128" = 1'-0"
140
0.0078125
141
12.0
290
     0
  0
SCALE
  5
5A
102
{ACAD_REACTORS
330
47
102
}
330
47
100
AcDbScale
 70
     0
300
1/64" = 1'-0"
140
0.015625
141
12.0
290
     0
  0
SCALE
  5
5B
102
{ACAD_REACTORS
330
47
102
}
330
47
100
AcDbScale
 70
     0
300
1/32" = 1'-0"
140
0.03125
141
12.0
290
     0
  0
SCALE
  5
5C
102
{ACAD_REACTORS
330
47
102
}
330
47
100
AcDbScale
 70
     0
300
1/16" = 1'-0"
140
0.0625
141
12.0
290
     0
  0
SCALE
  5
5D
102
{ACAD_REACTORS
330
47
102
}
330
47
100
AcDbScale
 70
     0
300
3/32" = 1'-0"
140
0.09375
141
12.0
290
     0
  0
SCALE
  5
5E
102
{ACAD_REACTORS
330
47
102
}
330
47
100
AcDbScale
 70
     0
300
1/8" = 1'-0"
140
0.125
141
12.0
290
     0
  0
SCALE
  5
5F
102
{ACAD_REACTORS
330
47
102
}
330
47
100
AcDbScale
 70
     0
300
3/16" = 1'-0"
140
0.1875
141
12.0
290
     0
  0
SCALE
  5
60
102
{ACAD_REACTORS
330
47
102
}
330
47
100
AcDbScale
 70
     0
300
1/4" = 1'-0"
140
0.25
141
12.0
290
     0
  0
SCALE
  5
61
102
{ACAD_REACTORS
330
47
102
}
330
47
100
AcDbScale
 70
     0
300
3/8" = 1'-0"
140
0.375
141
12.0
290
     0
  0
SCALE
  5
62
102
{ACAD_REACTORS
330
47
102
}
330
47
100
AcDbScale
 70
     0
300
1/2" = 1'-0"
140
0.5
141
12.0
290
     0
  0
SCALE
  5
63
102
{ACAD_REACTORS
330
47
102
}
330
47
100
AcDbScale
 70
     0
300
3/4" = 1'-0"
140
0.75
141
12.0
290
     0
  0
SCALE
  5
64
102
{ACAD_REACTORS
330
47
102
}
330
47
100
AcDbScale
 70
     0
300
1" = 1'-0"
140
1.0
141
12.0
290
     0
  0
SCALE
  5
65
102
{ACAD_REACTORS
330
47
102
}
330
47
100
AcDbScale
 70
     0
300
1-1/2" = 1'-0"
140
1.5
141
12.0
290
     0
  0
SCALE
  5
66
102
{ACAD_REACTORS
330
47
102
}
330
47
100
AcDbScale
 70
     0
300
3" = 1'-0"
140
3.0
141
12.0
290
     0
  0
SCALE
  5
67
102
{ACAD_REACTORS
330
47
102
}
330
47
100
AcDbScale
 70
     0
300
6" = 1'-0"
140
6.0
141
12.0
290
     0
  0
SCALE
  5
68
102
{ACAD_REACTORS
330
47
102
}
330
47
100
AcDbScale
 70
     0
300
1'-0" = 1'-0"
140
12.0
141
12.0
290
     0
  0
TABLESTYLE
  5
6A
102
{ACAD_REACTORS
330
69
102
}
330
69
100
AcDbTableStyle
  3
Standard
 70
     0
 71
     0
 40
1.5
 41
1.5
280
     0
281
     0
  7
Standard
140
4.5
170
     2
 62
     0
 63
   257
283
     0
274
    -2
284
     1
 64
     0
275
    -2
285
     1
 65
     0
276
    -2
286
     1
 66
     0
277
    -2
287
     1
 67
     0
278
    -2
288
     1
 68
     0
279
    -2
289
     1
 69
     0
  7
Standard
140
6.0
170
     5
 62
     0
 63
   257
283
     0
274
    -2
284
     1
 64
     0
275
    -2
285
     1
 65
     0
276
    -2
286
     1
 66
     0
277
    -2
287
     1
 67
     0
278
    -2
288
     1
 68
     0
279
    -2
289
     1
 69
     0
  7
Standard
140
4.5
170
     5
 62
     0
 63
   257
283
     0
274
    -2
284
     1
 64
     0
275
    -2
285
     1
 65
     0
276
    -2
286
     1
 66
     0
277
    -2
287
     1
 67
     0
278
    -2
288
     1
 68
     0
279
    -2
289
     1
 69
     0
  0
VISUALSTYLE
  5
2F
102
{ACAD_REACTORS
330
2A
102
}
102
{ACAD_XDICTIONARY
360
432
102
}
330
2A
100
AcDbVisualStyle
  2
2dWireframe
 70
     4
 71
     0
 72
     2
 73
     0
 90
        0
 40
0.6
 41
30.0
 62
     5
 63
     7
 74
     1
 91
        4
 64
     7
 65
   257
 75
     1
175
     1
 42
1.0
 92
        0
 66
   257
 43
1.0
 76
     1
 77
     6
 78
     2
 67
     7
 79
     5
170
     0
171
     0
290
     0
174
     0
 93
        1
 44
0.0
173
     0
291
     0
 45
0.0
1001
ACAD
1000
AcDbSavedByObjectVersion
1070
     0
  0
VISUALSTYLE
  5
32
102
{ACAD_REACTORS
330
2A
102
}
102
{ACAD_XDICTIONARY
360
438
102
}
330
2A
100
AcDbVisualStyle
  2
Basic
 70
     7
 71
     1
 72
     0
 73
     1
 90
        0
 40
0.6
 41
30.0
 62
     5
 63
     7
 74
     0
 91
        4
 64
     7
 65
   257
 75
     1
175
     1
 42
1.0
 92
        8
 66
     7
 43
1.0
 76
     1
 77
     6
 78
     2
 67
     7
 79
     5
170
     0
171
     0
290
     0
174
     0
 93
        1
 44
0.0
173
     0
291
     1
 45
0.0
1001
ACAD
1000
AcDbSavedByObjectVersion
1070
     0
  0
VISUALSTYLE
  5
36
102
{ACAD_REACTORS
330
2A
102
}
102
{ACAD_XDICTIONARY
360
440
102
}
330
2A
100
AcDbVisualStyle
  2
Brighten
 70
    12
 71
     2
 72
     2
 73
     0
 90
        0
 40
0.6
 41
30.0
 62
     5
 63
     7
 74
     1
 91
        4
 64
     7
 65
   257
 75
     1
175
     1
 42
1.0
 92
        8
 66
     7
 43
1.0
 76
     1
 77
     6
 78
     2
 67
     7
 79
     5
170
     0
171
     0
290
     0
174
     0
 93
        1
 44
50.0
173
     0
291
     1
 45
0.0
1001
ACAD
1000
AcDbSavedByObjectVersion
1070
     0
  0
VISUALSTYLE
  5
3A
102
{ACAD_REACTORS
330
2A
102
}
102
{ACAD_XDICTIONARY
360
448
102
}
330
2A
100
AcDbVisualStyle
  2
ColorChange
 70
    16
 71
     2
 72
     2
 73
     3
 90
        0
 40
0.6
 41
30.0
 62
     5
 63
     8
 74
     1
 91
        4
 64
     7
 65
   257
 75
     1
175
     1
 42
1.0
 92
        8
 66
     8
 43
1.0
 76
     1
 77
     6
 78
     2
 67
     7
 79
     5
170
     0
171
     0
290
     0
174
     0
 93
        1
 44
0.0
173
     0
291
     1
 45
0.0
1001
ACAD
1000
AcDbSavedByObjectVersion
1070
     0
  0
VISUALSTYLE
  5
34
102
{ACAD_REACTORS
330
2A
102
}
102
{ACAD_XDICTIONARY
360
43C
102
}
330
2A
100
AcDbVisualStyle
  2
Conceptual
 70
     9
 71
     3
 72
     2
 73
     0
 90
        0
 40
0.6
 41
30.0
 62
     5
 63
     7
 74
     2
 91
        2
 64
     7
 65
   257
 75
     1
175
     1
 42
179.0
 92
        8
 66
     7
 43
1.0
 76
     1
 77
     6
 78
     2
 67
     7
 79
     3
170
     0
171
     0
290
     0
174
     0
 93
        1
 44
0.0
173
     0
291
     0
 45
0.0
1001
ACAD
1000
AcDbSavedByObjectVersion
1070
     0
  0
VISUALSTYLE
  5
35
102
{ACAD_REACTORS
330
2A
102
}
102
{ACAD_XDICTIONARY
360
43E
102
}
330
2A
100
AcDbVisualStyle
  2
Dim
 70
    11
 71
     2
 72
     2
 73
     0
 90
        0
 40
0.6
 41
30.0
 62
     5
 63
     7
 74
     1
 91
        4
 64
     7
 65
   257
 75
     1
175
     1
 42
1.0
 92
        8
 66
     7
 43
1.0
 76
     1
 77
     6
 78
     2
 67
     7
 79
     5
170
     0
171
     0
290
     0
174
     0
 93
        1
 44
-50.0
173
     0
291
     1
 45
0.0
1001
ACAD
1000
AcDbSavedByObjectVersion
1070
     0
  0
VISUALSTYLE
  5
3D
102
{ACAD_REACTORS
330
2A
102
}
102
{ACAD_XDICTIONARY
360
44E
102
}
330
2A
100
AcDbVisualStyle
  2
EdgeColorOff
 70
    22
 71
     2
 72
     2
 73
     0
 90
        0
 40
0.6
 41
30.0
 62
     5
 63
     7
 74
     1
 91
        4
 64
     7
 65
   257
 75
     1
175
     1
 42
1.0
 92
        8
 66
     7
 43
1.0
 76
     1
 77
     6
 78
     2
 67
     7
 79
     5
170
     0
171
     0
290
     0
174
     0
 93
        1
 44
0.0
173
     0
291
     1
 45
0.0
1001
ACAD
1000
AcDbSavedByObjectVersion
1070
     0
  0
VISUALSTYLE
  5
39
102
{ACAD_REACTORS
330
2A
102
}
102
{ACAD_XDICTIONARY
360
446
102
}
330
2A
100
AcDbVisualStyle
  2
Facepattern
 70
    15
 71
     2
 72
     2
 73
     0
 90
        0
 40
0.6
 41
30.0
 62
     5
 63
     7
 74
     1
 91
        4
 64
     7
 65
   257
 75
     1
175
     1
 42
1.0
 92
        8
 66
     7
 43
1.0
 76
     1
 77
     6
 78
     2
 67
     7
 79
     5
170
     0
171
     0
290
     0
174
     0
 93
        1
 44
0.0
173
     0
291
     1
 45
0.0
1001
ACAD
1000
AcDbSavedByObjectVersion
1070
     0
  0
VISUALSTYLE
  5
2B
102
{ACAD_REACTORS
330
2A
102
}
102
{ACAD_XDICTIONARY
360
42A
102
}
330
2A
100
AcDbVisualStyle
  2
Flat
 70
     0
 71
     2
 72
     1
 73
     1
 90
        2
 40
0.6
 41
30.0
 62
     5
 63
     7
 74
     0
 91
        0
 64
     7
 65
   257
 75
     1
175
     1
 42
1.0
 92
        8
 66
     7
 43
1.0
 76
     1
 77
     6
 78
     2
 67
     7
 79
     5
170
     0
171
     0
290
     0
174
     0
 93
       13
 44
0.0
173
     0
291
     1
 45
0.0
1001
ACAD
1000
AcDbSavedByObjectVersion
1070
     0
  0
VISUALSTYLE
  5
2C
102
{ACAD_REACTORS
330
2A
102
}
102
{ACAD_XDICTIONARY
360
42C
102
}
330
2A
100
AcDbVisualStyle
  2
FlatWithEdges
 70
     1
 71
     2
 72
     1
 73
     1
 90
        2
 40
0.6
 41
30.0
 62
     5
 63
     7
 74
     1
 91
        0
 64
     7
 65
   257
 75
     1
175
     1
 42
1.0
 92
        0
 66
   257
 43
1.0
 76
     1
 77
     6
 78
     2
 67
     7
 79
     5
170
     0
171
     0
290
     0
174
     0
 93
       13
 44
0.0
173
     0
291
     1
 45
0.0
1001
ACAD
1000
AcDbSavedByObjectVersion
1070
     0
  0
VISUALSTYLE
  5
2D
102
{ACAD_REACTORS
330
2A
102
}
102
{ACAD_XDICTIONARY
360
42E
102
}
330
2A
100
AcDbVisualStyle
  2
Gouraud
 70
     2
 71
     2
 72
     2
 73
     1
 90
        2
 40
0.6
 41
30.0
 62
     5
 63
     7
 74
     0
 91
        0
 64
     7
 65
   257
 75
     1
175
     1
 42
1.0
 92
        0
 66
     7
 43
1.0
 76
     1
 77
     6
 78
     2
 67
     7
 79
     5
170
     0
171
     0
290
     0
174
     0
 93
       13
 44
0.0
173
     0
291
     1
 45
0.0
1001
ACAD
1000
AcDbSavedByObjectVersion
1070
     0
  0
VISUALSTYLE
  5
2E
102
{ACAD_REACTORS
330
2A
102
}
102
{ACAD_XDICTIONARY
360
430
102
}
330
2A
100
AcDbVisualStyle
  2
GouraudWithEdges
 70
     3
 71
     2
 72
     2
 73
     1
 90
        2
 40
0.6
 41
30.0
 62
     5
 63
     7
 74
     1
 91
        0
 64
     7
 65
   257
 75
     1
175
     1
 42
1.0
 92
        0
 66
   257
 43
1.0
 76
     1
 77
     6
 78
     2
 67
     7
 79
     5
170
     0
171
     0
290
     0
174
     0
 93
       13
 44
0.0
173
     0
291
     1
 45
0.0
1001
ACAD
1000
AcDbSavedByObjectVersion
1070
     0
  0
VISUALSTYLE
  5
31
102
{ACAD_REACTORS
330
2A
102
}
102
{ACAD_XDICTIONARY
360
436
102
}
330
2A
100
AcDbVisualStyle
  2
Hidden
 70
     6
 71
     1
 72
     2
 73
     2
 90
        0
 40
0.6
 41
30.0
 62
     5
 63
     7
 74
     2
 91
        2
 64
     7
 65
   257
 75
     2
175
     1
 42
40.0
 92
        0
 66
   257
 43
1.0
 76
     1
 77
     6
 78
     2
 67
     7
 79
     3
170
     0
171
     0
290
     0
174
     0
 93
        1
 44
0.0
173
     0
291
     0
 45
0.0
1001
ACAD
1000
AcDbSavedByObjectVersion
1070
     0
  0
VISUALSTYLE
  5
3B
102
{ACAD_REACTORS
330
2A
102
}
102
{ACAD_XDICTIONARY
360
44A
102
}
330
2A
100
AcDbVisualStyle
  2
JitterOff
 70
    20
 71
     2
 72
     2
 73
     0
 90
        0
 40
0.6
 41
30.0
 62
     5
 63
     7
 74
     1
 91
        4
 64
     7
 65
   257
 75
     1
175
     1
 42
1.0
 92
       10
 66
     7
 43
1.0
 76
     1
 77
     6
 78
     2
 67
     7
 79
     5
170
     0
171
     0
290
     0
174
     0
 93
        1
 44
0.0
173
     0
291
     1
 45
0.0
1001
ACAD
1000
AcDbSavedByObjectVersion
1070
     0
  0
VISUALSTYLE
  5
38
102
{ACAD_REACTORS
330
2A
102
}
102
{ACAD_XDICTIONARY
360
444
102
}
330
2A
100
AcDbVisualStyle
  2
Linepattern
 70
    14
 71
     2
 72
     2
 73
     0
 90
        0
 40
0.6
 41
30.0
 62
     5
 63
     7
 74
     1
 91
        4
 64
     7
 65
   257
 75
     7
175
     7
 42
1.0
 92
        8
 66
     7
 43
1.0
 76
     1
 77
     6
 78
     2
 67
     7
 79
     5
170
     0
171
     0
290
     0
174
     0
 93
        1
 44
0.0
173
     0
291
     1
 45
0.0
1001
ACAD
1000
AcDbSavedByObjectVersion
1070
     0
  0
VISUALSTYLE
  5
3C
102
{ACAD_REACTORS
330
2A
102
}
102
{ACAD_XDICTIONARY
360
44C
102
}
330
2A
100
AcDbVisualStyle
  2
OverhangOff
 70
    21
 71
     2
 72
     2
 73
     0
 90
        0
 40
0.6
 41
30.0
 62
     5
 63
     7
 74
     1
 91
        4
 64
     7
 65
   257
 75
     1
175
     1
 42
1.0
 92
        9
 66
     7
 43
1.0
 76
     1
 77
     6
 78
     2
 67
     7
 79
     5
170
     0
171
     0
290
     0
174
     0
 93
        1
 44
0.0
173
     0
291
     1
 45
0.0
1001
ACAD
1000
AcDbSavedByObjectVersion
1070
     0
  0
VISUALSTYLE
  5
33
102
{ACAD_REACTORS
330
2A
102
}
102
{ACAD_XDICTIONARY
360
43A
102
}
330
2A
100
AcDbVisualStyle
  2
Realistic
 70
     8
 71
     2
 72
     3
 73
     0
 90
        2
 40
0.6
 41
30.0
 62
     5
 63
     7
 74
     0
 91
        0
 64
     7
 65
   257
 75
     1
175
     1
 42
1.0
 92
        8
 66
   257
 43
1.0
 76
     1
 77
     6
 78
     2
 67
     7
 79
     3
170
     0
171
     0
290
     0
174
     0
 93
       13
 44
0.0
173
     0
291
     0
 45
0.0
1001
ACAD
1000
AcDbSavedByObjectVersion
1070
     0
  0
VISUALSTYLE
  5
42
102
{ACAD_REACTORS
330
2A
102
}
102
{ACAD_XDICTIONARY
360
458
102
}
330
2A
100
AcDbVisualStyle
  2
Shaded
 70
    27
 71
     2
 72
     2
 73
     1
 90
        2
 40
0.6
 41
30.0
 62
     5
 63
     7
 74
     0
 91
        4
 64
     7
 65
   257
 75
     1
175
     1
 42
1.0
 92
        8
 66
   257
 43
1.0
 76
     1
 77
     6
 78
     2
 67
     8
 79
     3
170
     0
171
     0
290
     0
174
     0
 93
        5
 44
0.0
173
     0
291
     0
 45
0.0
1001
ACAD
1000
AcDbSavedByObjectVersion
1070
     0
  0
VISUALSTYLE
  5
41
102
{ACAD_REACTORS
330
2A
102
}
102
{ACAD_XDICTIONARY
360
456
102
}
330
2A
100
AcDbVisualStyle
  2
Shaded with edges
 70
    26
 71
     2
 72
     2
 73
     1
 90
        2
 40
0.6
 41
30.0
 62
     5
 63
     7
 74
     1
 91
       10
 64
     7
 65
   257
 75
     2
175
     1
 42
1.0
 92
        8
 66
   257
 43
1.0
 76
     1
 77
     6
 78
     2
 67
     7
 79
     3
170
     0
171
     0
290
     0
174
     0
 93
        5
 44
0.0
173
     0
291
     0
 45
0.0
1001
ACAD
1000
AcDbSavedByObjectVersion
1070
     0
  0
VISUALSTYLE
  5
3E
102
{ACAD_REACTORS
330
2A
102
}
102
{ACAD_XDICTIONARY
360
450
102
}
330
2A
100
AcDbVisualStyle
  2
Shades of Gray
 70
    23
 71
     2
 72
     2
 73
     3
 90
        0
 40
0.6
 41
30.0
 62
     5
 63
     7
 74
     2
 91
        2
 64
     7
 65
     7
 75
     1
175
     1
 42
40.0
 92
        8
 66
     7
 43
1.0
 76
     1
 77
     6
 78
     2
 67
     7
 79
     3
170
     0
171
     0
290
     0
174
     0
 93
        1
 44
0.0
173
     0
291
     0
 45
0.0
1001
ACAD
1000
AcDbSavedByObjectVersion
1070
     0
  0
VISUALSTYLE
  5
3F
102
{ACAD_REACTORS
330
2A
102
}
102
{ACAD_XDICTIONARY
360
452
102
}
330
2A
100
AcDbVisualStyle
  2
Sketchy
 70
    24
 71
     1
 72
     2
 73
     2
 90
        0
 40
0.6
 41
30.0
 62
     5
 63
     7
 74
     2
 91
        2
 64
     7
 65
     7
 75
     1
175
     1
 42
40.0
 92
       11
 66
     7
 43
1.0
 76
     1
 77
     6
 78
     2
 67
     7
 79
     6
170
     0
171
     0
290
     0
174
     0
 93
        1
 44
0.0
173
     0
291
     0
 45
0.0
1001
ACAD
1000
AcDbSavedByObjectVersion
1070
     0
  0
VISUALSTYLE
  5
37
102
{ACAD_REACTORS
330
2A
102
}
102
{ACAD_XDICTIONARY
360
442
102
}
330
2A
100
AcDbVisualStyle
  2
Thicken
 70
    13
 71
     2
 72
     2
 73
     0
 90
        0
 40
0.6
 41
30.0
 62
     5
 63
     7
 74
     1
 91
        4
 64
     7
 65
   257
 75
     1
175
     1
 42
1.0
 92
       12
 66
     7
 43
1.0
 76
     1
 77
     6
 78
     2
 67
     7
 79
     5
170
     0
171
     0
290
     0
174
     0
 93
        1
 44
0.0
173
     0
291
     1
 45
0.0
1001
ACAD
1000
AcDbSavedByObjectVersion
1070
     0
  0
VISUALSTYLE
  5
30
102
{ACAD_REACTORS
330
2A
102
}
102
{ACAD_XDICTIONARY
360
434
102
}
330
2A
100
AcDbVisualStyle
  2
Wireframe
 70
     5
 71
     0
 72
     2
 73
     0
 90
        0
 40
0.6
 41
30.0
 62
     5
 63
     7
 74
     1
 91
        4
 64
     7
 65
   257
 75
     1
175
     1
 42
1.0
 92
        0
 66
   257
 43
1.0
 76
     1
 77
     6
 78
     2
 67
     7
 79
     3
170
     0
171
     0
290
     0
174
     0
 93
        1
 44
0.0
173
     0
291
     0
 45
0.0
1001
ACAD
1000
AcDbSavedByObjectVersion
1070
     0
  0
VISUALSTYLE
  5
40
102
{ACAD_REACTORS
330
2A
102
}
102
{ACAD_XDICTIONARY
360
454
102
}
330
2A
100
AcDbVisualStyle
  2
X-Ray
 70
    25
 71
     2
 72
     2
 73
     1
 90
        1
 40
0.5
 41
30.0
 62
     5
 63
     7
 74
     1
 91
        0
 64
     7
 65
   257
 75
     1
175
     1
 42
1.0
 92
        8
 66
     7
 43
1.0
 76
     1
 77
     6
 78
     2
 67
     7
 79
     3
170
     0
171
     0
290
     0
174
     0
 93
       13
 44
0.0
173
     0
291
     0
 45
0.0
1001
ACAD
1000
AcDbSavedByObjectVersion
1070
     0
  0
DICTIONARYVAR
  5
428
102
{ACAD_REACTORS
330
41C
102
}
330
41C
100
DictionaryVariables
280
     0
  1
1:1
  0
DICTIONARYVAR
  5
41E
102
{ACAD_REACTORS
330
41C
102
}
330
41C
100
DictionaryVariables
280
     0
  1
Standard
  0
DICTIONARYVAR
  5
41D
102
{ACAD_REACTORS
330
41C
102
}
330
41C
100
DictionaryVariables
280
     0
  1
Standard
  0
DICTIONARYVAR
  5
424
102
{ACAD_REACTORS
330
41C
102
}
330
41C
100
DictionaryVariables
280
     0
  1
2
  0
DICTIONARYVAR
  5
425
102
{ACAD_REACTORS
330
41C
102
}
330
41C
100
DictionaryVariables
280
     0
  1
1
  0
DICTIONARYVAR
  5
429
102
{ACAD_REACTORS
330
41C
102
}
330
41C
100
DictionaryVariables
280
     0
  1
1
  0
DICTIONARYVAR
  5
420
102
{ACAD_REACTORS
330
41C
102
}
330
41C
100
DictionaryVariables
280
     0
  1
80.000000
  0
DICTIONARYVAR
  5
41F
102
{ACAD_REACTORS
330
41C
102
}
330
41C
100
DictionaryVariables
280
     0
  1
5.000000
  0
DICTIONARYVAR
  5
423
102
{ACAD_REACTORS
330
41C
102
}
330
41C
100
DictionaryVariables
280
     0
  1
6.000000
  0
DICTIONARY
  5
45C
330
45
100
AcDbDictionary
280
     1
281
     1
  3
ACAD_XREC_ROUNDTRIP
360
45D
  0
DICTIONARY
  5
45A
330
44
100
AcDbDictionary
280
     1
281
     1
  3
ACAD_XREC_ROUNDTRIP
360
45B
  0
DICTIONARY
  5
45E
330
46
100
AcDbDictionary
280
     1
281
     1
  3
ACAD_XREC_ROUNDTRIP
360
45F
  0
DICTIONARY
  5
461
330
6C
100
AcDbDictionary
280
     1
281
     1
  3
ACAD_XREC_ROUNDTRIP
360
462
  0
DICTIONARY
  5
432
330
2F
100
AcDbDictionary
280
     1
281
     1
  3
ACAD_XREC_ROUNDTRIP
360
433
  0
DICTIONARY
  5
438
330
32
100
AcDbDictionary
280
     1
281
     1
  3
ACAD_XREC_ROUNDTRIP
360
439
  0
DICTIONARY
  5
440
330
36
100
AcDbDictionary
280
     1
281
     1
  3
ACAD_XREC_ROUNDTRIP
360
441
  0
DICTIONARY
  5
448
330
3A
100
AcDbDictionary
280
     1
281
     1
  3
ACAD_XREC_ROUNDTRIP
360
449
  0
DICTIONARY
  5
43C
330
34
100
AcDbDictionary
280
     1
281
     1
  3
ACAD_XREC_ROUNDTRIP
360
43D
  0
DICTIONARY
  5
43E
330
35
100
AcDbDictionary
280
     1
281
     1
  3
ACAD_XREC_ROUNDTRIP
360
43F
  0
DICTIONARY
  5
44E
330
3D
100
AcDbDictionary
280
     1
281
     1
  3
ACAD_XREC_ROUNDTRIP
360
44F
  0
DICTIONARY
  5
446
330
39
100
AcDbDictionary
280
     1
281
     1
  3
ACAD_XREC_ROUNDTRIP
360
447
  0
DICTIONARY
  5
42A
330
2B
100
AcDbDictionary
280
     1
281
     1
  3
ACAD_XREC_ROUNDTRIP
360
42B
  0
DICTIONARY
  5
42C
330
2C
100
AcDbDictionary
280
     1
281
     1
  3
ACAD_XREC_ROUNDTRIP
360
42D
  0
DICTIONARY
  5
42E
330
2D
100
AcDbDictionary
280
     1
281
     1
  3
ACAD_XREC_ROUNDTRIP
360
42F
  0
DICTIONARY
  5
430
330
2E
100
AcDbDictionary
280
     1
281
     1
  3
ACAD_XREC_ROUNDTRIP
360
431
  0
DICTIONARY
  5
436
330
31
100
AcDbDictionary
280
     1
281
     1
  3
ACAD_XREC_ROUNDTRIP
360
437
  0
DICTIONARY
  5
44A
330
3B
100
AcDbDictionary
280
     1
281
     1
  3
ACAD_XREC_ROUNDTRIP
360
44B
  0
DICTIONARY
  5
444
330
38
100
AcDbDictionary
280
     1
281
     1
  3
ACAD_XREC_ROUNDTRIP
360
445
  0
DICTIONARY
  5
44C
330
3C
100
AcDbDictionary
280
     1
281
     1
  3
ACAD_XREC_ROUNDTRIP
360
44D
  0
DICTIONARY
  5
43A
330
33
100
AcDbDictionary
280
     1
281
     1
  3
ACAD_XREC_ROUNDTRIP
360
43B
  0
DICTIONARY
  5
458
330
42
100
AcDbDictionary
280
     1
281
     1
  3
ACAD_XREC_ROUNDTRIP
360
459
  0
DICTIONARY
  5
456
330
41
100
AcDbDictionary
280
     1
281
     1
  3
ACAD_XREC_ROUNDTRIP
360
457
  0
DICTIONARY
  5
450
330
3E
100
AcDbDictionary
280
     1
281
     1
  3
ACAD_XREC_ROUNDTRIP
360
451
  0
DICTIONARY
  5
452
330
3F
100
AcDbDictionary
280
     1
281
     1
  3
ACAD_XREC_ROUNDTRIP
360
453
  0
DICTIONARY
  5
442
330
37
100
AcDbDictionary
280
     1
281
     1
  3
ACAD_XREC_ROUNDTRIP
360
443
  0
DICTIONARY
  5
434
330
30
100
AcDbDictionary
280
     1
281
     1
  3
ACAD_XREC_ROUNDTRIP
360
435
  0
DICTIONARY
  5
454
330
40
100
AcDbDictionary
280
     1
281
     1
  3
ACAD_XREC_ROUNDTRIP
360
455
  0
XRECORD
  5
45D
102
{ACAD_REACTORS
330
45C
102
}
330
45C
100
AcDbXrecord
280
     1
102
MATERIAL
148
0.0
149
0.0
149
0.0
 93
        0
 94
      127
282
     0
 72
     1
 77
     1
171
     1
175
     1
179
     1
273
     0
  0
XRECORD
  5
45B
102
{ACAD_REACTORS
330
45A
102
}
330
45A
100
AcDbXrecord
280
     1
102
MATERIAL
148
0.0
149
0.0
149
0.0
 93
        0
 94
      127
282
     0
 72
     1
 77
     1
171
     1
175
     1
179
     1
273
     0
  0
XRECORD
  5
45F
102
{ACAD_REACTORS
330
45E
102
}
330
45E
100
AcDbXrecord
280
     1
102
MATERIAL
148
0.0
149
0.0
149
0.0
 93
        0
 94
      127
282
     0
 72
     1
 77
     1
171
     1
175
     1
179
     1
273
     0
  0
XRECORD
  5
462
102
{ACAD_REACTORS
330
461
102
}
330
461
100
AcDbXrecord
280
     1
102
ACAD_ROUNDTRIP_2010_MLEADER_STYLE
  0
XRECORD
  5
433
102
{ACAD_REACTORS
330
432
102
}
330
432
100
AcDbXrecord
280
     1
102
RTVSPropertyOp0
 70
     1
102
RTVSPropertyOp1
 70
     1
102
RTVSPropertyOp2
 70
     1
102
RTVSPropertyOp3
 70
     1
102
RTVSPropertyOp4
 70
     1
102
RTVSPropertyOp5
 70
     1
102
RTVSPropertyOp6
 70
     1
102
RTVSPropertyOp7
 70
     1
102
RTVSPropertyOp8
 70
     1
102
RTVSPropertyOp9
 70
     1
102
RTVSPropertyOp10
 70
     1
102
RTVSPropertyOp11
 70
     1
102
RTVSPropertyOp12
 70
     1
102
RTVSPropertyOp13
 70
     1
102
RTVSPropertyOp14
 70
     1
102
RTVSPropertyOp15
 70
     1
102
RTVSPropertyOp16
 70
     1
102
RTVSPropertyOp17
 70
     1
102
RTVSPropertyOp18
 70
     1
102
RTVSPropertyOp19
 70
     1
102
RTVSPropertyOp20
 70
     1
102
RTVSPropertyOp21
 70
     1
102
RTVSPropertyOp22
 70
     1
102
RTVSPropertyOp23
 70
     1
102
RTVSPropertyOp24
 70
     1
102
RTVSPropertyOp25
 70
     1
102
RTVSPropertyOp26
 70
     1
102
RTVSPropertyOp27
 70
     1
102
RTVSPropertyOp28
 70
     1
102
RTVSPropertyOp29
 70
     1
102
RTVSPropertyOp30
 70
     1
102
RTVSPropertyOp31
 70
     1
102
RTVSPropertyOp32
 70
     1
102
RTVSPropertyOp33
 70
     1
102
RTVSPropertyOp34
 70
     1
102
RTVSPropertyOp35
 70
     1
102
RTVSPropertyOp36
 70
     1
102
RTVSPropertyOp37
 70
     1
102
RTVSPropertyOp38
 70
     1
102
RTVSPropertyOp39
 70
     1
102
RTVSPropertyOp40
 70
     1
102
RTVSPropertyOp41
 70
     1
102
RTVSPropertyOp42
 70
     1
102
RTVSPropertyOp43
 70
     1
102
RTVSPropertyOp44
 70
     1
102
RTVSPropertyOp45
 70
     1
102
RTVSPropertyOp46
 70
     1
102
RTVSPropertyOp47
 70
     1
102
RTVSPropertyOp48
 70
     1
102
RTVSPropertyOp49
 70
     1
102
RTVSPropertyOp50
 70
     1
102
RTVSPropertyOp51
 70
     0
102
RTVSPropertyOp52
 70
     0
102
RTVSPropertyOp53
 70
     1
102
RTVSPropertyOp54
 70
     1
102
RTVSPropertyOp55
 70
     1
102
RTVSPropertyOp56
 70
     1
102
RTVSPropertyOp57
 70
     1
102
RTVSPost2010Prop28
280
     1
102
RTVSPost2010PropOp28
 70
     1
102
RTVSPost2010Prop29
280
     1
102
RTVSPost2010PropOp29
 70
     1
102
RTVSPost2010Prop30
280
     0
102
RTVSPost2010PropOp30
 70
     1
102
RTVSPost2010Prop31
280
     0
102
RTVSPost2010PropOp31
 70
     1
102
RTVSPost2010Prop32
280
     0
102
RTVSPost2010PropOp32
 70
     1
102
RTVSPost2010Prop33
280
     0
102
RTVSPost2010PropOp33
 70
     1
102
RTVSPost2010Prop34
280
     0
102
RTVSPost2010PropOp34
 70
     1
102
RTVSPost2010Prop35
280
     0
102
RTVSPost2010PropOp35
 70
     1
102
RTVSPost2010Prop36
280
     0
102
RTVSPost2010PropOp36
 70
     1
102
RTVSPost2010Prop37
 90
       50
102
RTVSPost2010PropOp37
 70
     1
102
RTVSPost2010Prop38
140
0.0
102
RTVSPost2010PropOp38
 70
     1
102
RTVSPost2010Prop39
140
1.0
102
RTVSPost2010PropOp39
 70
     1
102
RTVSPost2010Prop40
 90
        0
102
RTVSPost2010PropOp40
 70
     1
102
RTVSPost2010Prop41ColorIndex
 90
       18
102
RTVSPost2010Prop41ColorRGB
 90
        0
102
RTVSPost2010PropOp41
 70
     1
102
RTVSPost2010Prop42
 90
       50
102
RTVSPost2010PropOp42
 70
     1
102
RTVSPost2010Prop43
 90
        3
102
RTVSPost2010PropOp43
 70
     1
102
RTVSPost2010Prop44ColorIndex
 90
        5
102
RTVSPost2010Prop44ColorRGB
 90
      255
102
RTVSPost2010PropOp44
 70
     1
102
RTVSPost2010Prop45
280
     0
102
RTVSPost2010PropOp45
 70
     1
102
RTVSPost2010Prop46
 90
       50
102
RTVSPost2010PropOp46
 70
     1
102
RTVSPost2010Prop47
 90
       50
102
RTVSPost2010PropOp47
 70
     1
102
RTVSPost2010Prop48
 90
       50
102
RTVSPost2010PropOp48
 70
     1
102
RTVSPost2010Prop49
280
     0
102
RTVSPost2010PropOp49
 70
     1
102
RTVSPost2010Prop50
 90
       50
102
RTVSPost2010PropOp50
 70
     1
102
RTVSPost2010Prop51ColorIndex
 90
      256
102
RTVSPost2010Prop51ColorRGB
 90
-16777216
102
RTVSPost2010PropOp51
 70
     0
102
RTVSPost2010Prop52
140
1.0
102
RTVSPost2010PropOp52
 70
     0
102
RTVSPost2010Prop53
 90
        2
102
RTVSPost2010PropOp53
 70
     1
102
RTVSPost2010Prop54
  1
strokes_ogs.tif
102
RTVSPost2010PropOp54
 70
     1
102
RTVSPost2010Prop55
280
     0
102
RTVSPost2010PropOp55
 70
     1
102
RTVSPost2010Prop56
140
1.0
102
RTVSPost2010PropOp56
 70
     1
102
RTVSPost2010Prop57
140
1.0
102
RTVSPost2010PropOp57
 70
     1
  0
XRECORD
  5
439
102
{ACAD_REACTORS
330
438
102
}
330
438
100
AcDbXrecord
280
     1
102
RTVSPropertyOp0
 70
     1
102
RTVSPropertyOp1
 70
     1
102
RTVSPropertyOp2
 70
     1
102
RTVSPropertyOp3
 70
     1
102
RTVSPropertyOp4
 70
     1
102
RTVSPropertyOp5
 70
     1
102
RTVSPropertyOp6
 70
     1
102
RTVSPropertyOp7
 70
     1
102
RTVSPropertyOp8
 70
     1
102
RTVSPropertyOp9
 70
     1
102
RTVSPropertyOp10
 70
     1
102
RTVSPropertyOp11
 70
     1
102
RTVSPropertyOp12
 70
     1
102
RTVSPropertyOp13
 70
     1
102
RTVSPropertyOp14
 70
     1
102
RTVSPropertyOp15
 70
     1
102
RTVSPropertyOp16
 70
     1
102
RTVSPropertyOp17
 70
     1
102
RTVSPropertyOp18
 70
     1
102
RTVSPropertyOp19
 70
     1
102
RTVSPropertyOp20
 70
     1
102
RTVSPropertyOp21
 70
     1
102
RTVSPropertyOp22
 70
     1
102
RTVSPropertyOp23
 70
     1
102
RTVSPropertyOp24
 70
     1
102
RTVSPropertyOp25
 70
     1
102
RTVSPropertyOp26
 70
     1
102
RTVSPropertyOp27
 70
     1
102
RTVSPropertyOp28
 70
     1
102
RTVSPropertyOp29
 70
     1
102
RTVSPropertyOp30
 70
     1
102
RTVSPropertyOp31
 70
     1
102
RTVSPropertyOp32
 70
     1
102
RTVSPropertyOp33
 70
     1
102
RTVSPropertyOp34
 70
     1
102
RTVSPropertyOp35
 70
     1
102
RTVSPropertyOp36
 70
     1
102
RTVSPropertyOp37
 70
     1
102
RTVSPropertyOp38
 70
     1
102
RTVSPropertyOp39
 70
     1
102
RTVSPropertyOp40
 70
     1
102
RTVSPropertyOp41
 70
     1
102
RTVSPropertyOp42
 70
     1
102
RTVSPropertyOp43
 70
     1
102
RTVSPropertyOp44
 70
     1
102
RTVSPropertyOp45
 70
     1
102
RTVSPropertyOp46
 70
     1
102
RTVSPropertyOp47
 70
     1
102
RTVSPropertyOp48
 70
     1
102
RTVSPropertyOp49
 70
     1
102
RTVSPropertyOp50
 70
     1
102
RTVSPropertyOp51
 70
     0
102
RTVSPropertyOp52
 70
     0
102
RTVSPropertyOp53
 70
     1
102
RTVSPropertyOp54
 70
     1
102
RTVSPropertyOp55
 70
     1
102
RTVSPropertyOp56
 70
     1
102
RTVSPropertyOp57
 70
     1
102
RTVSPost2010Prop28
280
     0
102
RTVSPost2010PropOp28
 70
     1
102
RTVSPost2010Prop29
280
     1
102
RTVSPost2010PropOp29
 70
     1
102
RTVSPost2010Prop30
280
     1
102
RTVSPost2010PropOp30
 70
     1
102
RTVSPost2010Prop31
280
     0
102
RTVSPost2010PropOp31
 70
     1
102
RTVSPost2010Prop32
280
     0
102
RTVSPost2010PropOp32
 70
     1
102
RTVSPost2010Prop33
280
     0
102
RTVSPost2010PropOp33
 70
     1
102
RTVSPost2010Prop34
280
     0
102
RTVSPost2010PropOp34
 70
     1
102
RTVSPost2010Prop35
280
     0
102
RTVSPost2010PropOp35
 70
     1
102
RTVSPost2010Prop36
280
     0
102
RTVSPost2010PropOp36
 70
     1
102
RTVSPost2010Prop37
 90
       50
102
RTVSPost2010PropOp37
 70
     1
102
RTVSPost2010Prop38
140
0.0
102
RTVSPost2010PropOp38
 70
     1
102
RTVSPost2010Prop39
140
1.0
102
RTVSPost2010PropOp39
 70
     1
102
RTVSPost2010Prop40
 90
        0
102
RTVSPost2010PropOp40
 70
     1
102
RTVSPost2010Prop41ColorIndex
 90
       18
102
RTVSPost2010Prop41ColorRGB
 90
        0
102
RTVSPost2010PropOp41
 70
     1
102
RTVSPost2010Prop42
 90
       50
102
RTVSPost2010PropOp42
 70
     1
102
RTVSPost2010Prop43
 90
        3
102
RTVSPost2010PropOp43
 70
     1
102
RTVSPost2010Prop44ColorIndex
 90
        5
102
RTVSPost2010Prop44ColorRGB
 90
      255
102
RTVSPost2010PropOp44
 70
     1
102
RTVSPost2010Prop45
280
     0
102
RTVSPost2010PropOp45
 70
     1
102
RTVSPost2010Prop46
 90
       50
102
RTVSPost2010PropOp46
 70
     1
102
RTVSPost2010Prop47
 90
       50
102
RTVSPost2010PropOp47
 70
     1
102
RTVSPost2010Prop48
 90
       50
102
RTVSPost2010PropOp48
 70
     1
102
RTVSPost2010Prop49
280
     0
102
RTVSPost2010PropOp49
 70
     1
102
RTVSPost2010Prop50
 90
       50
102
RTVSPost2010PropOp50
 70
     1
102
RTVSPost2010Prop51ColorIndex
 90
      256
102
RTVSPost2010Prop51ColorRGB
 90
-16777216
102
RTVSPost2010PropOp51
 70
     0
102
RTVSPost2010Prop52
140
1.0
102
RTVSPost2010PropOp52
 70
     0
102
RTVSPost2010Prop53
 90
        2
102
RTVSPost2010PropOp53
 70
     1
102
RTVSPost2010Prop54
  1
strokes_ogs.tif
102
RTVSPost2010PropOp54
 70
     1
102
RTVSPost2010Prop55
280
     0
102
RTVSPost2010PropOp55
 70
     1
102
RTVSPost2010Prop56
140
1.0
102
RTVSPost2010PropOp56
 70
     1
102
RTVSPost2010Prop57
140
1.0
102
RTVSPost2010PropOp57
 70
     1
  0
XRECORD
  5
441
102
{ACAD_REACTORS
330
440
102
}
330
440
100
AcDbXrecord
280
     1
102
RTVSPropertyOp0
 70
     1
102
RTVSPropertyOp1
 70
     1
102
RTVSPropertyOp2
 70
     1
102
RTVSPropertyOp3
 70
     1
102
RTVSPropertyOp4
 70
     1
102
RTVSPropertyOp5
 70
     1
102
RTVSPropertyOp6
 70
     1
102
RTVSPropertyOp7
 70
     1
102
RTVSPropertyOp8
 70
     1
102
RTVSPropertyOp9
 70
     1
102
RTVSPropertyOp10
 70
     1
102
RTVSPropertyOp11
 70
     1
102
RTVSPropertyOp12
 70
     1
102
RTVSPropertyOp13
 70
     1
102
RTVSPropertyOp14
 70
     1
102
RTVSPropertyOp15
 70
     1
102
RTVSPropertyOp16
 70
     1
102
RTVSPropertyOp17
 70
     1
102
RTVSPropertyOp18
 70
     1
102
RTVSPropertyOp19
 70
     1
102
RTVSPropertyOp20
 70
     1
102
RTVSPropertyOp21
 70
     1
102
RTVSPropertyOp22
 70
     1
102
RTVSPropertyOp23
 70
     1
102
RTVSPropertyOp24
 70
     1
102
RTVSPropertyOp25
 70
     1
102
RTVSPropertyOp26
 70
     1
102
RTVSPropertyOp27
 70
     1
102
RTVSPropertyOp28
 70
     1
102
RTVSPropertyOp29
 70
     1
102
RTVSPropertyOp30
 70
     1
102
RTVSPropertyOp31
 70
     1
102
RTVSPropertyOp32
 70
     1
102
RTVSPropertyOp33
 70
     1
102
RTVSPropertyOp34
 70
     1
102
RTVSPropertyOp35
 70
     1
102
RTVSPropertyOp36
 70
     1
102
RTVSPropertyOp37
 70
     1
102
RTVSPropertyOp38
 70
     1
102
RTVSPropertyOp39
 70
     1
102
RTVSPropertyOp40
 70
     1
102
RTVSPropertyOp41
 70
     1
102
RTVSPropertyOp42
 70
     1
102
RTVSPropertyOp43
 70
     1
102
RTVSPropertyOp44
 70
     1
102
RTVSPropertyOp45
 70
     1
102
RTVSPropertyOp46
 70
     1
102
RTVSPropertyOp47
 70
     1
102
RTVSPropertyOp48
 70
     1
102
RTVSPropertyOp49
 70
     1
102
RTVSPropertyOp50
 70
     1
102
RTVSPropertyOp51
 70
     0
102
RTVSPropertyOp52
 70
     0
102
RTVSPropertyOp53
 70
     1
102
RTVSPropertyOp54
 70
     1
102
RTVSPropertyOp55
 70
     1
102
RTVSPropertyOp56
 70
     1
102
RTVSPropertyOp57
 70
     1
102
RTVSPost2010Prop28
280
     0
102
RTVSPost2010PropOp28
 70
     1
102
RTVSPost2010Prop29
280
     1
102
RTVSPost2010PropOp29
 70
     1
102
RTVSPost2010Prop30
280
     1
102
RTVSPost2010PropOp30
 70
     1
102
RTVSPost2010Prop31
280
     0
102
RTVSPost2010PropOp31
 70
     1
102
RTVSPost2010Prop32
280
     0
102
RTVSPost2010PropOp32
 70
     1
102
RTVSPost2010Prop33
280
     0
102
RTVSPost2010PropOp33
 70
     1
102
RTVSPost2010Prop34
280
     0
102
RTVSPost2010PropOp34
 70
     1
102
RTVSPost2010Prop35
280
     0
102
RTVSPost2010PropOp35
 70
     1
102
RTVSPost2010Prop36
280
     0
102
RTVSPost2010PropOp36
 70
     1
102
RTVSPost2010Prop37
 90
       50
102
RTVSPost2010PropOp37
 70
     1
102
RTVSPost2010Prop38
140
0.0
102
RTVSPost2010PropOp38
 70
     1
102
RTVSPost2010Prop39
140
1.0
102
RTVSPost2010PropOp39
 70
     1
102
RTVSPost2010Prop40
 90
        0
102
RTVSPost2010PropOp40
 70
     1
102
RTVSPost2010Prop41ColorIndex
 90
       18
102
RTVSPost2010Prop41ColorRGB
 90
        0
102
RTVSPost2010PropOp41
 70
     1
102
RTVSPost2010Prop42
 90
       50
102
RTVSPost2010PropOp42
 70
     1
102
RTVSPost2010Prop43
 90
        3
102
RTVSPost2010PropOp43
 70
     1
102
RTVSPost2010Prop44ColorIndex
 90
        5
102
RTVSPost2010Prop44ColorRGB
 90
      255
102
RTVSPost2010PropOp44
 70
     1
102
RTVSPost2010Prop45
280
     0
102
RTVSPost2010PropOp45
 70
     1
102
RTVSPost2010Prop46
 90
       50
102
RTVSPost2010PropOp46
 70
     1
102
RTVSPost2010Prop47
 90
       50
102
RTVSPost2010PropOp47
 70
     1
102
RTVSPost2010Prop48
 90
       50
102
RTVSPost2010PropOp48
 70
     1
102
RTVSPost2010Prop49
280
     0
102
RTVSPost2010PropOp49
 70
     1
102
RTVSPost2010Prop50
 90
       50
102
RTVSPost2010PropOp50
 70
     1
102
RTVSPost2010Prop51ColorIndex
 90
      256
102
RTVSPost2010Prop51ColorRGB
 90
-16777216
102
RTVSPost2010PropOp51
 70
     0
102
RTVSPost2010Prop52
140
1.0
102
RTVSPost2010PropOp52
 70
     0
102
RTVSPost2010Prop53
 90
        2
102
RTVSPost2010PropOp53
 70
     1
102
RTVSPost2010Prop54
  1
strokes_ogs.tif
102
RTVSPost2010PropOp54
 70
     1
102
RTVSPost2010Prop55
280
     0
102
RTVSPost2010PropOp55
 70
     1
102
RTVSPost2010Prop56
140
1.0
102
RTVSPost2010PropOp56
 70
     1
102
RTVSPost2010Prop57
140
1.0
102
RTVSPost2010PropOp57
 70
     1
  0
XRECORD
  5
449
102
{ACAD_REACTORS
330
448
102
}
330
448
100
AcDbXrecord
280
     1
102
RTVSPropertyOp0
 70
     1
102
RTVSPropertyOp1
 70
     1
102
RTVSPropertyOp2
 70
     1
102
RTVSPropertyOp3
 70
     1
102
RTVSPropertyOp4
 70
     1
102
RTVSPropertyOp5
 70
     1
102
RTVSPropertyOp6
 70
     1
102
RTVSPropertyOp7
 70
     1
102
RTVSPropertyOp8
 70
     1
102
RTVSPropertyOp9
 70
     1
102
RTVSPropertyOp10
 70
     1
102
RTVSPropertyOp11
 70
     1
102
RTVSPropertyOp12
 70
     1
102
RTVSPropertyOp13
 70
     1
102
RTVSPropertyOp14
 70
     1
102
RTVSPropertyOp15
 70
     1
102
RTVSPropertyOp16
 70
     1
102
RTVSPropertyOp17
 70
     1
102
RTVSPropertyOp18
 70
     1
102
RTVSPropertyOp19
 70
     1
102
RTVSPropertyOp20
 70
     1
102
RTVSPropertyOp21
 70
     1
102
RTVSPropertyOp22
 70
     1
102
RTVSPropertyOp23
 70
     1
102
RTVSPropertyOp24
 70
     1
102
RTVSPropertyOp25
 70
     1
102
RTVSPropertyOp26
 70
     1
102
RTVSPropertyOp27
 70
     1
102
RTVSPropertyOp28
 70
     1
102
RTVSPropertyOp29
 70
     1
102
RTVSPropertyOp30
 70
     1
102
RTVSPropertyOp31
 70
     1
102
RTVSPropertyOp32
 70
     1
102
RTVSPropertyOp33
 70
     1
102
RTVSPropertyOp34
 70
     1
102
RTVSPropertyOp35
 70
     1
102
RTVSPropertyOp36
 70
     1
102
RTVSPropertyOp37
 70
     1
102
RTVSPropertyOp38
 70
     1
102
RTVSPropertyOp39
 70
     1
102
RTVSPropertyOp40
 70
     1
102
RTVSPropertyOp41
 70
     1
102
RTVSPropertyOp42
 70
     1
102
RTVSPropertyOp43
 70
     1
102
RTVSPropertyOp44
 70
     1
102
RTVSPropertyOp45
 70
     1
102
RTVSPropertyOp46
 70
     1
102
RTVSPropertyOp47
 70
     1
102
RTVSPropertyOp48
 70
     1
102
RTVSPropertyOp49
 70
     1
102
RTVSPropertyOp50
 70
     1
102
RTVSPropertyOp51
 70
     0
102
RTVSPropertyOp52
 70
     0
102
RTVSPropertyOp53
 70
     1
102
RTVSPropertyOp54
 70
     1
102
RTVSPropertyOp55
 70
     1
102
RTVSPropertyOp56
 70
     1
102
RTVSPropertyOp57
 70
     1
102
RTVSPost2010Prop28
280
     0
102
RTVSPost2010PropOp28
 70
     1
102
RTVSPost2010Prop29
280
     1
102
RTVSPost2010PropOp29
 70
     1
102
RTVSPost2010Prop30
280
     1
102
RTVSPost2010PropOp30
 70
     1
102
RTVSPost2010Prop31
280
     0
102
RTVSPost2010PropOp31
 70
     1
102
RTVSPost2010Prop32
280
     0
102
RTVSPost2010PropOp32
 70
     1
102
RTVSPost2010Prop33
280
     0
102
RTVSPost2010PropOp33
 70
     1
102
RTVSPost2010Prop34
280
     0
102
RTVSPost2010PropOp34
 70
     1
102
RTVSPost2010Prop35
280
     0
102
RTVSPost2010PropOp35
 70
     1
102
RTVSPost2010Prop36
280
     0
102
RTVSPost2010PropOp36
 70
     1
102
RTVSPost2010Prop37
 90
       50
102
RTVSPost2010PropOp37
 70
     1
102
RTVSPost2010Prop38
140
0.0
102
RTVSPost2010PropOp38
 70
     1
102
RTVSPost2010Prop39
140
1.0
102
RTVSPost2010PropOp39
 70
     1
102
RTVSPost2010Prop40
 90
        0
102
RTVSPost2010PropOp40
 70
     1
102
RTVSPost2010Prop41ColorIndex
 90
       18
102
RTVSPost2010Prop41ColorRGB
 90
        0
102
RTVSPost2010PropOp41
 70
     1
102
RTVSPost2010Prop42
 90
       50
102
RTVSPost2010PropOp42
 70
     1
102
RTVSPost2010Prop43
 90
        3
102
RTVSPost2010PropOp43
 70
     1
102
RTVSPost2010Prop44ColorIndex
 90
        5
102
RTVSPost2010Prop44ColorRGB
 90
      255
102
RTVSPost2010PropOp44
 70
     1
102
RTVSPost2010Prop45
280
     0
102
RTVSPost2010PropOp45
 70
     1
102
RTVSPost2010Prop46
 90
       50
102
RTVSPost2010PropOp46
 70
     1
102
RTVSPost2010Prop47
 90
       50
102
RTVSPost2010PropOp47
 70
     1
102
RTVSPost2010Prop48
 90
       50
102
RTVSPost2010PropOp48
 70
     1
102
RTVSPost2010Prop49
280
     0
102
RTVSPost2010PropOp49
 70
     1
102
RTVSPost2010Prop50
 90
       50
102
RTVSPost2010PropOp50
 70
     1
102
RTVSPost2010Prop51ColorIndex
 90
      256
102
RTVSPost2010Prop51ColorRGB
 90
-16777216
102
RTVSPost2010PropOp51
 70
     0
102
RTVSPost2010Prop52
140
1.0
102
RTVSPost2010PropOp52
 70
     0
102
RTVSPost2010Prop53
 90
        2
102
RTVSPost2010PropOp53
 70
     1
102
RTVSPost2010Prop54
  1
strokes_ogs.tif
102
RTVSPost2010PropOp54
 70
     1
102
RTVSPost2010Prop55
280
     0
102
RTVSPost2010PropOp55
 70
     1
102
RTVSPost2010Prop56
140
1.0
102
RTVSPost2010PropOp56
 70
     1
102
RTVSPost2010Prop57
140
1.0
102
RTVSPost2010PropOp57
 70
     1
  0
XRECORD
  5
43D
102
{ACAD_REACTORS
330
43C
102
}
330
43C
100
AcDbXrecord
280
     1
102
RTVSPropertyOp0
 70
     1
102
RTVSPropertyOp1
 70
     1
102
RTVSPropertyOp2
 70
     1
102
RTVSPropertyOp3
 70
     1
102
RTVSPropertyOp4
 70
     1
102
RTVSPropertyOp5
 70
     1
102
RTVSPropertyOp6
 70
     1
102
RTVSPropertyOp7
 70
     1
102
RTVSPropertyOp8
 70
     1
102
RTVSPropertyOp9
 70
     1
102
RTVSPropertyOp10
 70
     1
102
RTVSPropertyOp11
 70
     1
102
RTVSPropertyOp12
 70
     1
102
RTVSPropertyOp13
 70
     1
102
RTVSPropertyOp14
 70
     1
102
RTVSPropertyOp15
 70
     1
102
RTVSPropertyOp16
 70
     1
102
RTVSPropertyOp17
 70
     1
102
RTVSPropertyOp18
 70
     1
102
RTVSPropertyOp19
 70
     1
102
RTVSPropertyOp20
 70
     1
102
RTVSPropertyOp21
 70
     1
102
RTVSPropertyOp22
 70
     1
102
RTVSPropertyOp23
 70
     1
102
RTVSPropertyOp24
 70
     1
102
RTVSPropertyOp25
 70
     1
102
RTVSPropertyOp26
 70
     1
102
RTVSPropertyOp27
 70
     1
102
RTVSPropertyOp28
 70
     1
102
RTVSPropertyOp29
 70
     1
102
RTVSPropertyOp30
 70
     1
102
RTVSPropertyOp31
 70
     1
102
RTVSPropertyOp32
 70
     1
102
RTVSPropertyOp33
 70
     1
102
RTVSPropertyOp34
 70
     1
102
RTVSPropertyOp35
 70
     1
102
RTVSPropertyOp36
 70
     1
102
RTVSPropertyOp37
 70
     1
102
RTVSPropertyOp38
 70
     1
102
RTVSPropertyOp39
 70
     1
102
RTVSPropertyOp40
 70
     1
102
RTVSPropertyOp41
 70
     1
102
RTVSPropertyOp42
 70
     1
102
RTVSPropertyOp43
 70
     1
102
RTVSPropertyOp44
 70
     1
102
RTVSPropertyOp45
 70
     1
102
RTVSPropertyOp46
 70
     1
102
RTVSPropertyOp47
 70
     1
102
RTVSPropertyOp48
 70
     1
102
RTVSPropertyOp49
 70
     1
102
RTVSPropertyOp50
 70
     1
102
RTVSPropertyOp51
 70
     0
102
RTVSPropertyOp52
 70
     0
102
RTVSPropertyOp53
 70
     1
102
RTVSPropertyOp54
 70
     1
102
RTVSPropertyOp55
 70
     1
102
RTVSPropertyOp56
 70
     1
102
RTVSPropertyOp57
 70
     1
102
RTVSPost2010Prop28
280
     0
102
RTVSPost2010PropOp28
 70
     1
102
RTVSPost2010Prop29
280
     1
102
RTVSPost2010PropOp29
 70
     1
102
RTVSPost2010Prop30
280
     1
102
RTVSPost2010PropOp30
 70
     1
102
RTVSPost2010Prop31
280
     0
102
RTVSPost2010PropOp31
 70
     1
102
RTVSPost2010Prop32
280
     0
102
RTVSPost2010PropOp32
 70
     1
102
RTVSPost2010Prop33
280
     0
102
RTVSPost2010PropOp33
 70
     1
102
RTVSPost2010Prop34
280
     0
102
RTVSPost2010PropOp34
 70
     1
102
RTVSPost2010Prop35
280
     0
102
RTVSPost2010PropOp35
 70
     1
102
RTVSPost2010Prop36
280
     0
102
RTVSPost2010PropOp36
 70
     1
102
RTVSPost2010Prop37
 90
       50
102
RTVSPost2010PropOp37
 70
     1
102
RTVSPost2010Prop38
140
0.0
102
RTVSPost2010PropOp38
 70
     1
102
RTVSPost2010Prop39
140
1.0
102
RTVSPost2010PropOp39
 70
     1
102
RTVSPost2010Prop40
 90
        0
102
RTVSPost2010PropOp40
 70
     1
102
RTVSPost2010Prop41ColorIndex
 90
       18
102
RTVSPost2010Prop41ColorRGB
 90
        0
102
RTVSPost2010PropOp41
 70
     1
102
RTVSPost2010Prop42
 90
       50
102
RTVSPost2010PropOp42
 70
     1
102
RTVSPost2010Prop43
 90
        3
102
RTVSPost2010PropOp43
 70
     1
102
RTVSPost2010Prop44ColorIndex
 90
        5
102
RTVSPost2010Prop44ColorRGB
 90
      255
102
RTVSPost2010PropOp44
 70
     1
102
RTVSPost2010Prop45
280
     0
102
RTVSPost2010PropOp45
 70
     1
102
RTVSPost2010Prop46
 90
       50
102
RTVSPost2010PropOp46
 70
     1
102
RTVSPost2010Prop47
 90
       50
102
RTVSPost2010PropOp47
 70
     1
102
RTVSPost2010Prop48
 90
       50
102
RTVSPost2010PropOp48
 70
     1
102
RTVSPost2010Prop49
280
     0
102
RTVSPost2010PropOp49
 70
     1
102
RTVSPost2010Prop50
 90
       50
102
RTVSPost2010PropOp50
 70
     1
102
RTVSPost2010Prop51ColorIndex
 90
      256
102
RTVSPost2010Prop51ColorRGB
 90
-16777216
102
RTVSPost2010PropOp51
 70
     0
102
RTVSPost2010Prop52
140
1.0
102
RTVSPost2010PropOp52
 70
     0
102
RTVSPost2010Prop53
 90
        2
102
RTVSPost2010PropOp53
 70
     1
102
RTVSPost2010Prop54
  1
strokes_ogs.tif
102
RTVSPost2010PropOp54
 70
     1
102
RTVSPost2010Prop55
280
     0
102
RTVSPost2010PropOp55
 70
     1
102
RTVSPost2010Prop56
140
1.0
102
RTVSPost2010PropOp56
 70
     1
102
RTVSPost2010Prop57
140
1.0
102
RTVSPost2010PropOp57
 70
     1
  0
XRECORD
  5
43F
102
{ACAD_REACTORS
330
43E
102
}
330
43E
100
AcDbXrecord
280
     1
102
RTVSPropertyOp0
 70
     1
102
RTVSPropertyOp1
 70
     1
102
RTVSPropertyOp2
 70
     1
102
RTVSPropertyOp3
 70
     1
102
RTVSPropertyOp4
 70
     1
102
RTVSPropertyOp5
 70
     1
102
RTVSPropertyOp6
 70
     1
102
RTVSPropertyOp7
 70
     1
102
RTVSPropertyOp8
 70
     1
102
RTVSPropertyOp9
 70
     1
102
RTVSPropertyOp10
 70
     1
102
RTVSPropertyOp11
 70
     1
102
RTVSPropertyOp12
 70
     1
102
RTVSPropertyOp13
 70
     1
102
RTVSPropertyOp14
 70
     1
102
RTVSPropertyOp15
 70
     1
102
RTVSPropertyOp16
 70
     1
102
RTVSPropertyOp17
 70
     1
102
RTVSPropertyOp18
 70
     1
102
RTVSPropertyOp19
 70
     1
102
RTVSPropertyOp20
 70
     1
102
RTVSPropertyOp21
 70
     1
102
RTVSPropertyOp22
 70
     1
102
RTVSPropertyOp23
 70
     1
102
RTVSPropertyOp24
 70
     1
102
RTVSPropertyOp25
 70
     1
102
RTVSPropertyOp26
 70
     1
102
RTVSPropertyOp27
 70
     1
102
RTVSPropertyOp28
 70
     1
102
RTVSPropertyOp29
 70
     1
102
RTVSPropertyOp30
 70
     1
102
RTVSPropertyOp31
 70
     1
102
RTVSPropertyOp32
 70
     1
102
RTVSPropertyOp33
 70
     1
102
RTVSPropertyOp34
 70
     1
102
RTVSPropertyOp35
 70
     1
102
RTVSPropertyOp36
 70
     1
102
RTVSPropertyOp37
 70
     1
102
RTVSPropertyOp38
 70
     1
102
RTVSPropertyOp39
 70
     1
102
RTVSPropertyOp40
 70
     1
102
RTVSPropertyOp41
 70
     1
102
RTVSPropertyOp42
 70
     1
102
RTVSPropertyOp43
 70
     1
102
RTVSPropertyOp44
 70
     1
102
RTVSPropertyOp45
 70
     1
102
RTVSPropertyOp46
 70
     1
102
RTVSPropertyOp47
 70
     1
102
RTVSPropertyOp48
 70
     1
102
RTVSPropertyOp49
 70
     1
102
RTVSPropertyOp50
 70
     1
102
RTVSPropertyOp51
 70
     0
102
RTVSPropertyOp52
 70
     0
102
RTVSPropertyOp53
 70
     1
102
RTVSPropertyOp54
 70
     1
102
RTVSPropertyOp55
 70
     1
102
RTVSPropertyOp56
 70
     1
102
RTVSPropertyOp57
 70
     1
102
RTVSPost2010Prop28
280
     0
102
RTVSPost2010PropOp28
 70
     1
102
RTVSPost2010Prop29
280
     1
102
RTVSPost2010PropOp29
 70
     1
102
RTVSPost2010Prop30
280
     1
102
RTVSPost2010PropOp30
 70
     1
102
RTVSPost2010Prop31
280
     0
102
RTVSPost2010PropOp31
 70
     1
102
RTVSPost2010Prop32
280
     0
102
RTVSPost2010PropOp32
 70
     1
102
RTVSPost2010Prop33
280
     0
102
RTVSPost2010PropOp33
 70
     1
102
RTVSPost2010Prop34
280
     0
102
RTVSPost2010PropOp34
 70
     1
102
RTVSPost2010Prop35
280
     0
102
RTVSPost2010PropOp35
 70
     1
102
RTVSPost2010Prop36
280
     0
102
RTVSPost2010PropOp36
 70
     1
102
RTVSPost2010Prop37
 90
       50
102
RTVSPost2010PropOp37
 70
     1
102
RTVSPost2010Prop38
140
0.0
102
RTVSPost2010PropOp38
 70
     1
102
RTVSPost2010Prop39
140
1.0
102
RTVSPost2010PropOp39
 70
     1
102
RTVSPost2010Prop40
 90
        0
102
RTVSPost2010PropOp40
 70
     1
102
RTVSPost2010Prop41ColorIndex
 90
       18
102
RTVSPost2010Prop41ColorRGB
 90
        0
102
RTVSPost2010PropOp41
 70
     1
102
RTVSPost2010Prop42
 90
       50
102
RTVSPost2010PropOp42
 70
     1
102
RTVSPost2010Prop43
 90
        3
102
RTVSPost2010PropOp43
 70
     1
102
RTVSPost2010Prop44ColorIndex
 90
        5
102
RTVSPost2010Prop44ColorRGB
 90
      255
102
RTVSPost2010PropOp44
 70
     1
102
RTVSPost2010Prop45
280
     0
102
RTVSPost2010PropOp45
 70
     1
102
RTVSPost2010Prop46
 90
       50
102
RTVSPost2010PropOp46
 70
     1
102
RTVSPost2010Prop47
 90
       50
102
RTVSPost2010PropOp47
 70
     1
102
RTVSPost2010Prop48
 90
       50
102
RTVSPost2010PropOp48
 70
     1
102
RTVSPost2010Prop49
280
     0
102
RTVSPost2010PropOp49
 70
     1
102
RTVSPost2010Prop50
 90
       50
102
RTVSPost2010PropOp50
 70
     1
102
RTVSPost2010Prop51ColorIndex
 90
      256
102
RTVSPost2010Prop51ColorRGB
 90
-16777216
102
RTVSPost2010PropOp51
 70
     0
102
RTVSPost2010Prop52
140
1.0
102
RTVSPost2010PropOp52
 70
     0
102
RTVSPost2010Prop53
 90
        2
102
RTVSPost2010PropOp53
 70
     1
102
RTVSPost2010Prop54
  1
strokes_ogs.tif
102
RTVSPost2010PropOp54
 70
     1
102
RTVSPost2010Prop55
280
     0
102
RTVSPost2010PropOp55
 70
     1
102
RTVSPost2010Prop56
140
1.0
102
RTVSPost2010PropOp56
 70
     1
102
RTVSPost2010Prop57
140
1.0
102
RTVSPost2010PropOp57
 70
     1
  0
XRECORD
  5
44F
102
{ACAD_REACTORS
330
44E
102
}
330
44E
100
AcDbXrecord
280
     1
102
RTVSPropertyOp0
 70
     0
102
RTVSPropertyOp1
 70
     0
102
RTVSPropertyOp2
 70
     0
102
RTVSPropertyOp3
 70
     0
102
RTVSPropertyOp4
 70
     0
102
RTVSPropertyOp5
 70
     0
102
RTVSPropertyOp6
 70
     0
102
RTVSPropertyOp7
 70
     0
102
RTVSPropertyOp8
 70
     0
102
RTVSPropertyOp9
 70
     0
102
RTVSPropertyOp10
 70
     0
102
RTVSPropertyOp11
 70
     0
102
RTVSPropertyOp12
 70
     0
102
RTVSPropertyOp13
 70
     0
102
RTVSPropertyOp14
 70
     2
102
RTVSPropertyOp15
 70
     0
102
RTVSPropertyOp16
 70
     0
102
RTVSPropertyOp17
 70
     0
102
RTVSPropertyOp18
 70
     0
102
RTVSPropertyOp19
 70
     0
102
RTVSPropertyOp20
 70
     0
102
RTVSPropertyOp21
 70
     0
102
RTVSPropertyOp22
 70
     0
102
RTVSPropertyOp23
 70
     0
102
RTVSPropertyOp24
 70
     0
102
RTVSPropertyOp25
 70
     0
102
RTVSPropertyOp26
 70
     0
102
RTVSPropertyOp27
 70
     0
102
RTVSPropertyOp28
 70
     0
102
RTVSPropertyOp29
 70
     0
102
RTVSPropertyOp30
 70
     0
102
RTVSPropertyOp31
 70
     0
102
RTVSPropertyOp32
 70
     0
102
RTVSPropertyOp33
 70
     0
102
RTVSPropertyOp34
 70
     0
102
RTVSPropertyOp35
 70
     0
102
RTVSPropertyOp36
 70
     0
102
RTVSPropertyOp37
 70
     0
102
RTVSPropertyOp38
 70
     0
102
RTVSPropertyOp39
 70
     0
102
RTVSPropertyOp40
 70
     0
102
RTVSPropertyOp41
 70
     0
102
RTVSPropertyOp42
 70
     0
102
RTVSPropertyOp43
 70
     0
102
RTVSPropertyOp44
 70
     0
102
RTVSPropertyOp45
 70
     0
102
RTVSPropertyOp46
 70
     0
102
RTVSPropertyOp47
 70
     0
102
RTVSPropertyOp48
 70
     0
102
RTVSPropertyOp49
 70
     0
102
RTVSPropertyOp50
 70
     0
102
RTVSPropertyOp51
 70
     0
102
RTVSPropertyOp52
 70
     0
102
RTVSPropertyOp53
 70
     0
102
RTVSPropertyOp54
 70
     0
102
RTVSPropertyOp55
 70
     0
102
RTVSPropertyOp56
 70
     0
102
RTVSPropertyOp57
 70
     0
102
RTVSPost2010Prop28
280
     0
102
RTVSPost2010PropOp28
 70
     0
102
RTVSPost2010Prop29
280
     1
102
RTVSPost2010PropOp29
 70
     0
102
RTVSPost2010Prop30
280
     1
102
RTVSPost2010PropOp30
 70
     0
102
RTVSPost2010Prop31
280
     0
102
RTVSPost2010PropOp31
 70
     0
102
RTVSPost2010Prop32
280
     0
102
RTVSPost2010PropOp32
 70
     0
102
RTVSPost2010Prop33
280
     0
102
RTVSPost2010PropOp33
 70
     0
102
RTVSPost2010Prop34
280
     0
102
RTVSPost2010PropOp34
 70
     0
102
RTVSPost2010Prop35
280
     0
102
RTVSPost2010PropOp35
 70
     0
102
RTVSPost2010Prop36
280
     0
102
RTVSPost2010PropOp36
 70
     0
102
RTVSPost2010Prop37
 90
       50
102
RTVSPost2010PropOp37
 70
     0
102
RTVSPost2010Prop38
140
0.0
102
RTVSPost2010PropOp38
 70
     0
102
RTVSPost2010Prop39
140
1.0
102
RTVSPost2010PropOp39
 70
     0
102
RTVSPost2010Prop40
 90
        0
102
RTVSPost2010PropOp40
 70
     0
102
RTVSPost2010Prop41ColorIndex
 90
       18
102
RTVSPost2010Prop41ColorRGB
 90
        0
102
RTVSPost2010PropOp41
 70
     0
102
RTVSPost2010Prop42
 90
       50
102
RTVSPost2010PropOp42
 70
     0
102
RTVSPost2010Prop43
 90
        3
102
RTVSPost2010PropOp43
 70
     0
102
RTVSPost2010Prop44ColorIndex
 90
        5
102
RTVSPost2010Prop44ColorRGB
 90
      255
102
RTVSPost2010PropOp44
 70
     0
102
RTVSPost2010Prop45
280
     0
102
RTVSPost2010PropOp45
 70
     0
102
RTVSPost2010Prop46
 90
       50
102
RTVSPost2010PropOp46
 70
     0
102
RTVSPost2010Prop47
 90
       50
102
RTVSPost2010PropOp47
 70
     0
102
RTVSPost2010Prop48
 90
       50
102
RTVSPost2010PropOp48
 70
     0
102
RTVSPost2010Prop49
280
     0
102
RTVSPost2010PropOp49
 70
     0
102
RTVSPost2010Prop50
 90
       50
102
RTVSPost2010PropOp50
 70
     0
102
RTVSPost2010Prop51ColorIndex
 90
      256
102
RTVSPost2010Prop51ColorRGB
 90
-16777216
102
RTVSPost2010PropOp51
 70
     0
102
RTVSPost2010Prop52
140
1.0
102
RTVSPost2010PropOp52
 70
     0
102
RTVSPost2010Prop53
 90
        2
102
RTVSPost2010PropOp53
 70
     0
102
RTVSPost2010Prop54
  1
strokes_ogs.tif
102
RTVSPost2010PropOp54
 70
     0
102
RTVSPost2010Prop55
280
     0
102
RTVSPost2010PropOp55
 70
     0
102
RTVSPost2010Prop56
140
1.0
102
RTVSPost2010PropOp56
 70
     0
102
RTVSPost2010Prop57
140
1.0
102
RTVSPost2010PropOp57
 70
     0
  0
XRECORD
  5
447
102
{ACAD_REACTORS
330
446
102
}
330
446
100
AcDbXrecord
280
     1
102
RTVSPropertyOp0
 70
     1
102
RTVSPropertyOp1
 70
     1
102
RTVSPropertyOp2
 70
     1
102
RTVSPropertyOp3
 70
     1
102
RTVSPropertyOp4
 70
     1
102
RTVSPropertyOp5
 70
     1
102
RTVSPropertyOp6
 70
     1
102
RTVSPropertyOp7
 70
     1
102
RTVSPropertyOp8
 70
     1
102
RTVSPropertyOp9
 70
     1
102
RTVSPropertyOp10
 70
     1
102
RTVSPropertyOp11
 70
     1
102
RTVSPropertyOp12
 70
     1
102
RTVSPropertyOp13
 70
     1
102
RTVSPropertyOp14
 70
     1
102
RTVSPropertyOp15
 70
     1
102
RTVSPropertyOp16
 70
     1
102
RTVSPropertyOp17
 70
     1
102
RTVSPropertyOp18
 70
     1
102
RTVSPropertyOp19
 70
     1
102
RTVSPropertyOp20
 70
     1
102
RTVSPropertyOp21
 70
     1
102
RTVSPropertyOp22
 70
     1
102
RTVSPropertyOp23
 70
     1
102
RTVSPropertyOp24
 70
     1
102
RTVSPropertyOp25
 70
     1
102
RTVSPropertyOp26
 70
     1
102
RTVSPropertyOp27
 70
     1
102
RTVSPropertyOp28
 70
     1
102
RTVSPropertyOp29
 70
     1
102
RTVSPropertyOp30
 70
     1
102
RTVSPropertyOp31
 70
     1
102
RTVSPropertyOp32
 70
     1
102
RTVSPropertyOp33
 70
     1
102
RTVSPropertyOp34
 70
     1
102
RTVSPropertyOp35
 70
     1
102
RTVSPropertyOp36
 70
     1
102
RTVSPropertyOp37
 70
     1
102
RTVSPropertyOp38
 70
     1
102
RTVSPropertyOp39
 70
     1
102
RTVSPropertyOp40
 70
     1
102
RTVSPropertyOp41
 70
     1
102
RTVSPropertyOp42
 70
     1
102
RTVSPropertyOp43
 70
     1
102
RTVSPropertyOp44
 70
     1
102
RTVSPropertyOp45
 70
     1
102
RTVSPropertyOp46
 70
     1
102
RTVSPropertyOp47
 70
     1
102
RTVSPropertyOp48
 70
     1
102
RTVSPropertyOp49
 70
     1
102
RTVSPropertyOp50
 70
     1
102
RTVSPropertyOp51
 70
     0
102
RTVSPropertyOp52
 70
     0
102
RTVSPropertyOp53
 70
     1
102
RTVSPropertyOp54
 70
     1
102
RTVSPropertyOp55
 70
     1
102
RTVSPropertyOp56
 70
     1
102
RTVSPropertyOp57
 70
     1
102
RTVSPost2010Prop28
280
     0
102
RTVSPost2010PropOp28
 70
     1
102
RTVSPost2010Prop29
280
     1
102
RTVSPost2010PropOp29
 70
     1
102
RTVSPost2010Prop30
280
     1
102
RTVSPost2010PropOp30
 70
     1
102
RTVSPost2010Prop31
280
     0
102
RTVSPost2010PropOp31
 70
     1
102
RTVSPost2010Prop32
280
     0
102
RTVSPost2010PropOp32
 70
     1
102
RTVSPost2010Prop33
280
     0
102
RTVSPost2010PropOp33
 70
     1
102
RTVSPost2010Prop34
280
     0
102
RTVSPost2010PropOp34
 70
     1
102
RTVSPost2010Prop35
280
     0
102
RTVSPost2010PropOp35
 70
     1
102
RTVSPost2010Prop36
280
     0
102
RTVSPost2010PropOp36
 70
     1
102
RTVSPost2010Prop37
 90
       50
102
RTVSPost2010PropOp37
 70
     1
102
RTVSPost2010Prop38
140
0.0
102
RTVSPost2010PropOp38
 70
     1
102
RTVSPost2010Prop39
140
1.0
102
RTVSPost2010PropOp39
 70
     1
102
RTVSPost2010Prop40
 90
        0
102
RTVSPost2010PropOp40
 70
     1
102
RTVSPost2010Prop41ColorIndex
 90
       18
102
RTVSPost2010Prop41ColorRGB
 90
        0
102
RTVSPost2010PropOp41
 70
     1
102
RTVSPost2010Prop42
 90
       50
102
RTVSPost2010PropOp42
 70
     1
102
RTVSPost2010Prop43
 90
        3
102
RTVSPost2010PropOp43
 70
     1
102
RTVSPost2010Prop44ColorIndex
 90
        5
102
RTVSPost2010Prop44ColorRGB
 90
      255
102
RTVSPost2010PropOp44
 70
     1
102
RTVSPost2010Prop45
280
     0
102
RTVSPost2010PropOp45
 70
     1
102
RTVSPost2010Prop46
 90
       50
102
RTVSPost2010PropOp46
 70
     1
102
RTVSPost2010Prop47
 90
       50
102
RTVSPost2010PropOp47
 70
     1
102
RTVSPost2010Prop48
 90
       50
102
RTVSPost2010PropOp48
 70
     1
102
RTVSPost2010Prop49
280
     0
102
RTVSPost2010PropOp49
 70
     1
102
RTVSPost2010Prop50
 90
       50
102
RTVSPost2010PropOp50
 70
     1
102
RTVSPost2010Prop51ColorIndex
 90
      256
102
RTVSPost2010Prop51ColorRGB
 90
-16777216
102
RTVSPost2010PropOp51
 70
     0
102
RTVSPost2010Prop52
140
1.0
102
RTVSPost2010PropOp52
 70
     0
102
RTVSPost2010Prop53
 90
        2
102
RTVSPost2010PropOp53
 70
     1
102
RTVSPost2010Prop54
  1
strokes_ogs.tif
102
RTVSPost2010PropOp54
 70
     1
102
RTVSPost2010Prop55
280
     0
102
RTVSPost2010PropOp55
 70
     1
102
RTVSPost2010Prop56
140
1.0
102
RTVSPost2010PropOp56
 70
     1
102
RTVSPost2010Prop57
140
1.0
102
RTVSPost2010PropOp57
 70
     1
  0
XRECORD
  5
42B
102
{ACAD_REACTORS
330
42A
102
}
330
42A
100
AcDbXrecord
280
     1
102
RTVSPropertyOp0
 70
     1
102
RTVSPropertyOp1
 70
     1
102
RTVSPropertyOp2
 70
     1
102
RTVSPropertyOp3
 70
     1
102
RTVSPropertyOp4
 70
     1
102
RTVSPropertyOp5
 70
     1
102
RTVSPropertyOp6
 70
     1
102
RTVSPropertyOp7
 70
     1
102
RTVSPropertyOp8
 70
     1
102
RTVSPropertyOp9
 70
     1
102
RTVSPropertyOp10
 70
     1
102
RTVSPropertyOp11
 70
     1
102
RTVSPropertyOp12
 70
     1
102
RTVSPropertyOp13
 70
     1
102
RTVSPropertyOp14
 70
     1
102
RTVSPropertyOp15
 70
     1
102
RTVSPropertyOp16
 70
     1
102
RTVSPropertyOp17
 70
     1
102
RTVSPropertyOp18
 70
     1
102
RTVSPropertyOp19
 70
     1
102
RTVSPropertyOp20
 70
     1
102
RTVSPropertyOp21
 70
     1
102
RTVSPropertyOp22
 70
     1
102
RTVSPropertyOp23
 70
     1
102
RTVSPropertyOp24
 70
     1
102
RTVSPropertyOp25
 70
     1
102
RTVSPropertyOp26
 70
     1
102
RTVSPropertyOp27
 70
     1
102
RTVSPropertyOp28
 70
     1
102
RTVSPropertyOp29
 70
     1
102
RTVSPropertyOp30
 70
     1
102
RTVSPropertyOp31
 70
     1
102
RTVSPropertyOp32
 70
     1
102
RTVSPropertyOp33
 70
     1
102
RTVSPropertyOp34
 70
     1
102
RTVSPropertyOp35
 70
     1
102
RTVSPropertyOp36
 70
     1
102
RTVSPropertyOp37
 70
     1
102
RTVSPropertyOp38
 70
     1
102
RTVSPropertyOp39
 70
     1
102
RTVSPropertyOp40
 70
     1
102
RTVSPropertyOp41
 70
     1
102
RTVSPropertyOp42
 70
     1
102
RTVSPropertyOp43
 70
     1
102
RTVSPropertyOp44
 70
     1
102
RTVSPropertyOp45
 70
     1
102
RTVSPropertyOp46
 70
     1
102
RTVSPropertyOp47
 70
     1
102
RTVSPropertyOp48
 70
     1
102
RTVSPropertyOp49
 70
     1
102
RTVSPropertyOp50
 70
     1
102
RTVSPropertyOp51
 70
     0
102
RTVSPropertyOp52
 70
     0
102
RTVSPropertyOp53
 70
     1
102
RTVSPropertyOp54
 70
     1
102
RTVSPropertyOp55
 70
     1
102
RTVSPropertyOp56
 70
     1
102
RTVSPropertyOp57
 70
     1
102
RTVSPost2010Prop28
280
     0
102
RTVSPost2010PropOp28
 70
     1
102
RTVSPost2010Prop29
280
     1
102
RTVSPost2010PropOp29
 70
     1
102
RTVSPost2010Prop30
280
     1
102
RTVSPost2010PropOp30
 70
     1
102
RTVSPost2010Prop31
280
     0
102
RTVSPost2010PropOp31
 70
     1
102
RTVSPost2010Prop32
280
     0
102
RTVSPost2010PropOp32
 70
     1
102
RTVSPost2010Prop33
280
     0
102
RTVSPost2010PropOp33
 70
     1
102
RTVSPost2010Prop34
280
     0
102
RTVSPost2010PropOp34
 70
     1
102
RTVSPost2010Prop35
280
     0
102
RTVSPost2010PropOp35
 70
     1
102
RTVSPost2010Prop36
280
     0
102
RTVSPost2010PropOp36
 70
     1
102
RTVSPost2010Prop37
 90
       50
102
RTVSPost2010PropOp37
 70
     1
102
RTVSPost2010Prop38
140
0.0
102
RTVSPost2010PropOp38
 70
     1
102
RTVSPost2010Prop39
140
1.0
102
RTVSPost2010PropOp39
 70
     1
102
RTVSPost2010Prop40
 90
        0
102
RTVSPost2010PropOp40
 70
     1
102
RTVSPost2010Prop41ColorIndex
 90
       18
102
RTVSPost2010Prop41ColorRGB
 90
        0
102
RTVSPost2010PropOp41
 70
     1
102
RTVSPost2010Prop42
 90
       50
102
RTVSPost2010PropOp42
 70
     1
102
RTVSPost2010Prop43
 90
        3
102
RTVSPost2010PropOp43
 70
     1
102
RTVSPost2010Prop44ColorIndex
 90
        5
102
RTVSPost2010Prop44ColorRGB
 90
      255
102
RTVSPost2010PropOp44
 70
     1
102
RTVSPost2010Prop45
280
     0
102
RTVSPost2010PropOp45
 70
     1
102
RTVSPost2010Prop46
 90
       50
102
RTVSPost2010PropOp46
 70
     1
102
RTVSPost2010Prop47
 90
       50
102
RTVSPost2010PropOp47
 70
     1
102
RTVSPost2010Prop48
 90
       50
102
RTVSPost2010PropOp48
 70
     1
102
RTVSPost2010Prop49
280
     0
102
RTVSPost2010PropOp49
 70
     1
102
RTVSPost2010Prop50
 90
       50
102
RTVSPost2010PropOp50
 70
     1
102
RTVSPost2010Prop51ColorIndex
 90
      256
102
RTVSPost2010Prop51ColorRGB
 90
-16777216
102
RTVSPost2010PropOp51
 70
     0
102
RTVSPost2010Prop52
140
1.0
102
RTVSPost2010PropOp52
 70
     0
102
RTVSPost2010Prop53
 90
        2
102
RTVSPost2010PropOp53
 70
     1
102
RTVSPost2010Prop54
  1
strokes_ogs.tif
102
RTVSPost2010PropOp54
 70
     1
102
RTVSPost2010Prop55
280
     0
102
RTVSPost2010PropOp55
 70
     1
102
RTVSPost2010Prop56
140
1.0
102
RTVSPost2010PropOp56
 70
     1
102
RTVSPost2010Prop57
140
1.0
102
RTVSPost2010PropOp57
 70
     1
  0
XRECORD
  5
42D
102
{ACAD_REACTORS
330
42C
102
}
330
42C
100
AcDbXrecord
280
     1
102
RTVSPropertyOp0
 70
     1
102
RTVSPropertyOp1
 70
     1
102
RTVSPropertyOp2
 70
     1
102
RTVSPropertyOp3
 70
     1
102
RTVSPropertyOp4
 70
     1
102
RTVSPropertyOp5
 70
     1
102
RTVSPropertyOp6
 70
     1
102
RTVSPropertyOp7
 70
     1
102
RTVSPropertyOp8
 70
     1
102
RTVSPropertyOp9
 70
     1
102
RTVSPropertyOp10
 70
     1
102
RTVSPropertyOp11
 70
     1
102
RTVSPropertyOp12
 70
     1
102
RTVSPropertyOp13
 70
     1
102
RTVSPropertyOp14
 70
     1
102
RTVSPropertyOp15
 70
     1
102
RTVSPropertyOp16
 70
     1
102
RTVSPropertyOp17
 70
     1
102
RTVSPropertyOp18
 70
     1
102
RTVSPropertyOp19
 70
     1
102
RTVSPropertyOp20
 70
     1
102
RTVSPropertyOp21
 70
     1
102
RTVSPropertyOp22
 70
     1
102
RTVSPropertyOp23
 70
     1
102
RTVSPropertyOp24
 70
     1
102
RTVSPropertyOp25
 70
     1
102
RTVSPropertyOp26
 70
     1
102
RTVSPropertyOp27
 70
     1
102
RTVSPropertyOp28
 70
     1
102
RTVSPropertyOp29
 70
     1
102
RTVSPropertyOp30
 70
     1
102
RTVSPropertyOp31
 70
     1
102
RTVSPropertyOp32
 70
     1
102
RTVSPropertyOp33
 70
     1
102
RTVSPropertyOp34
 70
     1
102
RTVSPropertyOp35
 70
     1
102
RTVSPropertyOp36
 70
     1
102
RTVSPropertyOp37
 70
     1
102
RTVSPropertyOp38
 70
     1
102
RTVSPropertyOp39
 70
     1
102
RTVSPropertyOp40
 70
     1
102
RTVSPropertyOp41
 70
     1
102
RTVSPropertyOp42
 70
     1
102
RTVSPropertyOp43
 70
     1
102
RTVSPropertyOp44
 70
     1
102
RTVSPropertyOp45
 70
     1
102
RTVSPropertyOp46
 70
     1
102
RTVSPropertyOp47
 70
     1
102
RTVSPropertyOp48
 70
     1
102
RTVSPropertyOp49
 70
     1
102
RTVSPropertyOp50
 70
     1
102
RTVSPropertyOp51
 70
     0
102
RTVSPropertyOp52
 70
     0
102
RTVSPropertyOp53
 70
     1
102
RTVSPropertyOp54
 70
     1
102
RTVSPropertyOp55
 70
     1
102
RTVSPropertyOp56
 70
     1
102
RTVSPropertyOp57
 70
     1
102
RTVSPost2010Prop28
280
     0
102
RTVSPost2010PropOp28
 70
     1
102
RTVSPost2010Prop29
280
     1
102
RTVSPost2010PropOp29
 70
     1
102
RTVSPost2010Prop30
280
     1
102
RTVSPost2010PropOp30
 70
     1
102
RTVSPost2010Prop31
280
     0
102
RTVSPost2010PropOp31
 70
     1
102
RTVSPost2010Prop32
280
     0
102
RTVSPost2010PropOp32
 70
     1
102
RTVSPost2010Prop33
280
     0
102
RTVSPost2010PropOp33
 70
     1
102
RTVSPost2010Prop34
280
     0
102
RTVSPost2010PropOp34
 70
     1
102
RTVSPost2010Prop35
280
     0
102
RTVSPost2010PropOp35
 70
     1
102
RTVSPost2010Prop36
280
     0
102
RTVSPost2010PropOp36
 70
     1
102
RTVSPost2010Prop37
 90
       50
102
RTVSPost2010PropOp37
 70
     1
102
RTVSPost2010Prop38
140
0.0
102
RTVSPost2010PropOp38
 70
     1
102
RTVSPost2010Prop39
140
1.0
102
RTVSPost2010PropOp39
 70
     1
102
RTVSPost2010Prop40
 90
        0
102
RTVSPost2010PropOp40
 70
     1
102
RTVSPost2010Prop41ColorIndex
 90
       18
102
RTVSPost2010Prop41ColorRGB
 90
        0
102
RTVSPost2010PropOp41
 70
     1
102
RTVSPost2010Prop42
 90
       50
102
RTVSPost2010PropOp42
 70
     1
102
RTVSPost2010Prop43
 90
        3
102
RTVSPost2010PropOp43
 70
     1
102
RTVSPost2010Prop44ColorIndex
 90
        5
102
RTVSPost2010Prop44ColorRGB
 90
      255
102
RTVSPost2010PropOp44
 70
     1
102
RTVSPost2010Prop45
280
     0
102
RTVSPost2010PropOp45
 70
     1
102
RTVSPost2010Prop46
 90
       50
102
RTVSPost2010PropOp46
 70
     1
102
RTVSPost2010Prop47
 90
       50
102
RTVSPost2010PropOp47
 70
     1
102
RTVSPost2010Prop48
 90
       50
102
RTVSPost2010PropOp48
 70
     1
102
RTVSPost2010Prop49
280
     0
102
RTVSPost2010PropOp49
 70
     1
102
RTVSPost2010Prop50
 90
       50
102
RTVSPost2010PropOp50
 70
     1
102
RTVSPost2010Prop51ColorIndex
 90
      256
102
RTVSPost2010Prop51ColorRGB
 90
-16777216
102
RTVSPost2010PropOp51
 70
     0
102
RTVSPost2010Prop52
140
1.0
102
RTVSPost2010PropOp52
 70
     0
102
RTVSPost2010Prop53
 90
        2
102
RTVSPost2010PropOp53
 70
     1
102
RTVSPost2010Prop54
  1
strokes_ogs.tif
102
RTVSPost2010PropOp54
 70
     1
102
RTVSPost2010Prop55
280
     0
102
RTVSPost2010PropOp55
 70
     1
102
RTVSPost2010Prop56
140
1.0
102
RTVSPost2010PropOp56
 70
     1
102
RTVSPost2010Prop57
140
1.0
102
RTVSPost2010PropOp57
 70
     1
  0
XRECORD
  5
42F
102
{ACAD_REACTORS
330
42E
102
}
330
42E
100
AcDbXrecord
280
     1
102
RTVSPropertyOp0
 70
     1
102
RTVSPropertyOp1
 70
     1
102
RTVSPropertyOp2
 70
     1
102
RTVSPropertyOp3
 70
     1
102
RTVSPropertyOp4
 70
     1
102
RTVSPropertyOp5
 70
     1
102
RTVSPropertyOp6
 70
     1
102
RTVSPropertyOp7
 70
     1
102
RTVSPropertyOp8
 70
     1
102
RTVSPropertyOp9
 70
     1
102
RTVSPropertyOp10
 70
     1
102
RTVSPropertyOp11
 70
     1
102
RTVSPropertyOp12
 70
     1
102
RTVSPropertyOp13
 70
     1
102
RTVSPropertyOp14
 70
     1
102
RTVSPropertyOp15
 70
     1
102
RTVSPropertyOp16
 70
     1
102
RTVSPropertyOp17
 70
     1
102
RTVSPropertyOp18
 70
     1
102
RTVSPropertyOp19
 70
     1
102
RTVSPropertyOp20
 70
     1
102
RTVSPropertyOp21
 70
     1
102
RTVSPropertyOp22
 70
     1
102
RTVSPropertyOp23
 70
     1
102
RTVSPropertyOp24
 70
     1
102
RTVSPropertyOp25
 70
     1
102
RTVSPropertyOp26
 70
     1
102
RTVSPropertyOp27
 70
     1
102
RTVSPropertyOp28
 70
     1
102
RTVSPropertyOp29
 70
     1
102
RTVSPropertyOp30
 70
     1
102
RTVSPropertyOp31
 70
     1
102
RTVSPropertyOp32
 70
     1
102
RTVSPropertyOp33
 70
     1
102
RTVSPropertyOp34
 70
     1
102
RTVSPropertyOp35
 70
     1
102
RTVSPropertyOp36
 70
     1
102
RTVSPropertyOp37
 70
     1
102
RTVSPropertyOp38
 70
     1
102
RTVSPropertyOp39
 70
     1
102
RTVSPropertyOp40
 70
     1
102
RTVSPropertyOp41
 70
     1
102
RTVSPropertyOp42
 70
     1
102
RTVSPropertyOp43
 70
     1
102
RTVSPropertyOp44
 70
     1
102
RTVSPropertyOp45
 70
     1
102
RTVSPropertyOp46
 70
     1
102
RTVSPropertyOp47
 70
     1
102
RTVSPropertyOp48
 70
     1
102
RTVSPropertyOp49
 70
     1
102
RTVSPropertyOp50
 70
     1
102
RTVSPropertyOp51
 70
     0
102
RTVSPropertyOp52
 70
     0
102
RTVSPropertyOp53
 70
     1
102
RTVSPropertyOp54
 70
     1
102
RTVSPropertyOp55
 70
     1
102
RTVSPropertyOp56
 70
     1
102
RTVSPropertyOp57
 70
     1
102
RTVSPost2010Prop28
280
     0
102
RTVSPost2010PropOp28
 70
     1
102
RTVSPost2010Prop29
280
     1
102
RTVSPost2010PropOp29
 70
     1
102
RTVSPost2010Prop30
280
     1
102
RTVSPost2010PropOp30
 70
     1
102
RTVSPost2010Prop31
280
     0
102
RTVSPost2010PropOp31
 70
     1
102
RTVSPost2010Prop32
280
     0
102
RTVSPost2010PropOp32
 70
     1
102
RTVSPost2010Prop33
280
     0
102
RTVSPost2010PropOp33
 70
     1
102
RTVSPost2010Prop34
280
     0
102
RTVSPost2010PropOp34
 70
     1
102
RTVSPost2010Prop35
280
     0
102
RTVSPost2010PropOp35
 70
     1
102
RTVSPost2010Prop36
280
     0
102
RTVSPost2010PropOp36
 70
     1
102
RTVSPost2010Prop37
 90
       50
102
RTVSPost2010PropOp37
 70
     1
102
RTVSPost2010Prop38
140
0.0
102
RTVSPost2010PropOp38
 70
     1
102
RTVSPost2010Prop39
140
1.0
102
RTVSPost2010PropOp39
 70
     1
102
RTVSPost2010Prop40
 90
        0
102
RTVSPost2010PropOp40
 70
     1
102
RTVSPost2010Prop41ColorIndex
 90
       18
102
RTVSPost2010Prop41ColorRGB
 90
        0
102
RTVSPost2010PropOp41
 70
     1
102
RTVSPost2010Prop42
 90
       50
102
RTVSPost2010PropOp42
 70
     1
102
RTVSPost2010Prop43
 90
        3
102
RTVSPost2010PropOp43
 70
     1
102
RTVSPost2010Prop44ColorIndex
 90
        5
102
RTVSPost2010Prop44ColorRGB
 90
      255
102
RTVSPost2010PropOp44
 70
     1
102
RTVSPost2010Prop45
280
     0
102
RTVSPost2010PropOp45
 70
     1
102
RTVSPost2010Prop46
 90
       50
102
RTVSPost2010PropOp46
 70
     1
102
RTVSPost2010Prop47
 90
       50
102
RTVSPost2010PropOp47
 70
     1
102
RTVSPost2010Prop48
 90
       50
102
RTVSPost2010PropOp48
 70
     1
102
RTVSPost2010Prop49
280
     0
102
RTVSPost2010PropOp49
 70
     1
102
RTVSPost2010Prop50
 90
       50
102
RTVSPost2010PropOp50
 70
     1
102
RTVSPost2010Prop51ColorIndex
 90
      256
102
RTVSPost2010Prop51ColorRGB
 90
-16777216
102
RTVSPost2010PropOp51
 70
     0
102
RTVSPost2010Prop52
140
1.0
102
RTVSPost2010PropOp52
 70
     0
102
RTVSPost2010Prop53
 90
        2
102
RTVSPost2010PropOp53
 70
     1
102
RTVSPost2010Prop54
  1
strokes_ogs.tif
102
RTVSPost2010PropOp54
 70
     1
102
RTVSPost2010Prop55
280
     0
102
RTVSPost2010PropOp55
 70
     1
102
RTVSPost2010Prop56
140
1.0
102
RTVSPost2010PropOp56
 70
     1
102
RTVSPost2010Prop57
140
1.0
102
RTVSPost2010PropOp57
 70
     1
  0
XRECORD
  5
431
102
{ACAD_REACTORS
330
430
102
}
330
430
100
AcDbXrecord
280
     1
102
RTVSPropertyOp0
 70
     1
102
RTVSPropertyOp1
 70
     1
102
RTVSPropertyOp2
 70
     1
102
RTVSPropertyOp3
 70
     1
102
RTVSPropertyOp4
 70
     1
102
RTVSPropertyOp5
 70
     1
102
RTVSPropertyOp6
 70
     1
102
RTVSPropertyOp7
 70
     1
102
RTVSPropertyOp8
 70
     1
102
RTVSPropertyOp9
 70
     1
102
RTVSPropertyOp10
 70
     1
102
RTVSPropertyOp11
 70
     1
102
RTVSPropertyOp12
 70
     1
102
RTVSPropertyOp13
 70
     1
102
RTVSPropertyOp14
 70
     1
102
RTVSPropertyOp15
 70
     1
102
RTVSPropertyOp16
 70
     1
102
RTVSPropertyOp17
 70
     1
102
RTVSPropertyOp18
 70
     1
102
RTVSPropertyOp19
 70
     1
102
RTVSPropertyOp20
 70
     1
102
RTVSPropertyOp21
 70
     1
102
RTVSPropertyOp22
 70
     1
102
RTVSPropertyOp23
 70
     1
102
RTVSPropertyOp24
 70
     1
102
RTVSPropertyOp25
 70
     1
102
RTVSPropertyOp26
 70
     1
102
RTVSPropertyOp27
 70
     1
102
RTVSPropertyOp28
 70
     1
102
RTVSPropertyOp29
 70
     1
102
RTVSPropertyOp30
 70
     1
102
RTVSPropertyOp31
 70
     1
102
RTVSPropertyOp32
 70
     1
102
RTVSPropertyOp33
 70
     1
102
RTVSPropertyOp34
 70
     1
102
RTVSPropertyOp35
 70
     1
102
RTVSPropertyOp36
 70
     1
102
RTVSPropertyOp37
 70
     1
102
RTVSPropertyOp38
 70
     1
102
RTVSPropertyOp39
 70
     1
102
RTVSPropertyOp40
 70
     1
102
RTVSPropertyOp41
 70
     1
102
RTVSPropertyOp42
 70
     1
102
RTVSPropertyOp43
 70
     1
102
RTVSPropertyOp44
 70
     1
102
RTVSPropertyOp45
 70
     1
102
RTVSPropertyOp46
 70
     1
102
RTVSPropertyOp47
 70
     1
102
RTVSPropertyOp48
 70
     1
102
RTVSPropertyOp49
 70
     1
102
RTVSPropertyOp50
 70
     1
102
RTVSPropertyOp51
 70
     0
102
RTVSPropertyOp52
 70
     0
102
RTVSPropertyOp53
 70
     1
102
RTVSPropertyOp54
 70
     1
102
RTVSPropertyOp55
 70
     1
102
RTVSPropertyOp56
 70
     1
102
RTVSPropertyOp57
 70
     1
102
RTVSPost2010Prop28
280
     0
102
RTVSPost2010PropOp28
 70
     1
102
RTVSPost2010Prop29
280
     1
102
RTVSPost2010PropOp29
 70
     1
102
RTVSPost2010Prop30
280
     1
102
RTVSPost2010PropOp30
 70
     1
102
RTVSPost2010Prop31
280
     0
102
RTVSPost2010PropOp31
 70
     1
102
RTVSPost2010Prop32
280
     0
102
RTVSPost2010PropOp32
 70
     1
102
RTVSPost2010Prop33
280
     0
102
RTVSPost2010PropOp33
 70
     1
102
RTVSPost2010Prop34
280
     0
102
RTVSPost2010PropOp34
 70
     1
102
RTVSPost2010Prop35
280
     0
102
RTVSPost2010PropOp35
 70
     1
102
RTVSPost2010Prop36
280
     0
102
RTVSPost2010PropOp36
 70
     1
102
RTVSPost2010Prop37
 90
       50
102
RTVSPost2010PropOp37
 70
     1
102
RTVSPost2010Prop38
140
0.0
102
RTVSPost2010PropOp38
 70
     1
102
RTVSPost2010Prop39
140
1.0
102
RTVSPost2010PropOp39
 70
     1
102
RTVSPost2010Prop40
 90
        0
102
RTVSPost2010PropOp40
 70
     1
102
RTVSPost2010Prop41ColorIndex
 90
       18
102
RTVSPost2010Prop41ColorRGB
 90
        0
102
RTVSPost2010PropOp41
 70
     1
102
RTVSPost2010Prop42
 90
       50
102
RTVSPost2010PropOp42
 70
     1
102
RTVSPost2010Prop43
 90
        3
102
RTVSPost2010PropOp43
 70
     1
102
RTVSPost2010Prop44ColorIndex
 90
        5
102
RTVSPost2010Prop44ColorRGB
 90
      255
102
RTVSPost2010PropOp44
 70
     1
102
RTVSPost2010Prop45
280
     0
102
RTVSPost2010PropOp45
 70
     1
102
RTVSPost2010Prop46
 90
       50
102
RTVSPost2010PropOp46
 70
     1
102
RTVSPost2010Prop47
 90
       50
102
RTVSPost2010PropOp47
 70
     1
102
RTVSPost2010Prop48
 90
       50
102
RTVSPost2010PropOp48
 70
     1
102
RTVSPost2010Prop49
280
     0
102
RTVSPost2010PropOp49
 70
     1
102
RTVSPost2010Prop50
 90
       50
102
RTVSPost2010PropOp50
 70
     1
102
RTVSPost2010Prop51ColorIndex
 90
      256
102
RTVSPost2010Prop51ColorRGB
 90
-16777216
102
RTVSPost2010PropOp51
 70
     0
102
RTVSPost2010Prop52
140
1.0
102
RTVSPost2010PropOp52
 70
     0
102
RTVSPost2010Prop53
 90
        2
102
RTVSPost2010PropOp53
 70
     1
102
RTVSPost2010Prop54
  1
strokes_ogs.tif
102
RTVSPost2010PropOp54
 70
     1
102
RTVSPost2010Prop55
280
     0
102
RTVSPost2010PropOp55
 70
     1
102
RTVSPost2010Prop56
140
1.0
102
RTVSPost2010PropOp56
 70
     1
102
RTVSPost2010Prop57
140
1.0
102
RTVSPost2010PropOp57
 70
     1
  0
XRECORD
  5
437
102
{ACAD_REACTORS
330
436
102
}
330
436
100
AcDbXrecord
280
     1
102
RTVSPropertyOp0
 70
     1
102
RTVSPropertyOp1
 70
     1
102
RTVSPropertyOp2
 70
     1
102
RTVSPropertyOp3
 70
     1
102
RTVSPropertyOp4
 70
     1
102
RTVSPropertyOp5
 70
     1
102
RTVSPropertyOp6
 70
     1
102
RTVSPropertyOp7
 70
     1
102
RTVSPropertyOp8
 70
     1
102
RTVSPropertyOp9
 70
     1
102
RTVSPropertyOp10
 70
     1
102
RTVSPropertyOp11
 70
     1
102
RTVSPropertyOp12
 70
     1
102
RTVSPropertyOp13
 70
     1
102
RTVSPropertyOp14
 70
     1
102
RTVSPropertyOp15
 70
     1
102
RTVSPropertyOp16
 70
     1
102
RTVSPropertyOp17
 70
     1
102
RTVSPropertyOp18
 70
     1
102
RTVSPropertyOp19
 70
     1
102
RTVSPropertyOp20
 70
     1
102
RTVSPropertyOp21
 70
     1
102
RTVSPropertyOp22
 70
     1
102
RTVSPropertyOp23
 70
     1
102
RTVSPropertyOp24
 70
     1
102
RTVSPropertyOp25
 70
     1
102
RTVSPropertyOp26
 70
     1
102
RTVSPropertyOp27
 70
     1
102
RTVSPropertyOp28
 70
     1
102
RTVSPropertyOp29
 70
     1
102
RTVSPropertyOp30
 70
     1
102
RTVSPropertyOp31
 70
     1
102
RTVSPropertyOp32
 70
     1
102
RTVSPropertyOp33
 70
     1
102
RTVSPropertyOp34
 70
     1
102
RTVSPropertyOp35
 70
     1
102
RTVSPropertyOp36
 70
     1
102
RTVSPropertyOp37
 70
     1
102
RTVSPropertyOp38
 70
     1
102
RTVSPropertyOp39
 70
     1
102
RTVSPropertyOp40
 70
     1
102
RTVSPropertyOp41
 70
     1
102
RTVSPropertyOp42
 70
     1
102
RTVSPropertyOp43
 70
     1
102
RTVSPropertyOp44
 70
     1
102
RTVSPropertyOp45
 70
     1
102
RTVSPropertyOp46
 70
     1
102
RTVSPropertyOp47
 70
     1
102
RTVSPropertyOp48
 70
     1
102
RTVSPropertyOp49
 70
     1
102
RTVSPropertyOp50
 70
     1
102
RTVSPropertyOp51
 70
     0
102
RTVSPropertyOp52
 70
     0
102
RTVSPropertyOp53
 70
     1
102
RTVSPropertyOp54
 70
     1
102
RTVSPropertyOp55
 70
     1
102
RTVSPropertyOp56
 70
     1
102
RTVSPropertyOp57
 70
     1
102
RTVSPost2010Prop28
280
     0
102
RTVSPost2010PropOp28
 70
     1
102
RTVSPost2010Prop29
280
     1
102
RTVSPost2010PropOp29
 70
     1
102
RTVSPost2010Prop30
280
     1
102
RTVSPost2010PropOp30
 70
     1
102
RTVSPost2010Prop31
280
     0
102
RTVSPost2010PropOp31
 70
     1
102
RTVSPost2010Prop32
280
     0
102
RTVSPost2010PropOp32
 70
     1
102
RTVSPost2010Prop33
280
     0
102
RTVSPost2010PropOp33
 70
     1
102
RTVSPost2010Prop34
280
     0
102
RTVSPost2010PropOp34
 70
     1
102
RTVSPost2010Prop35
280
     0
102
RTVSPost2010PropOp35
 70
     1
102
RTVSPost2010Prop36
280
     0
102
RTVSPost2010PropOp36
 70
     1
102
RTVSPost2010Prop37
 90
       50
102
RTVSPost2010PropOp37
 70
     1
102
RTVSPost2010Prop38
140
0.0
102
RTVSPost2010PropOp38
 70
     1
102
RTVSPost2010Prop39
140
1.0
102
RTVSPost2010PropOp39
 70
     1
102
RTVSPost2010Prop40
 90
        0
102
RTVSPost2010PropOp40
 70
     1
102
RTVSPost2010Prop41ColorIndex
 90
       18
102
RTVSPost2010Prop41ColorRGB
 90
        0
102
RTVSPost2010PropOp41
 70
     1
102
RTVSPost2010Prop42
 90
       50
102
RTVSPost2010PropOp42
 70
     1
102
RTVSPost2010Prop43
 90
        3
102
RTVSPost2010PropOp43
 70
     1
102
RTVSPost2010Prop44ColorIndex
 90
        5
102
RTVSPost2010Prop44ColorRGB
 90
      255
102
RTVSPost2010PropOp44
 70
     1
102
RTVSPost2010Prop45
280
     0
102
RTVSPost2010PropOp45
 70
     1
102
RTVSPost2010Prop46
 90
       50
102
RTVSPost2010PropOp46
 70
     1
102
RTVSPost2010Prop47
 90
       50
102
RTVSPost2010PropOp47
 70
     1
102
RTVSPost2010Prop48
 90
       50
102
RTVSPost2010PropOp48
 70
     1
102
RTVSPost2010Prop49
280
     0
102
RTVSPost2010PropOp49
 70
     1
102
RTVSPost2010Prop50
 90
       50
102
RTVSPost2010PropOp50
 70
     1
102
RTVSPost2010Prop51ColorIndex
 90
      256
102
RTVSPost2010Prop51ColorRGB
 90
-16777216
102
RTVSPost2010PropOp51
 70
     0
102
RTVSPost2010Prop52
140
1.0
102
RTVSPost2010PropOp52
 70
     0
102
RTVSPost2010Prop53
 90
        2
102
RTVSPost2010PropOp53
 70
     1
102
RTVSPost2010Prop54
  1
strokes_ogs.tif
102
RTVSPost2010PropOp54
 70
     1
102
RTVSPost2010Prop55
280
     0
102
RTVSPost2010PropOp55
 70
     1
102
RTVSPost2010Prop56
140
1.0
102
RTVSPost2010PropOp56
 70
     1
102
RTVSPost2010Prop57
140
1.0
102
RTVSPost2010PropOp57
 70
     1
  0
XRECORD
  5
44B
102
{ACAD_REACTORS
330
44A
102
}
330
44A
100
AcDbXrecord
280
     1
102
RTVSPropertyOp0
 70
     0
102
RTVSPropertyOp1
 70
     0
102
RTVSPropertyOp2
 70
     0
102
RTVSPropertyOp3
 70
     0
102
RTVSPropertyOp4
 70
     0
102
RTVSPropertyOp5
 70
     0
102
RTVSPropertyOp6
 70
     0
102
RTVSPropertyOp7
 70
     0
102
RTVSPropertyOp8
 70
     0
102
RTVSPropertyOp9
 70
     0
102
RTVSPropertyOp10
 70
     0
102
RTVSPropertyOp11
 70
     0
102
RTVSPropertyOp12
 70
     0
102
RTVSPropertyOp13
 70
     0
102
RTVSPropertyOp14
 70
     2
102
RTVSPropertyOp15
 70
     0
102
RTVSPropertyOp16
 70
     0
102
RTVSPropertyOp17
 70
     0
102
RTVSPropertyOp18
 70
     0
102
RTVSPropertyOp19
 70
     0
102
RTVSPropertyOp20
 70
     0
102
RTVSPropertyOp21
 70
     0
102
RTVSPropertyOp22
 70
     0
102
RTVSPropertyOp23
 70
     0
102
RTVSPropertyOp24
 70
     0
102
RTVSPropertyOp25
 70
     0
102
RTVSPropertyOp26
 70
     0
102
RTVSPropertyOp27
 70
     0
102
RTVSPropertyOp28
 70
     0
102
RTVSPropertyOp29
 70
     0
102
RTVSPropertyOp30
 70
     0
102
RTVSPropertyOp31
 70
     0
102
RTVSPropertyOp32
 70
     0
102
RTVSPropertyOp33
 70
     0
102
RTVSPropertyOp34
 70
     0
102
RTVSPropertyOp35
 70
     0
102
RTVSPropertyOp36
 70
     0
102
RTVSPropertyOp37
 70
     0
102
RTVSPropertyOp38
 70
     0
102
RTVSPropertyOp39
 70
     0
102
RTVSPropertyOp40
 70
     0
102
RTVSPropertyOp41
 70
     0
102
RTVSPropertyOp42
 70
     0
102
RTVSPropertyOp43
 70
     0
102
RTVSPropertyOp44
 70
     0
102
RTVSPropertyOp45
 70
     0
102
RTVSPropertyOp46
 70
     0
102
RTVSPropertyOp47
 70
     0
102
RTVSPropertyOp48
 70
     0
102
RTVSPropertyOp49
 70
     0
102
RTVSPropertyOp50
 70
     0
102
RTVSPropertyOp51
 70
     0
102
RTVSPropertyOp52
 70
     0
102
RTVSPropertyOp53
 70
     0
102
RTVSPropertyOp54
 70
     0
102
RTVSPropertyOp55
 70
     0
102
RTVSPropertyOp56
 70
     0
102
RTVSPropertyOp57
 70
     0
102
RTVSPost2010Prop28
280
     0
102
RTVSPost2010PropOp28
 70
     0
102
RTVSPost2010Prop29
280
     1
102
RTVSPost2010PropOp29
 70
     0
102
RTVSPost2010Prop30
280
     1
102
RTVSPost2010PropOp30
 70
     0
102
RTVSPost2010Prop31
280
     0
102
RTVSPost2010PropOp31
 70
     0
102
RTVSPost2010Prop32
280
     0
102
RTVSPost2010PropOp32
 70
     0
102
RTVSPost2010Prop33
280
     0
102
RTVSPost2010PropOp33
 70
     0
102
RTVSPost2010Prop34
280
     0
102
RTVSPost2010PropOp34
 70
     0
102
RTVSPost2010Prop35
280
     0
102
RTVSPost2010PropOp35
 70
     0
102
RTVSPost2010Prop36
280
     0
102
RTVSPost2010PropOp36
 70
     0
102
RTVSPost2010Prop37
 90
       50
102
RTVSPost2010PropOp37
 70
     0
102
RTVSPost2010Prop38
140
0.0
102
RTVSPost2010PropOp38
 70
     0
102
RTVSPost2010Prop39
140
1.0
102
RTVSPost2010PropOp39
 70
     0
102
RTVSPost2010Prop40
 90
        0
102
RTVSPost2010PropOp40
 70
     0
102
RTVSPost2010Prop41ColorIndex
 90
       18
102
RTVSPost2010Prop41ColorRGB
 90
        0
102
RTVSPost2010PropOp41
 70
     0
102
RTVSPost2010Prop42
 90
       50
102
RTVSPost2010PropOp42
 70
     0
102
RTVSPost2010Prop43
 90
        3
102
RTVSPost2010PropOp43
 70
     0
102
RTVSPost2010Prop44ColorIndex
 90
        5
102
RTVSPost2010Prop44ColorRGB
 90
      255
102
RTVSPost2010PropOp44
 70
     0
102
RTVSPost2010Prop45
280
     0
102
RTVSPost2010PropOp45
 70
     0
102
RTVSPost2010Prop46
 90
       50
102
RTVSPost2010PropOp46
 70
     0
102
RTVSPost2010Prop47
 90
       50
102
RTVSPost2010PropOp47
 70
     0
102
RTVSPost2010Prop48
 90
       50
102
RTVSPost2010PropOp48
 70
     0
102
RTVSPost2010Prop49
280
     0
102
RTVSPost2010PropOp49
 70
     0
102
RTVSPost2010Prop50
 90
       50
102
RTVSPost2010PropOp50
 70
     0
102
RTVSPost2010Prop51ColorIndex
 90
      256
102
RTVSPost2010Prop51ColorRGB
 90
-16777216
102
RTVSPost2010PropOp51
 70
     0
102
RTVSPost2010Prop52
140
1.0
102
RTVSPost2010PropOp52
 70
     0
102
RTVSPost2010Prop53
 90
        2
102
RTVSPost2010PropOp53
 70
     0
102
RTVSPost2010Prop54
  1
strokes_ogs.tif
102
RTVSPost2010PropOp54
 70
     0
102
RTVSPost2010Prop55
280
     0
102
RTVSPost2010PropOp55
 70
     0
102
RTVSPost2010Prop56
140
1.0
102
RTVSPost2010PropOp56
 70
     0
102
RTVSPost2010Prop57
140
1.0
102
RTVSPost2010PropOp57
 70
     0
  0
XRECORD
  5
445
102
{ACAD_REACTORS
330
444
102
}
330
444
100
AcDbXrecord
280
     1
102
RTVSPropertyOp0
 70
     1
102
RTVSPropertyOp1
 70
     1
102
RTVSPropertyOp2
 70
     1
102
RTVSPropertyOp3
 70
     1
102
RTVSPropertyOp4
 70
     1
102
RTVSPropertyOp5
 70
     1
102
RTVSPropertyOp6
 70
     1
102
RTVSPropertyOp7
 70
     1
102
RTVSPropertyOp8
 70
     1
102
RTVSPropertyOp9
 70
     1
102
RTVSPropertyOp10
 70
     1
102
RTVSPropertyOp11
 70
     1
102
RTVSPropertyOp12
 70
     1
102
RTVSPropertyOp13
 70
     1
102
RTVSPropertyOp14
 70
     1
102
RTVSPropertyOp15
 70
     1
102
RTVSPropertyOp16
 70
     1
102
RTVSPropertyOp17
 70
     1
102
RTVSPropertyOp18
 70
     1
102
RTVSPropertyOp19
 70
     1
102
RTVSPropertyOp20
 70
     1
102
RTVSPropertyOp21
 70
     1
102
RTVSPropertyOp22
 70
     1
102
RTVSPropertyOp23
 70
     1
102
RTVSPropertyOp24
 70
     1
102
RTVSPropertyOp25
 70
     1
102
RTVSPropertyOp26
 70
     1
102
RTVSPropertyOp27
 70
     1
102
RTVSPropertyOp28
 70
     1
102
RTVSPropertyOp29
 70
     1
102
RTVSPropertyOp30
 70
     1
102
RTVSPropertyOp31
 70
     1
102
RTVSPropertyOp32
 70
     1
102
RTVSPropertyOp33
 70
     1
102
RTVSPropertyOp34
 70
     1
102
RTVSPropertyOp35
 70
     1
102
RTVSPropertyOp36
 70
     1
102
RTVSPropertyOp37
 70
     1
102
RTVSPropertyOp38
 70
     1
102
RTVSPropertyOp39
 70
     1
102
RTVSPropertyOp40
 70
     1
102
RTVSPropertyOp41
 70
     1
102
RTVSPropertyOp42
 70
     1
102
RTVSPropertyOp43
 70
     1
102
RTVSPropertyOp44
 70
     1
102
RTVSPropertyOp45
 70
     1
102
RTVSPropertyOp46
 70
     1
102
RTVSPropertyOp47
 70
     1
102
RTVSPropertyOp48
 70
     1
102
RTVSPropertyOp49
 70
     1
102
RTVSPropertyOp50
 70
     1
102
RTVSPropertyOp51
 70
     0
102
RTVSPropertyOp52
 70
     0
102
RTVSPropertyOp53
 70
     1
102
RTVSPropertyOp54
 70
     1
102
RTVSPropertyOp55
 70
     1
102
RTVSPropertyOp56
 70
     1
102
RTVSPropertyOp57
 70
     1
102
RTVSPost2010Prop28
280
     0
102
RTVSPost2010PropOp28
 70
     1
102
RTVSPost2010Prop29
280
     1
102
RTVSPost2010PropOp29
 70
     1
102
RTVSPost2010Prop30
280
     1
102
RTVSPost2010PropOp30
 70
     1
102
RTVSPost2010Prop31
280
     0
102
RTVSPost2010PropOp31
 70
     1
102
RTVSPost2010Prop32
280
     0
102
RTVSPost2010PropOp32
 70
     1
102
RTVSPost2010Prop33
280
     0
102
RTVSPost2010PropOp33
 70
     1
102
RTVSPost2010Prop34
280
     0
102
RTVSPost2010PropOp34
 70
     1
102
RTVSPost2010Prop35
280
     0
102
RTVSPost2010PropOp35
 70
     1
102
RTVSPost2010Prop36
280
     0
102
RTVSPost2010PropOp36
 70
     1
102
RTVSPost2010Prop37
 90
       50
102
RTVSPost2010PropOp37
 70
     1
102
RTVSPost2010Prop38
140
0.0
102
RTVSPost2010PropOp38
 70
     1
102
RTVSPost2010Prop39
140
1.0
102
RTVSPost2010PropOp39
 70
     1
102
RTVSPost2010Prop40
 90
        0
102
RTVSPost2010PropOp40
 70
     1
102
RTVSPost2010Prop41ColorIndex
 90
       18
102
RTVSPost2010Prop41ColorRGB
 90
        0
102
RTVSPost2010PropOp41
 70
     1
102
RTVSPost2010Prop42
 90
       50
102
RTVSPost2010PropOp42
 70
     1
102
RTVSPost2010Prop43
 90
        3
102
RTVSPost2010PropOp43
 70
     1
102
RTVSPost2010Prop44ColorIndex
 90
        5
102
RTVSPost2010Prop44ColorRGB
 90
      255
102
RTVSPost2010PropOp44
 70
     1
102
RTVSPost2010Prop45
280
     0
102
RTVSPost2010PropOp45
 70
     1
102
RTVSPost2010Prop46
 90
       50
102
RTVSPost2010PropOp46
 70
     1
102
RTVSPost2010Prop47
 90
       50
102
RTVSPost2010PropOp47
 70
     1
102
RTVSPost2010Prop48
 90
       50
102
RTVSPost2010PropOp48
 70
     1
102
RTVSPost2010Prop49
280
     0
102
RTVSPost2010PropOp49
 70
     1
102
RTVSPost2010Prop50
 90
       50
102
RTVSPost2010PropOp50
 70
     1
102
RTVSPost2010Prop51ColorIndex
 90
      256
102
RTVSPost2010Prop51ColorRGB
 90
-16777216
102
RTVSPost2010PropOp51
 70
     0
102
RTVSPost2010Prop52
140
1.0
102
RTVSPost2010PropOp52
 70
     0
102
RTVSPost2010Prop53
 90
        2
102
RTVSPost2010PropOp53
 70
     1
102
RTVSPost2010Prop54
  1
strokes_ogs.tif
102
RTVSPost2010PropOp54
 70
     1
102
RTVSPost2010Prop55
280
     0
102
RTVSPost2010PropOp55
 70
     1
102
RTVSPost2010Prop56
140
1.0
102
RTVSPost2010PropOp56
 70
     1
102
RTVSPost2010Prop57
140
1.0
102
RTVSPost2010PropOp57
 70
     1
  0
XRECORD
  5
44D
102
{ACAD_REACTORS
330
44C
102
}
330
44C
100
AcDbXrecord
280
     1
102
RTVSPropertyOp0
 70
     0
102
RTVSPropertyOp1
 70
     0
102
RTVSPropertyOp2
 70
     0
102
RTVSPropertyOp3
 70
     0
102
RTVSPropertyOp4
 70
     0
102
RTVSPropertyOp5
 70
     0
102
RTVSPropertyOp6
 70
     0
102
RTVSPropertyOp7
 70
     0
102
RTVSPropertyOp8
 70
     0
102
RTVSPropertyOp9
 70
     0
102
RTVSPropertyOp10
 70
     0
102
RTVSPropertyOp11
 70
     0
102
RTVSPropertyOp12
 70
     0
102
RTVSPropertyOp13
 70
     0
102
RTVSPropertyOp14
 70
     2
102
RTVSPropertyOp15
 70
     0
102
RTVSPropertyOp16
 70
     0
102
RTVSPropertyOp17
 70
     0
102
RTVSPropertyOp18
 70
     0
102
RTVSPropertyOp19
 70
     0
102
RTVSPropertyOp20
 70
     0
102
RTVSPropertyOp21
 70
     0
102
RTVSPropertyOp22
 70
     0
102
RTVSPropertyOp23
 70
     0
102
RTVSPropertyOp24
 70
     0
102
RTVSPropertyOp25
 70
     0
102
RTVSPropertyOp26
 70
     0
102
RTVSPropertyOp27
 70
     0
102
RTVSPropertyOp28
 70
     0
102
RTVSPropertyOp29
 70
     0
102
RTVSPropertyOp30
 70
     0
102
RTVSPropertyOp31
 70
     0
102
RTVSPropertyOp32
 70
     0
102
RTVSPropertyOp33
 70
     0
102
RTVSPropertyOp34
 70
     0
102
RTVSPropertyOp35
 70
     0
102
RTVSPropertyOp36
 70
     0
102
RTVSPropertyOp37
 70
     0
102
RTVSPropertyOp38
 70
     0
102
RTVSPropertyOp39
 70
     0
102
RTVSPropertyOp40
 70
     0
102
RTVSPropertyOp41
 70
     0
102
RTVSPropertyOp42
 70
     0
102
RTVSPropertyOp43
 70
     0
102
RTVSPropertyOp44
 70
     0
102
RTVSPropertyOp45
 70
     0
102
RTVSPropertyOp46
 70
     0
102
RTVSPropertyOp47
 70
     0
102
RTVSPropertyOp48
 70
     0
102
RTVSPropertyOp49
 70
     0
102
RTVSPropertyOp50
 70
     0
102
RTVSPropertyOp51
 70
     0
102
RTVSPropertyOp52
 70
     0
102
RTVSPropertyOp53
 70
     0
102
RTVSPropertyOp54
 70
     0
102
RTVSPropertyOp55
 70
     0
102
RTVSPropertyOp56
 70
     0
102
RTVSPropertyOp57
 70
     0
102
RTVSPost2010Prop28
280
     0
102
RTVSPost2010PropOp28
 70
     0
102
RTVSPost2010Prop29
280
     1
102
RTVSPost2010PropOp29
 70
     0
102
RTVSPost2010Prop30
280
     1
102
RTVSPost2010PropOp30
 70
     0
102
RTVSPost2010Prop31
280
     0
102
RTVSPost2010PropOp31
 70
     0
102
RTVSPost2010Prop32
280
     0
102
RTVSPost2010PropOp32
 70
     0
102
RTVSPost2010Prop33
280
     0
102
RTVSPost2010PropOp33
 70
     0
102
RTVSPost2010Prop34
280
     0
102
RTVSPost2010PropOp34
 70
     0
102
RTVSPost2010Prop35
280
     0
102
RTVSPost2010PropOp35
 70
     0
102
RTVSPost2010Prop36
280
     0
102
RTVSPost2010PropOp36
 70
     0
102
RTVSPost2010Prop37
 90
       50
102
RTVSPost2010PropOp37
 70
     0
102
RTVSPost2010Prop38
140
0.0
102
RTVSPost2010PropOp38
 70
     0
102
RTVSPost2010Prop39
140
1.0
102
RTVSPost2010PropOp39
 70
     0
102
RTVSPost2010Prop40
 90
        0
102
RTVSPost2010PropOp40
 70
     0
102
RTVSPost2010Prop41ColorIndex
 90
       18
102
RTVSPost2010Prop41ColorRGB
 90
        0
102
RTVSPost2010PropOp41
 70
     0
102
RTVSPost2010Prop42
 90
       50
102
RTVSPost2010PropOp42
 70
     0
102
RTVSPost2010Prop43
 90
        3
102
RTVSPost2010PropOp43
 70
     0
102
RTVSPost2010Prop44ColorIndex
 90
        5
102
RTVSPost2010Prop44ColorRGB
 90
      255
102
RTVSPost2010PropOp44
 70
     0
102
RTVSPost2010Prop45
280
     0
102
RTVSPost2010PropOp45
 70
     0
102
RTVSPost2010Prop46
 90
       50
102
RTVSPost2010PropOp46
 70
     0
102
RTVSPost2010Prop47
 90
       50
102
RTVSPost2010PropOp47
 70
     0
102
RTVSPost2010Prop48
 90
       50
102
RTVSPost2010PropOp48
 70
     0
102
RTVSPost2010Prop49
280
     0
102
RTVSPost2010PropOp49
 70
     0
102
RTVSPost2010Prop50
 90
       50
102
RTVSPost2010PropOp50
 70
     0
102
RTVSPost2010Prop51ColorIndex
 90
      256
102
RTVSPost2010Prop51ColorRGB
 90
-16777216
102
RTVSPost2010PropOp51
 70
     0
102
RTVSPost2010Prop52
140
1.0
102
RTVSPost2010PropOp52
 70
     0
102
RTVSPost2010Prop53
 90
        2
102
RTVSPost2010PropOp53
 70
     0
102
RTVSPost2010Prop54
  1
strokes_ogs.tif
102
RTVSPost2010PropOp54
 70
     0
102
RTVSPost2010Prop55
280
     0
102
RTVSPost2010PropOp55
 70
     0
102
RTVSPost2010Prop56
140
1.0
102
RTVSPost2010PropOp56
 70
     0
102
RTVSPost2010Prop57
140
1.0
102
RTVSPost2010PropOp57
 70
     0
  0
XRECORD
  5
43B
102
{ACAD_REACTORS
330
43A
102
}
330
43A
100
AcDbXrecord
280
     1
102
RTVSPropertyOp0
 70
     1
102
RTVSPropertyOp1
 70
     1
102
RTVSPropertyOp2
 70
     1
102
RTVSPropertyOp3
 70
     1
102
RTVSPropertyOp4
 70
     1
102
RTVSPropertyOp5
 70
     1
102
RTVSPropertyOp6
 70
     1
102
RTVSPropertyOp7
 70
     1
102
RTVSPropertyOp8
 70
     1
102
RTVSPropertyOp9
 70
     1
102
RTVSPropertyOp10
 70
     1
102
RTVSPropertyOp11
 70
     1
102
RTVSPropertyOp12
 70
     1
102
RTVSPropertyOp13
 70
     1
102
RTVSPropertyOp14
 70
     1
102
RTVSPropertyOp15
 70
     1
102
RTVSPropertyOp16
 70
     1
102
RTVSPropertyOp17
 70
     1
102
RTVSPropertyOp18
 70
     1
102
RTVSPropertyOp19
 70
     1
102
RTVSPropertyOp20
 70
     1
102
RTVSPropertyOp21
 70
     1
102
RTVSPropertyOp22
 70
     1
102
RTVSPropertyOp23
 70
     1
102
RTVSPropertyOp24
 70
     1
102
RTVSPropertyOp25
 70
     1
102
RTVSPropertyOp26
 70
     1
102
RTVSPropertyOp27
 70
     1
102
RTVSPropertyOp28
 70
     1
102
RTVSPropertyOp29
 70
     1
102
RTVSPropertyOp30
 70
     1
102
RTVSPropertyOp31
 70
     1
102
RTVSPropertyOp32
 70
     1
102
RTVSPropertyOp33
 70
     1
102
RTVSPropertyOp34
 70
     1
102
RTVSPropertyOp35
 70
     1
102
RTVSPropertyOp36
 70
     1
102
RTVSPropertyOp37
 70
     1
102
RTVSPropertyOp38
 70
     1
102
RTVSPropertyOp39
 70
     1
102
RTVSPropertyOp40
 70
     1
102
RTVSPropertyOp41
 70
     1
102
RTVSPropertyOp42
 70
     1
102
RTVSPropertyOp43
 70
     1
102
RTVSPropertyOp44
 70
     1
102
RTVSPropertyOp45
 70
     1
102
RTVSPropertyOp46
 70
     1
102
RTVSPropertyOp47
 70
     1
102
RTVSPropertyOp48
 70
     1
102
RTVSPropertyOp49
 70
     1
102
RTVSPropertyOp50
 70
     1
102
RTVSPropertyOp51
 70
     0
102
RTVSPropertyOp52
 70
     0
102
RTVSPropertyOp53
 70
     1
102
RTVSPropertyOp54
 70
     1
102
RTVSPropertyOp55
 70
     1
102
RTVSPropertyOp56
 70
     1
102
RTVSPropertyOp57
 70
     1
102
RTVSPost2010Prop28
280
     0
102
RTVSPost2010PropOp28
 70
     1
102
RTVSPost2010Prop29
280
     1
102
RTVSPost2010PropOp29
 70
     1
102
RTVSPost2010Prop30
280
     1
102
RTVSPost2010PropOp30
 70
     1
102
RTVSPost2010Prop31
280
     0
102
RTVSPost2010PropOp31
 70
     1
102
RTVSPost2010Prop32
280
     0
102
RTVSPost2010PropOp32
 70
     1
102
RTVSPost2010Prop33
280
     0
102
RTVSPost2010PropOp33
 70
     1
102
RTVSPost2010Prop34
280
     0
102
RTVSPost2010PropOp34
 70
     1
102
RTVSPost2010Prop35
280
     0
102
RTVSPost2010PropOp35
 70
     1
102
RTVSPost2010Prop36
280
     0
102
RTVSPost2010PropOp36
 70
     1
102
RTVSPost2010Prop37
 90
       50
102
RTVSPost2010PropOp37
 70
     1
102
RTVSPost2010Prop38
140
0.0
102
RTVSPost2010PropOp38
 70
     1
102
RTVSPost2010Prop39
140
1.0
102
RTVSPost2010PropOp39
 70
     1
102
RTVSPost2010Prop40
 90
        0
102
RTVSPost2010PropOp40
 70
     1
102
RTVSPost2010Prop41ColorIndex
 90
       18
102
RTVSPost2010Prop41ColorRGB
 90
        0
102
RTVSPost2010PropOp41
 70
     1
102
RTVSPost2010Prop42
 90
       50
102
RTVSPost2010PropOp42
 70
     1
102
RTVSPost2010Prop43
 90
        3
102
RTVSPost2010PropOp43
 70
     1
102
RTVSPost2010Prop44ColorIndex
 90
        5
102
RTVSPost2010Prop44ColorRGB
 90
      255
102
RTVSPost2010PropOp44
 70
     1
102
RTVSPost2010Prop45
280
     0
102
RTVSPost2010PropOp45
 70
     1
102
RTVSPost2010Prop46
 90
       50
102
RTVSPost2010PropOp46
 70
     1
102
RTVSPost2010Prop47
 90
       50
102
RTVSPost2010PropOp47
 70
     1
102
RTVSPost2010Prop48
 90
       50
102
RTVSPost2010PropOp48
 70
     1
102
RTVSPost2010Prop49
280
     0
102
RTVSPost2010PropOp49
 70
     1
102
RTVSPost2010Prop50
 90
       50
102
RTVSPost2010PropOp50
 70
     1
102
RTVSPost2010Prop51ColorIndex
 90
      256
102
RTVSPost2010Prop51ColorRGB
 90
-16777216
102
RTVSPost2010PropOp51
 70
     0
102
RTVSPost2010Prop52
140
1.0
102
RTVSPost2010PropOp52
 70
     0
102
RTVSPost2010Prop53
 90
        2
102
RTVSPost2010PropOp53
 70
     1
102
RTVSPost2010Prop54
  1
strokes_ogs.tif
102
RTVSPost2010PropOp54
 70
     1
102
RTVSPost2010Prop55
280
     0
102
RTVSPost2010PropOp55
 70
     1
102
RTVSPost2010Prop56
140
1.0
102
RTVSPost2010PropOp56
 70
     1
102
RTVSPost2010Prop57
140
1.0
102
RTVSPost2010PropOp57
 70
     1
  0
XRECORD
  5
459
102
{ACAD_REACTORS
330
458
102
}
330
458
100
AcDbXrecord
280
     1
102
RTVSPropertyOp0
 70
     1
102
RTVSPropertyOp1
 70
     1
102
RTVSPropertyOp2
 70
     1
102
RTVSPropertyOp3
 70
     1
102
RTVSPropertyOp4
 70
     1
102
RTVSPropertyOp5
 70
     1
102
RTVSPropertyOp6
 70
     1
102
RTVSPropertyOp7
 70
     1
102
RTVSPropertyOp8
 70
     1
102
RTVSPropertyOp9
 70
     1
102
RTVSPropertyOp10
 70
     1
102
RTVSPropertyOp11
 70
     1
102
RTVSPropertyOp12
 70
     1
102
RTVSPropertyOp13
 70
     1
102
RTVSPropertyOp14
 70
     1
102
RTVSPropertyOp15
 70
     1
102
RTVSPropertyOp16
 70
     1
102
RTVSPropertyOp17
 70
     1
102
RTVSPropertyOp18
 70
     1
102
RTVSPropertyOp19
 70
     1
102
RTVSPropertyOp20
 70
     1
102
RTVSPropertyOp21
 70
     1
102
RTVSPropertyOp22
 70
     1
102
RTVSPropertyOp23
 70
     1
102
RTVSPropertyOp24
 70
     1
102
RTVSPropertyOp25
 70
     1
102
RTVSPropertyOp26
 70
     1
102
RTVSPropertyOp27
 70
     1
102
RTVSPropertyOp28
 70
     1
102
RTVSPropertyOp29
 70
     1
102
RTVSPropertyOp30
 70
     1
102
RTVSPropertyOp31
 70
     1
102
RTVSPropertyOp32
 70
     1
102
RTVSPropertyOp33
 70
     1
102
RTVSPropertyOp34
 70
     1
102
RTVSPropertyOp35
 70
     1
102
RTVSPropertyOp36
 70
     1
102
RTVSPropertyOp37
 70
     1
102
RTVSPropertyOp38
 70
     1
102
RTVSPropertyOp39
 70
     1
102
RTVSPropertyOp40
 70
     1
102
RTVSPropertyOp41
 70
     1
102
RTVSPropertyOp42
 70
     1
102
RTVSPropertyOp43
 70
     1
102
RTVSPropertyOp44
 70
     1
102
RTVSPropertyOp45
 70
     1
102
RTVSPropertyOp46
 70
     1
102
RTVSPropertyOp47
 70
     1
102
RTVSPropertyOp48
 70
     1
102
RTVSPropertyOp49
 70
     1
102
RTVSPropertyOp50
 70
     1
102
RTVSPropertyOp51
 70
     0
102
RTVSPropertyOp52
 70
     0
102
RTVSPropertyOp53
 70
     1
102
RTVSPropertyOp54
 70
     1
102
RTVSPropertyOp55
 70
     1
102
RTVSPropertyOp56
 70
     1
102
RTVSPropertyOp57
 70
     1
102
RTVSPost2010Prop28
280
     0
102
RTVSPost2010PropOp28
 70
     1
102
RTVSPost2010Prop29
280
     1
102
RTVSPost2010PropOp29
 70
     1
102
RTVSPost2010Prop30
280
     1
102
RTVSPost2010PropOp30
 70
     1
102
RTVSPost2010Prop31
280
     0
102
RTVSPost2010PropOp31
 70
     1
102
RTVSPost2010Prop32
280
     0
102
RTVSPost2010PropOp32
 70
     1
102
RTVSPost2010Prop33
280
     0
102
RTVSPost2010PropOp33
 70
     1
102
RTVSPost2010Prop34
280
     0
102
RTVSPost2010PropOp34
 70
     1
102
RTVSPost2010Prop35
280
     0
102
RTVSPost2010PropOp35
 70
     1
102
RTVSPost2010Prop36
280
     0
102
RTVSPost2010PropOp36
 70
     1
102
RTVSPost2010Prop37
 90
       50
102
RTVSPost2010PropOp37
 70
     1
102
RTVSPost2010Prop38
140
0.0
102
RTVSPost2010PropOp38
 70
     1
102
RTVSPost2010Prop39
140
1.0
102
RTVSPost2010PropOp39
 70
     1
102
RTVSPost2010Prop40
 90
        0
102
RTVSPost2010PropOp40
 70
     1
102
RTVSPost2010Prop41ColorIndex
 90
       18
102
RTVSPost2010Prop41ColorRGB
 90
        0
102
RTVSPost2010PropOp41
 70
     1
102
RTVSPost2010Prop42
 90
       50
102
RTVSPost2010PropOp42
 70
     1
102
RTVSPost2010Prop43
 90
        3
102
RTVSPost2010PropOp43
 70
     1
102
RTVSPost2010Prop44ColorIndex
 90
        5
102
RTVSPost2010Prop44ColorRGB
 90
      255
102
RTVSPost2010PropOp44
 70
     1
102
RTVSPost2010Prop45
280
     0
102
RTVSPost2010PropOp45
 70
     1
102
RTVSPost2010Prop46
 90
       50
102
RTVSPost2010PropOp46
 70
     1
102
RTVSPost2010Prop47
 90
       50
102
RTVSPost2010PropOp47
 70
     1
102
RTVSPost2010Prop48
 90
       50
102
RTVSPost2010PropOp48
 70
     1
102
RTVSPost2010Prop49
280
     0
102
RTVSPost2010PropOp49
 70
     1
102
RTVSPost2010Prop50
 90
       50
102
RTVSPost2010PropOp50
 70
     1
102
RTVSPost2010Prop51ColorIndex
 90
      256
102
RTVSPost2010Prop51ColorRGB
 90
-16777216
102
RTVSPost2010PropOp51
 70
     0
102
RTVSPost2010Prop52
140
1.0
102
RTVSPost2010PropOp52
 70
     0
102
RTVSPost2010Prop53
 90
        2
102
RTVSPost2010PropOp53
 70
     1
102
RTVSPost2010Prop54
  1
strokes_ogs.tif
102
RTVSPost2010PropOp54
 70
     1
102
RTVSPost2010Prop55
280
     0
102
RTVSPost2010PropOp55
 70
     1
102
RTVSPost2010Prop56
140
1.0
102
RTVSPost2010PropOp56
 70
     1
102
RTVSPost2010Prop57
140
1.0
102
RTVSPost2010PropOp57
 70
     1
  0
XRECORD
  5
457
102
{ACAD_REACTORS
330
456
102
}
330
456
100
AcDbXrecord
280
     1
102
RTVSPropertyOp0
 70
     1
102
RTVSPropertyOp1
 70
     1
102
RTVSPropertyOp2
 70
     1
102
RTVSPropertyOp3
 70
     1
102
RTVSPropertyOp4
 70
     1
102
RTVSPropertyOp5
 70
     1
102
RTVSPropertyOp6
 70
     1
102
RTVSPropertyOp7
 70
     1
102
RTVSPropertyOp8
 70
     1
102
RTVSPropertyOp9
 70
     1
102
RTVSPropertyOp10
 70
     1
102
RTVSPropertyOp11
 70
     1
102
RTVSPropertyOp12
 70
     1
102
RTVSPropertyOp13
 70
     1
102
RTVSPropertyOp14
 70
     1
102
RTVSPropertyOp15
 70
     1
102
RTVSPropertyOp16
 70
     1
102
RTVSPropertyOp17
 70
     1
102
RTVSPropertyOp18
 70
     1
102
RTVSPropertyOp19
 70
     1
102
RTVSPropertyOp20
 70
     1
102
RTVSPropertyOp21
 70
     1
102
RTVSPropertyOp22
 70
     1
102
RTVSPropertyOp23
 70
     1
102
RTVSPropertyOp24
 70
     1
102
RTVSPropertyOp25
 70
     1
102
RTVSPropertyOp26
 70
     1
102
RTVSPropertyOp27
 70
     1
102
RTVSPropertyOp28
 70
     1
102
RTVSPropertyOp29
 70
     1
102
RTVSPropertyOp30
 70
     1
102
RTVSPropertyOp31
 70
     1
102
RTVSPropertyOp32
 70
     1
102
RTVSPropertyOp33
 70
     1
102
RTVSPropertyOp34
 70
     1
102
RTVSPropertyOp35
 70
     1
102
RTVSPropertyOp36
 70
     1
102
RTVSPropertyOp37
 70
     1
102
RTVSPropertyOp38
 70
     1
102
RTVSPropertyOp39
 70
     1
102
RTVSPropertyOp40
 70
     1
102
RTVSPropertyOp41
 70
     1
102
RTVSPropertyOp42
 70
     1
102
RTVSPropertyOp43
 70
     1
102
RTVSPropertyOp44
 70
     1
102
RTVSPropertyOp45
 70
     1
102
RTVSPropertyOp46
 70
     1
102
RTVSPropertyOp47
 70
     1
102
RTVSPropertyOp48
 70
     1
102
RTVSPropertyOp49
 70
     1
102
RTVSPropertyOp50
 70
     1
102
RTVSPropertyOp51
 70
     0
102
RTVSPropertyOp52
 70
     0
102
RTVSPropertyOp53
 70
     1
102
RTVSPropertyOp54
 70
     1
102
RTVSPropertyOp55
 70
     1
102
RTVSPropertyOp56
 70
     1
102
RTVSPropertyOp57
 70
     1
102
RTVSPost2010Prop28
280
     0
102
RTVSPost2010PropOp28
 70
     1
102
RTVSPost2010Prop29
280
     1
102
RTVSPost2010PropOp29
 70
     1
102
RTVSPost2010Prop30
280
     1
102
RTVSPost2010PropOp30
 70
     1
102
RTVSPost2010Prop31
280
     0
102
RTVSPost2010PropOp31
 70
     1
102
RTVSPost2010Prop32
280
     0
102
RTVSPost2010PropOp32
 70
     1
102
RTVSPost2010Prop33
280
     0
102
RTVSPost2010PropOp33
 70
     1
102
RTVSPost2010Prop34
280
     0
102
RTVSPost2010PropOp34
 70
     1
102
RTVSPost2010Prop35
280
     0
102
RTVSPost2010PropOp35
 70
     1
102
RTVSPost2010Prop36
280
     0
102
RTVSPost2010PropOp36
 70
     1
102
RTVSPost2010Prop37
 90
       50
102
RTVSPost2010PropOp37
 70
     1
102
RTVSPost2010Prop38
140
0.0
102
RTVSPost2010PropOp38
 70
     1
102
RTVSPost2010Prop39
140
1.0
102
RTVSPost2010PropOp39
 70
     1
102
RTVSPost2010Prop40
 90
        0
102
RTVSPost2010PropOp40
 70
     1
102
RTVSPost2010Prop41ColorIndex
 90
       18
102
RTVSPost2010Prop41ColorRGB
 90
        0
102
RTVSPost2010PropOp41
 70
     1
102
RTVSPost2010Prop42
 90
       50
102
RTVSPost2010PropOp42
 70
     1
102
RTVSPost2010Prop43
 90
        3
102
RTVSPost2010PropOp43
 70
     1
102
RTVSPost2010Prop44ColorIndex
 90
        5
102
RTVSPost2010Prop44ColorRGB
 90
      255
102
RTVSPost2010PropOp44
 70
     1
102
RTVSPost2010Prop45
280
     0
102
RTVSPost2010PropOp45
 70
     1
102
RTVSPost2010Prop46
 90
       50
102
RTVSPost2010PropOp46
 70
     1
102
RTVSPost2010Prop47
 90
       50
102
RTVSPost2010PropOp47
 70
     1
102
RTVSPost2010Prop48
 90
       50
102
RTVSPost2010PropOp48
 70
     1
102
RTVSPost2010Prop49
280
     0
102
RTVSPost2010PropOp49
 70
     1
102
RTVSPost2010Prop50
 90
       50
102
RTVSPost2010PropOp50
 70
     1
102
RTVSPost2010Prop51ColorIndex
 90
      256
102
RTVSPost2010Prop51ColorRGB
 90
-16777216
102
RTVSPost2010PropOp51
 70
     0
102
RTVSPost2010Prop52
140
1.0
102
RTVSPost2010PropOp52
 70
     0
102
RTVSPost2010Prop53
 90
        2
102
RTVSPost2010PropOp53
 70
     1
102
RTVSPost2010Prop54
  1
strokes_ogs.tif
102
RTVSPost2010PropOp54
 70
     1
102
RTVSPost2010Prop55
280
     0
102
RTVSPost2010PropOp55
 70
     1
102
RTVSPost2010Prop56
140
1.0
102
RTVSPost2010PropOp56
 70
     1
102
RTVSPost2010Prop57
140
1.0
102
RTVSPost2010PropOp57
 70
     1
  0
XRECORD
  5
451
102
{ACAD_REACTORS
330
450
102
}
330
450
100
AcDbXrecord
280
     1
102
RTVSPropertyOp0
 70
     1
102
RTVSPropertyOp1
 70
     1
102
RTVSPropertyOp2
 70
     1
102
RTVSPropertyOp3
 70
     1
102
RTVSPropertyOp4
 70
     1
102
RTVSPropertyOp5
 70
     1
102
RTVSPropertyOp6
 70
     1
102
RTVSPropertyOp7
 70
     1
102
RTVSPropertyOp8
 70
     1
102
RTVSPropertyOp9
 70
     1
102
RTVSPropertyOp10
 70
     1
102
RTVSPropertyOp11
 70
     1
102
RTVSPropertyOp12
 70
     1
102
RTVSPropertyOp13
 70
     1
102
RTVSPropertyOp14
 70
     1
102
RTVSPropertyOp15
 70
     1
102
RTVSPropertyOp16
 70
     1
102
RTVSPropertyOp17
 70
     1
102
RTVSPropertyOp18
 70
     1
102
RTVSPropertyOp19
 70
     1
102
RTVSPropertyOp20
 70
     1
102
RTVSPropertyOp21
 70
     1
102
RTVSPropertyOp22
 70
     1
102
RTVSPropertyOp23
 70
     1
102
RTVSPropertyOp24
 70
     1
102
RTVSPropertyOp25
 70
     1
102
RTVSPropertyOp26
 70
     1
102
RTVSPropertyOp27
 70
     1
102
RTVSPropertyOp28
 70
     1
102
RTVSPropertyOp29
 70
     1
102
RTVSPropertyOp30
 70
     1
102
RTVSPropertyOp31
 70
     1
102
RTVSPropertyOp32
 70
     1
102
RTVSPropertyOp33
 70
     1
102
RTVSPropertyOp34
 70
     1
102
RTVSPropertyOp35
 70
     1
102
RTVSPropertyOp36
 70
     1
102
RTVSPropertyOp37
 70
     1
102
RTVSPropertyOp38
 70
     1
102
RTVSPropertyOp39
 70
     1
102
RTVSPropertyOp40
 70
     1
102
RTVSPropertyOp41
 70
     1
102
RTVSPropertyOp42
 70
     1
102
RTVSPropertyOp43
 70
     1
102
RTVSPropertyOp44
 70
     1
102
RTVSPropertyOp45
 70
     1
102
RTVSPropertyOp46
 70
     1
102
RTVSPropertyOp47
 70
     1
102
RTVSPropertyOp48
 70
     1
102
RTVSPropertyOp49
 70
     1
102
RTVSPropertyOp50
 70
     1
102
RTVSPropertyOp51
 70
     0
102
RTVSPropertyOp52
 70
     0
102
RTVSPropertyOp53
 70
     1
102
RTVSPropertyOp54
 70
     1
102
RTVSPropertyOp55
 70
     1
102
RTVSPropertyOp56
 70
     1
102
RTVSPropertyOp57
 70
     1
102
RTVSPost2010Prop28
280
     0
102
RTVSPost2010PropOp28
 70
     1
102
RTVSPost2010Prop29
280
     1
102
RTVSPost2010PropOp29
 70
     1
102
RTVSPost2010Prop30
280
     1
102
RTVSPost2010PropOp30
 70
     1
102
RTVSPost2010Prop31
280
     0
102
RTVSPost2010PropOp31
 70
     1
102
RTVSPost2010Prop32
280
     0
102
RTVSPost2010PropOp32
 70
     1
102
RTVSPost2010Prop33
280
     0
102
RTVSPost2010PropOp33
 70
     1
102
RTVSPost2010Prop34
280
     0
102
RTVSPost2010PropOp34
 70
     1
102
RTVSPost2010Prop35
280
     0
102
RTVSPost2010PropOp35
 70
     1
102
RTVSPost2010Prop36
280
     0
102
RTVSPost2010PropOp36
 70
     1
102
RTVSPost2010Prop37
 90
       50
102
RTVSPost2010PropOp37
 70
     1
102
RTVSPost2010Prop38
140
0.0
102
RTVSPost2010PropOp38
 70
     1
102
RTVSPost2010Prop39
140
1.0
102
RTVSPost2010PropOp39
 70
     1
102
RTVSPost2010Prop40
 90
        0
102
RTVSPost2010PropOp40
 70
     1
102
RTVSPost2010Prop41ColorIndex
 90
       18
102
RTVSPost2010Prop41ColorRGB
 90
        0
102
RTVSPost2010PropOp41
 70
     1
102
RTVSPost2010Prop42
 90
       50
102
RTVSPost2010PropOp42
 70
     1
102
RTVSPost2010Prop43
 90
        3
102
RTVSPost2010PropOp43
 70
     1
102
RTVSPost2010Prop44ColorIndex
 90
        5
102
RTVSPost2010Prop44ColorRGB
 90
      255
102
RTVSPost2010PropOp44
 70
     1
102
RTVSPost2010Prop45
280
     0
102
RTVSPost2010PropOp45
 70
     1
102
RTVSPost2010Prop46
 90
       50
102
RTVSPost2010PropOp46
 70
     1
102
RTVSPost2010Prop47
 90
       50
102
RTVSPost2010PropOp47
 70
     1
102
RTVSPost2010Prop48
 90
       50
102
RTVSPost2010PropOp48
 70
     1
102
RTVSPost2010Prop49
280
     0
102
RTVSPost2010PropOp49
 70
     1
102
RTVSPost2010Prop50
 90
       50
102
RTVSPost2010PropOp50
 70
     1
102
RTVSPost2010Prop51ColorIndex
 90
      256
102
RTVSPost2010Prop51ColorRGB
 90
-16777216
102
RTVSPost2010PropOp51
 70
     0
102
RTVSPost2010Prop52
140
1.0
102
RTVSPost2010PropOp52
 70
     0
102
RTVSPost2010Prop53
 90
        2
102
RTVSPost2010PropOp53
 70
     1
102
RTVSPost2010Prop54
  1
strokes_ogs.tif
102
RTVSPost2010PropOp54
 70
     1
102
RTVSPost2010Prop55
280
     0
102
RTVSPost2010PropOp55
 70
     1
102
RTVSPost2010Prop56
140
1.0
102
RTVSPost2010PropOp56
 70
     1
102
RTVSPost2010Prop57
140
1.0
102
RTVSPost2010PropOp57
 70
     1
  0
XRECORD
  5
453
102
{ACAD_REACTORS
330
452
102
}
330
452
100
AcDbXrecord
280
     1
102
RTVSPropertyOp0
 70
     1
102
RTVSPropertyOp1
 70
     1
102
RTVSPropertyOp2
 70
     1
102
RTVSPropertyOp3
 70
     1
102
RTVSPropertyOp4
 70
     1
102
RTVSPropertyOp5
 70
     1
102
RTVSPropertyOp6
 70
     1
102
RTVSPropertyOp7
 70
     1
102
RTVSPropertyOp8
 70
     1
102
RTVSPropertyOp9
 70
     1
102
RTVSPropertyOp10
 70
     1
102
RTVSPropertyOp11
 70
     1
102
RTVSPropertyOp12
 70
     1
102
RTVSPropertyOp13
 70
     1
102
RTVSPropertyOp14
 70
     1
102
RTVSPropertyOp15
 70
     1
102
RTVSPropertyOp16
 70
     1
102
RTVSPropertyOp17
 70
     1
102
RTVSPropertyOp18
 70
     1
102
RTVSPropertyOp19
 70
     1
102
RTVSPropertyOp20
 70
     1
102
RTVSPropertyOp21
 70
     1
102
RTVSPropertyOp22
 70
     1
102
RTVSPropertyOp23
 70
     1
102
RTVSPropertyOp24
 70
     1
102
RTVSPropertyOp25
 70
     1
102
RTVSPropertyOp26
 70
     1
102
RTVSPropertyOp27
 70
     1
102
RTVSPropertyOp28
 70
     1
102
RTVSPropertyOp29
 70
     1
102
RTVSPropertyOp30
 70
     1
102
RTVSPropertyOp31
 70
     1
102
RTVSPropertyOp32
 70
     1
102
RTVSPropertyOp33
 70
     1
102
RTVSPropertyOp34
 70
     1
102
RTVSPropertyOp35
 70
     1
102
RTVSPropertyOp36
 70
     1
102
RTVSPropertyOp37
 70
     1
102
RTVSPropertyOp38
 70
     1
102
RTVSPropertyOp39
 70
     1
102
RTVSPropertyOp40
 70
     1
102
RTVSPropertyOp41
 70
     1
102
RTVSPropertyOp42
 70
     1
102
RTVSPropertyOp43
 70
     1
102
RTVSPropertyOp44
 70
     1
102
RTVSPropertyOp45
 70
     1
102
RTVSPropertyOp46
 70
     1
102
RTVSPropertyOp47
 70
     1
102
RTVSPropertyOp48
 70
     1
102
RTVSPropertyOp49
 70
     1
102
RTVSPropertyOp50
 70
     1
102
RTVSPropertyOp51
 70
     0
102
RTVSPropertyOp52
 70
     0
102
RTVSPropertyOp53
 70
     1
102
RTVSPropertyOp54
 70
     1
102
RTVSPropertyOp55
 70
     1
102
RTVSPropertyOp56
 70
     1
102
RTVSPropertyOp57
 70
     1
102
RTVSPost2010Prop28
280
     0
102
RTVSPost2010PropOp28
 70
     1
102
RTVSPost2010Prop29
280
     1
102
RTVSPost2010PropOp29
 70
     1
102
RTVSPost2010Prop30
280
     1
102
RTVSPost2010PropOp30
 70
     1
102
RTVSPost2010Prop31
280
     0
102
RTVSPost2010PropOp31
 70
     1
102
RTVSPost2010Prop32
280
     0
102
RTVSPost2010PropOp32
 70
     1
102
RTVSPost2010Prop33
280
     0
102
RTVSPost2010PropOp33
 70
     1
102
RTVSPost2010Prop34
280
     0
102
RTVSPost2010PropOp34
 70
     1
102
RTVSPost2010Prop35
280
     0
102
RTVSPost2010PropOp35
 70
     1
102
RTVSPost2010Prop36
280
     0
102
RTVSPost2010PropOp36
 70
     1
102
RTVSPost2010Prop37
 90
       50
102
RTVSPost2010PropOp37
 70
     1
102
RTVSPost2010Prop38
140
0.0
102
RTVSPost2010PropOp38
 70
     1
102
RTVSPost2010Prop39
140
1.0
102
RTVSPost2010PropOp39
 70
     1
102
RTVSPost2010Prop40
 90
        0
102
RTVSPost2010PropOp40
 70
     1
102
RTVSPost2010Prop41ColorIndex
 90
       18
102
RTVSPost2010Prop41ColorRGB
 90
        0
102
RTVSPost2010PropOp41
 70
     1
102
RTVSPost2010Prop42
 90
       50
102
RTVSPost2010PropOp42
 70
     1
102
RTVSPost2010Prop43
 90
        3
102
RTVSPost2010PropOp43
 70
     1
102
RTVSPost2010Prop44ColorIndex
 90
        5
102
RTVSPost2010Prop44ColorRGB
 90
      255
102
RTVSPost2010PropOp44
 70
     1
102
RTVSPost2010Prop45
280
     0
102
RTVSPost2010PropOp45
 70
     1
102
RTVSPost2010Prop46
 90
       50
102
RTVSPost2010PropOp46
 70
     1
102
RTVSPost2010Prop47
 90
       50
102
RTVSPost2010PropOp47
 70
     1
102
RTVSPost2010Prop48
 90
       50
102
RTVSPost2010PropOp48
 70
     1
102
RTVSPost2010Prop49
280
     0
102
RTVSPost2010PropOp49
 70
     1
102
RTVSPost2010Prop50
 90
       50
102
RTVSPost2010PropOp50
 70
     1
102
RTVSPost2010Prop51ColorIndex
 90
      256
102
RTVSPost2010Prop51ColorRGB
 90
-16777216
102
RTVSPost2010PropOp51
 70
     0
102
RTVSPost2010Prop52
140
1.0
102
RTVSPost2010PropOp52
 70
     0
102
RTVSPost2010Prop53
 90
        2
102
RTVSPost2010PropOp53
 70
     1
102
RTVSPost2010Prop54
  1
strokes_ogs.tif
102
RTVSPost2010PropOp54
 70
     1
102
RTVSPost2010Prop55
280
     0
102
RTVSPost2010PropOp55
 70
     1
102
RTVSPost2010Prop56
140
1.0
102
RTVSPost2010PropOp56
 70
     1
102
RTVSPost2010Prop57
140
1.0
102
RTVSPost2010PropOp57
 70
     1
  0
XRECORD
  5
443
102
{ACAD_REACTORS
330
442
102
}
330
442
100
AcDbXrecord
280
     1
102
RTVSPropertyOp0
 70
     1
102
RTVSPropertyOp1
 70
     1
102
RTVSPropertyOp2
 70
     1
102
RTVSPropertyOp3
 70
     1
102
RTVSPropertyOp4
 70
     1
102
RTVSPropertyOp5
 70
     1
102
RTVSPropertyOp6
 70
     1
102
RTVSPropertyOp7
 70
     1
102
RTVSPropertyOp8
 70
     1
102
RTVSPropertyOp9
 70
     1
102
RTVSPropertyOp10
 70
     1
102
RTVSPropertyOp11
 70
     1
102
RTVSPropertyOp12
 70
     1
102
RTVSPropertyOp13
 70
     1
102
RTVSPropertyOp14
 70
     1
102
RTVSPropertyOp15
 70
     1
102
RTVSPropertyOp16
 70
     1
102
RTVSPropertyOp17
 70
     1
102
RTVSPropertyOp18
 70
     1
102
RTVSPropertyOp19
 70
     1
102
RTVSPropertyOp20
 70
     1
102
RTVSPropertyOp21
 70
     1
102
RTVSPropertyOp22
 70
     1
102
RTVSPropertyOp23
 70
     1
102
RTVSPropertyOp24
 70
     1
102
RTVSPropertyOp25
 70
     1
102
RTVSPropertyOp26
 70
     1
102
RTVSPropertyOp27
 70
     1
102
RTVSPropertyOp28
 70
     1
102
RTVSPropertyOp29
 70
     1
102
RTVSPropertyOp30
 70
     1
102
RTVSPropertyOp31
 70
     1
102
RTVSPropertyOp32
 70
     1
102
RTVSPropertyOp33
 70
     1
102
RTVSPropertyOp34
 70
     1
102
RTVSPropertyOp35
 70
     1
102
RTVSPropertyOp36
 70
     1
102
RTVSPropertyOp37
 70
     1
102
RTVSPropertyOp38
 70
     1
102
RTVSPropertyOp39
 70
     1
102
RTVSPropertyOp40
 70
     1
102
RTVSPropertyOp41
 70
     1
102
RTVSPropertyOp42
 70
     1
102
RTVSPropertyOp43
 70
     1
102
RTVSPropertyOp44
 70
     1
102
RTVSPropertyOp45
 70
     1
102
RTVSPropertyOp46
 70
     1
102
RTVSPropertyOp47
 70
     1
102
RTVSPropertyOp48
 70
     1
102
RTVSPropertyOp49
 70
     1
102
RTVSPropertyOp50
 70
     1
102
RTVSPropertyOp51
 70
     0
102
RTVSPropertyOp52
 70
     0
102
RTVSPropertyOp53
 70
     1
102
RTVSPropertyOp54
 70
     1
102
RTVSPropertyOp55
 70
     1
102
RTVSPropertyOp56
 70
     1
102
RTVSPropertyOp57
 70
     1
102
RTVSPost2010Prop28
280
     0
102
RTVSPost2010PropOp28
 70
     1
102
RTVSPost2010Prop29
280
     1
102
RTVSPost2010PropOp29
 70
     1
102
RTVSPost2010Prop30
280
     1
102
RTVSPost2010PropOp30
 70
     1
102
RTVSPost2010Prop31
280
     0
102
RTVSPost2010PropOp31
 70
     1
102
RTVSPost2010Prop32
280
     0
102
RTVSPost2010PropOp32
 70
     1
102
RTVSPost2010Prop33
280
     0
102
RTVSPost2010PropOp33
 70
     1
102
RTVSPost2010Prop34
280
     0
102
RTVSPost2010PropOp34
 70
     1
102
RTVSPost2010Prop35
280
     0
102
RTVSPost2010PropOp35
 70
     1
102
RTVSPost2010Prop36
280
     0
102
RTVSPost2010PropOp36
 70
     1
102
RTVSPost2010Prop37
 90
       50
102
RTVSPost2010PropOp37
 70
     1
102
RTVSPost2010Prop38
140
0.0
102
RTVSPost2010PropOp38
 70
     1
102
RTVSPost2010Prop39
140
1.0
102
RTVSPost2010PropOp39
 70
     1
102
RTVSPost2010Prop40
 90
        0
102
RTVSPost2010PropOp40
 70
     1
102
RTVSPost2010Prop41ColorIndex
 90
       18
102
RTVSPost2010Prop41ColorRGB
 90
        0
102
RTVSPost2010PropOp41
 70
     1
102
RTVSPost2010Prop42
 90
       50
102
RTVSPost2010PropOp42
 70
     1
102
RTVSPost2010Prop43
 90
        3
102
RTVSPost2010PropOp43
 70
     1
102
RTVSPost2010Prop44ColorIndex
 90
        5
102
RTVSPost2010Prop44ColorRGB
 90
      255
102
RTVSPost2010PropOp44
 70
     1
102
RTVSPost2010Prop45
280
     0
102
RTVSPost2010PropOp45
 70
     1
102
RTVSPost2010Prop46
 90
       50
102
RTVSPost2010PropOp46
 70
     1
102
RTVSPost2010Prop47
 90
       50
102
RTVSPost2010PropOp47
 70
     1
102
RTVSPost2010Prop48
 90
       50
102
RTVSPost2010PropOp48
 70
     1
102
RTVSPost2010Prop49
280
     0
102
RTVSPost2010PropOp49
 70
     1
102
RTVSPost2010Prop50
 90
       50
102
RTVSPost2010PropOp50
 70
     1
102
RTVSPost2010Prop51ColorIndex
 90
      256
102
RTVSPost2010Prop51ColorRGB
 90
-16777216
102
RTVSPost2010PropOp51
 70
     0
102
RTVSPost2010Prop52
140
1.0
102
RTVSPost2010PropOp52
 70
     0
102
RTVSPost2010Prop53
 90
        2
102
RTVSPost2010PropOp53
 70
     1
102
RTVSPost2010Prop54
  1
strokes_ogs.tif
102
RTVSPost2010PropOp54
 70
     1
102
RTVSPost2010Prop55
280
     0
102
RTVSPost2010PropOp55
 70
     1
102
RTVSPost2010Prop56
140
1.0
102
RTVSPost2010PropOp56
 70
     1
102
RTVSPost2010Prop57
140
1.0
102
RTVSPost2010PropOp57
 70
     1
  0
XRECORD
  5
435
102
{ACAD_REACTORS
330
434
102
}
330
434
100
AcDbXrecord
280
     1
102
RTVSPropertyOp0
 70
     1
102
RTVSPropertyOp1
 70
     1
102
RTVSPropertyOp2
 70
     1
102
RTVSPropertyOp3
 70
     1
102
RTVSPropertyOp4
 70
     1
102
RTVSPropertyOp5
 70
     1
102
RTVSPropertyOp6
 70
     1
102
RTVSPropertyOp7
 70
     1
102
RTVSPropertyOp8
 70
     1
102
RTVSPropertyOp9
 70
     1
102
RTVSPropertyOp10
 70
     1
102
RTVSPropertyOp11
 70
     1
102
RTVSPropertyOp12
 70
     1
102
RTVSPropertyOp13
 70
     1
102
RTVSPropertyOp14
 70
     1
102
RTVSPropertyOp15
 70
     1
102
RTVSPropertyOp16
 70
     1
102
RTVSPropertyOp17
 70
     1
102
RTVSPropertyOp18
 70
     1
102
RTVSPropertyOp19
 70
     1
102
RTVSPropertyOp20
 70
     1
102
RTVSPropertyOp21
 70
     1
102
RTVSPropertyOp22
 70
     1
102
RTVSPropertyOp23
 70
     1
102
RTVSPropertyOp24
 70
     1
102
RTVSPropertyOp25
 70
     1
102
RTVSPropertyOp26
 70
     1
102
RTVSPropertyOp27
 70
     1
102
RTVSPropertyOp28
 70
     1
102
RTVSPropertyOp29
 70
     1
102
RTVSPropertyOp30
 70
     1
102
RTVSPropertyOp31
 70
     1
102
RTVSPropertyOp32
 70
     1
102
RTVSPropertyOp33
 70
     1
102
RTVSPropertyOp34
 70
     1
102
RTVSPropertyOp35
 70
     1
102
RTVSPropertyOp36
 70
     1
102
RTVSPropertyOp37
 70
     1
102
RTVSPropertyOp38
 70
     1
102
RTVSPropertyOp39
 70
     1
102
RTVSPropertyOp40
 70
     1
102
RTVSPropertyOp41
 70
     1
102
RTVSPropertyOp42
 70
     1
102
RTVSPropertyOp43
 70
     1
102
RTVSPropertyOp44
 70
     1
102
RTVSPropertyOp45
 70
     1
102
RTVSPropertyOp46
 70
     1
102
RTVSPropertyOp47
 70
     1
102
RTVSPropertyOp48
 70
     1
102
RTVSPropertyOp49
 70
     1
102
RTVSPropertyOp50
 70
     1
102
RTVSPropertyOp51
 70
     0
102
RTVSPropertyOp52
 70
     0
102
RTVSPropertyOp53
 70
     1
102
RTVSPropertyOp54
 70
     1
102
RTVSPropertyOp55
 70
     1
102
RTVSPropertyOp56
 70
     1
102
RTVSPropertyOp57
 70
     1
102
RTVSPost2010Prop28
280
     0
102
RTVSPost2010PropOp28
 70
     1
102
RTVSPost2010Prop29
280
     1
102
RTVSPost2010PropOp29
 70
     1
102
RTVSPost2010Prop30
280
     1
102
RTVSPost2010PropOp30
 70
     1
102
RTVSPost2010Prop31
280
     0
102
RTVSPost2010PropOp31
 70
     1
102
RTVSPost2010Prop32
280
     0
102
RTVSPost2010PropOp32
 70
     1
102
RTVSPost2010Prop33
280
     0
102
RTVSPost2010PropOp33
 70
     1
102
RTVSPost2010Prop34
280
     0
102
RTVSPost2010PropOp34
 70
     1
102
RTVSPost2010Prop35
280
     0
102
RTVSPost2010PropOp35
 70
     1
102
RTVSPost2010Prop36
280
     0
102
RTVSPost2010PropOp36
 70
     1
102
RTVSPost2010Prop37
 90
       50
102
RTVSPost2010PropOp37
 70
     1
102
RTVSPost2010Prop38
140
0.0
102
RTVSPost2010PropOp38
 70
     1
102
RTVSPost2010Prop39
140
1.0
102
RTVSPost2010PropOp39
 70
     1
102
RTVSPost2010Prop40
 90
        0
102
RTVSPost2010PropOp40
 70
     1
102
RTVSPost2010Prop41ColorIndex
 90
       18
102
RTVSPost2010Prop41ColorRGB
 90
        0
102
RTVSPost2010PropOp41
 70
     1
102
RTVSPost2010Prop42
 90
       50
102
RTVSPost2010PropOp42
 70
     1
102
RTVSPost2010Prop43
 90
        3
102
RTVSPost2010PropOp43
 70
     1
102
RTVSPost2010Prop44ColorIndex
 90
        5
102
RTVSPost2010Prop44ColorRGB
 90
      255
102
RTVSPost2010PropOp44
 70
     1
102
RTVSPost2010Prop45
280
     0
102
RTVSPost2010PropOp45
 70
     1
102
RTVSPost2010Prop46
 90
       50
102
RTVSPost2010PropOp46
 70
     1
102
RTVSPost2010Prop47
 90
       50
102
RTVSPost2010PropOp47
 70
     1
102
RTVSPost2010Prop48
 90
       50
102
RTVSPost2010PropOp48
 70
     1
102
RTVSPost2010Prop49
280
     0
102
RTVSPost2010PropOp49
 70
     1
102
RTVSPost2010Prop50
 90
       50
102
RTVSPost2010PropOp50
 70
     1
102
RTVSPost2010Prop51ColorIndex
 90
      256
102
RTVSPost2010Prop51ColorRGB
 90
-16777216
102
RTVSPost2010PropOp51
 70
     0
102
RTVSPost2010Prop52
140
1.0
102
RTVSPost2010PropOp52
 70
     0
102
RTVSPost2010Prop53
 90
        2
102
RTVSPost2010PropOp53
 70
     1
102
RTVSPost2010Prop54
  1
strokes_ogs.tif
102
RTVSPost2010PropOp54
 70
     1
102
RTVSPost2010Prop55
280
     0
102
RTVSPost2010PropOp55
 70
     1
102
RTVSPost2010Prop56
140
1.0
102
RTVSPost2010PropOp56
 70
     1
102
RTVSPost2010Prop57
140
1.0
102
RTVSPost2010PropOp57
 70
     1
  0
XRECORD
  5
455
102
{ACAD_REACTORS
330
454
102
}
330
454
100
AcDbXrecord
280
     1
102
RTVSPropertyOp0
 70
     1
102
RTVSPropertyOp1
 70
     1
102
RTVSPropertyOp2
 70
     1
102
RTVSPropertyOp3
 70
     1
102
RTVSPropertyOp4
 70
     1
102
RTVSPropertyOp5
 70
     1
102
RTVSPropertyOp6
 70
     1
102
RTVSPropertyOp7
 70
     1
102
RTVSPropertyOp8
 70
     1
102
RTVSPropertyOp9
 70
     1
102
RTVSPropertyOp10
 70
     1
102
RTVSPropertyOp11
 70
     1
102
RTVSPropertyOp12
 70
     1
102
RTVSPropertyOp13
 70
     1
102
RTVSPropertyOp14
 70
     1
102
RTVSPropertyOp15
 70
     1
102
RTVSPropertyOp16
 70
     1
102
RTVSPropertyOp17
 70
     1
102
RTVSPropertyOp18
 70
     1
102
RTVSPropertyOp19
 70
     1
102
RTVSPropertyOp20
 70
     1
102
RTVSPropertyOp21
 70
     1
102
RTVSPropertyOp22
 70
     1
102
RTVSPropertyOp23
 70
     1
102
RTVSPropertyOp24
 70
     1
102
RTVSPropertyOp25
 70
     1
102
RTVSPropertyOp26
 70
     1
102
RTVSPropertyOp27
 70
     1
102
RTVSPropertyOp28
 70
     1
102
RTVSPropertyOp29
 70
     1
102
RTVSPropertyOp30
 70
     1
102
RTVSPropertyOp31
 70
     1
102
RTVSPropertyOp32
 70
     1
102
RTVSPropertyOp33
 70
     1
102
RTVSPropertyOp34
 70
     1
102
RTVSPropertyOp35
 70
     1
102
RTVSPropertyOp36
 70
     1
102
RTVSPropertyOp37
 70
     1
102
RTVSPropertyOp38
 70
     1
102
RTVSPropertyOp39
 70
     1
102
RTVSPropertyOp40
 70
     1
102
RTVSPropertyOp41
 70
     1
102
RTVSPropertyOp42
 70
     1
102
RTVSPropertyOp43
 70
     1
102
RTVSPropertyOp44
 70
     1
102
RTVSPropertyOp45
 70
     1
102
RTVSPropertyOp46
 70
     1
102
RTVSPropertyOp47
 70
     1
102
RTVSPropertyOp48
 70
     1
102
RTVSPropertyOp49
 70
     1
102
RTVSPropertyOp50
 70
     1
102
RTVSPropertyOp51
 70
     0
102
RTVSPropertyOp52
 70
     0
102
RTVSPropertyOp53
 70
     1
102
RTVSPropertyOp54
 70
     1
102
RTVSPropertyOp55
 70
     1
102
RTVSPropertyOp56
 70
     1
102
RTVSPropertyOp57
 70
     1
102
RTVSPost2010Prop28
280
     0
102
RTVSPost2010PropOp28
 70
     1
102
RTVSPost2010Prop29
280
     1
102
RTVSPost2010PropOp29
 70
     1
102
RTVSPost2010Prop30
280
     1
102
RTVSPost2010PropOp30
 70
     1
102
RTVSPost2010Prop31
280
     0
102
RTVSPost2010PropOp31
 70
     1
102
RTVSPost2010Prop32
280
     0
102
RTVSPost2010PropOp32
 70
     1
102
RTVSPost2010Prop33
280
     0
102
RTVSPost2010PropOp33
 70
     1
102
RTVSPost2010Prop34
280
     0
102
RTVSPost2010PropOp34
 70
     1
102
RTVSPost2010Prop35
280
     0
102
RTVSPost2010PropOp35
 70
     1
102
RTVSPost2010Prop36
280
     0
102
RTVSPost2010PropOp36
 70
     1
102
RTVSPost2010Prop37
 90
       50
102
RTVSPost2010PropOp37
 70
     1
102
RTVSPost2010Prop38
140
0.0
102
RTVSPost2010PropOp38
 70
     1
102
RTVSPost2010Prop39
140
1.0
102
RTVSPost2010PropOp39
 70
     1
102
RTVSPost2010Prop40
 90
        0
102
RTVSPost2010PropOp40
 70
     1
102
RTVSPost2010Prop41ColorIndex
 90
       18
102
RTVSPost2010Prop41ColorRGB
 90
        0
102
RTVSPost2010PropOp41
 70
     1
102
RTVSPost2010Prop42
 90
       50
102
RTVSPost2010PropOp42
 70
     1
102
RTVSPost2010Prop43
 90
        3
102
RTVSPost2010PropOp43
 70
     1
102
RTVSPost2010Prop44ColorIndex
 90
        5
102
RTVSPost2010Prop44ColorRGB
 90
      255
102
RTVSPost2010PropOp44
 70
     1
102
RTVSPost2010Prop45
280
     0
102
RTVSPost2010PropOp45
 70
     1
102
RTVSPost2010Prop46
 90
       50
102
RTVSPost2010PropOp46
 70
     1
102
RTVSPost2010Prop47
 90
       50
102
RTVSPost2010PropOp47
 70
     1
102
RTVSPost2010Prop48
 90
       50
102
RTVSPost2010PropOp48
 70
     1
102
RTVSPost2010Prop49
280
     0
102
RTVSPost2010PropOp49
 70
     1
102
RTVSPost2010Prop50
 90
       50
102
RTVSPost2010PropOp50
 70
     1
102
RTVSPost2010Prop51ColorIndex
 90
      256
102
RTVSPost2010Prop51ColorRGB
 90
-16777216
102
RTVSPost2010PropOp51
 70
     0
102
RTVSPost2010Prop52
140
1.0
102
RTVSPost2010PropOp52
 70
     0
102
RTVSPost2010Prop53
 90
        2
102
RTVSPost2010PropOp53
 70
     1
102
RTVSPost2010Prop54
  1
strokes_ogs.tif
102
RTVSPost2010PropOp54
 70
     1
102
RTVSPost2010Prop55
280
     0
102
RTVSPost2010PropOp55
 70
     1
102
RTVSPost2010Prop56
140
1.0
102
RTVSPost2010PropOp56
 70
     1
102
RTVSPost2010Prop57
140
1.0
102
RTVSPost2010PropOp57
 70
     1
  0
ENDSEC
  0
EOF
