  0
SECTION
  2
HEADER
  9
$ACADVER
  1
AC1014
  9
$ACADMAINTVER
 70
     9
  9
$DWGCODEPAGE
  3
ANSI_932
  9
$INSBASE
 10
0.0
 20
0.0
 30
0.0
  9
$EXTMIN
 10
0.0
 20
0.0
 30
0.0
  9
$EXTMAX
 10
594.0
 20
420.0
 30
0.0
  9
$LIMMIN
 10
0.0
 20
0.0
  9
$LIMMAX
 10
594.0
 20
420.0
  9
$ORTHOMODE
 70
     0
  9
$REGENMODE
 70
     1
  9
$FILLMODE
 70
     1
  9
$QTEXTMODE
 70
     0
  9
$MIRRTEXT
 70
     1
  9
$DRAGMODE
 70
     2
  9
$LTSCALE
 40
1.0
  9
$OSMODE
 70
    37
  9
$ATTMODE
 70
     1
  9
$TEXTSIZE
 40
0.2
  9
$TRACEWID
 40
0.05
  9
$TEXTSTYLE
  7
STYLE1
  9
$CLAYER
  8
0
  9
$CELTYPE
  6
BYLAYER
  9
$CECOLOR
 62
   256
  9
$CELTSCALE
 40
1.0
  9
$DELOBJ
 70
     1
  9
$DISPSILH
 70
     0
  9
$DIMSCALE
 40
1.0
  9
$DIMASZ
 40
4.0
  9
$DIMEXO
 40
1.0
  9
$DIMDLI
 40
10.0
  9
$DIMRND
 40
0.0
  9
$DIMDLE
 40
6.0
  9
$DIMEXE
 40
1.0
  9
$DIMTP
 40
0.0
  9
$DIMTM
 40
0.0
  9
$DIMTXT
 40
4.0
  9
$DIMCEN
 40
2.5
  9
$DIMTSZ
 40
0.0
  9
$DIMTOL
 70
     0
  9
$DIMLIM
 70
     0
  9
$DIMTIH
 70
     0
  9
$DIMTOH
 70
     0
  9
$DIMSE1
 70
     0
  9
$DIMSE2
 70
     0
  9
$DIMTAD
 70
     1
  9
$DIMZIN
 70
     8
  9
$DIMBLK
  1

  9
$DIMASO
 70
     1
  9
$DIMSHO
 70
     1
  9
$DIMPOST
  1

  9
$DIMAPOST
  1

  9
$DIMALT
 70
     0
  9
$DIMALTD
 70
     3
  9
$DIMALTF
 40
0.03937
  9
$DIMLFAC
 40
1.0
  9
$DIMTOFL
 70
     1
  9
$DIMTVP
 40
0.0
  9
$DIMTIX
 70
     0
  9
$DIMSOXD
 70
     0
  9
$DIMSAH
 70
     1
  9
$DIMBLK1
  1

  9
$DIMBLK2
  1
FXTIP_ARROW_E
  9
$DIMSTYLE
  2
FXDIMINFO
  9
$DIMCLRD
 70
     7
  9
$DIMCLRE
 70
     7
  9
$DIMCLRT
 70
     7
  9
$DIMTFAC
 40
1.0
  9
$DIMGAP
 40
1.0
  9
$DIMJUST
 70
     0
  9
$DIMSD1
 70
     0
  9
$DIMSD2
 70
     0
  9
$DIMTOLJ
 70
     0
  9
$DIMTZIN
 70
     8
  9
$DIMALTZ
 70
     0
  9
$DIMALTTZ
 70
     0
  9
$DIMFIT
 70
     3
  9
$DIMUPT
 70
     0
  9
$DIMUNIT
 70
     2
  9
$DIMDEC
 70
     2
  9
$DIMTDEC
 70
     2
  9
$DIMALTU
 70
     2
  9
$DIMALTTD
 70
     3
  9
$DIMTXSTY
  7
STYLE1
  9
$DIMAUNIT
 70
     0
  9
$LUNITS
 70
     2
  9
$LUPREC
 70
     4
  9
$SKETCHINC
 40
0.1
  9
$FILLETRAD
 40
0.5
  9
$AUNITS
 70
     0
  9
$AUPREC
 70
     0
  9
$MENU
  1
.
  9
$ELEVATION
 40
0.0
  9
$PELEVATION
 40
0.0
  9
$THICKNESS
 40
0.0
  9
$LIMCHECK
 70
     0
  9
$CHAMFERA
 40
0.5
  9
$CHAMFERB
 40
0.5
  9
$CHAMFERC
 40
1.0
  9
$CHAMFERD
 40
0.0
  9
$SKPOLY
 70
     0
  9
$TDCREATE
 40
2455307.740763275
  9
$TDUPDATE
 40
2455307.740763287
  9
$TDINDWG
 40
0.0000000116
  9
$TDUSRTIMER
 40
0.0000000116
  9
$USRTIMER
 70
     1
  9
$ANGBASE
 50
0.0
  9
$ANGDIR
 70
     0
  9
$PDMODE
 70
     0
  9
$PDSIZE
 40
0.0
  9
$PLINEWID
 40
0.0
  9
$COORDS
 70
     1
  9
$SPLFRAME
 70
     0
  9
$SPLINETYPE
 70
     6
  9
$SPLINESEGS
 70
     8
  9
$ATTDIA
 70
     0
  9
$ATTREQ
 70
     1
  9
$HANDLING
 70
     1
  9
$HANDSEED
  5
449
  9
$SURFTAB1
 70
     6
  9
$SURFTAB2
 70
     6
  9
$SURFTYPE
 70
     6
  9
$SURFU
 70
     6
  9
$SURFV
 70
     6
  9
$UCSNAME
  2

  9
$UCSORG
 10
0.0
 20
0.0
 30
0.0
  9
$UCSXDIR
 10
1.0
 20
0.0
 30
0.0
  9
$UCSYDIR
 10
0.0
 20
1.0
 30
0.0
  9
$PUCSNAME
  2

  9
$PUCSORG
 10
0.0
 20
0.0
 30
0.0
  9
$PUCSXDIR
 10
1.0
 20
0.0
 30
0.0
  9
$PUCSYDIR
 10
0.0
 20
1.0
 30
0.0
  9
$USERI1
 70
     0
  9
$USERI2
 70
     0
  9
$USERI3
 70
     0
  9
$USERI4
 70
     0
  9
$USERI5
 70
     0
  9
$USERR1
 40
0.0
  9
$USERR2
 40
0.0
  9
$USERR3
 40
0.0
  9
$USERR4
 40
0.0
  9
$USERR5
 40
0.0
  9
$WORLDVIEW
 70
     1
  9
$SHADEDGE
 70
     3
  9
$SHADEDIF
 70
    70
  9
$TILEMODE
 70
     1
  9
$MAXACTVP
 70
    64
  9
$PINSBASE
 10
0.0
 20
0.0
 30
0.0
  9
$PLIMCHECK
 70
     0
  9
$PEXTMIN
 10
1.000000E+20
 20
1.000000E+20
 30
1.000000E+20
  9
$PEXTMAX
 10
-1.000000E+20
 20
-1.000000E+20
 30
-1.000000E+20
  9
$PLIMMIN
 10
0.0
 20
0.0
  9
$PLIMMAX
 10
12.0
 20
9.0
  9
$UNITMODE
 70
     0
  9
$VISRETAIN
 70
     1
  9
$PLINEGEN
 70
     0
  9
$PSLTSCALE
 70
     1
  9
$TREEDEPTH
 70
  3020
  9
$PICKSTYLE
 70
     1
  9
$CMLSTYLE
  2
STANDARD
  9
$CMLJUST
 70
     0
  9
$CMLSCALE
 40
1.0
  9
$PROXYGRAPHICS
 70
     1
  9
$MEASUREMENT
 70
     0
  0
ENDSEC
  0
SECTION
  2
CLASSES
  0
CLASS
  1
ACDBDICTIONARYWDFLT
  2
AcDbDictionaryWithDefault
  3
ObjectDBX Classes
 90
        0
280
     0
281
     0
  0
CLASS
  1
XRECORD
  2
AcDbXrecord
  3
AutoCAD 2000
 90
        0
280
     0
281
     0
  0
CLASS
  1
LWPOLYLINE
  2
AcDbPolyline
  3
AutoCAD 2000
 90
        0
280
     0
281
     1
  0
CLASS
  1
HATCH
  2
AcDbHatch
  3
AutoCAD 2000
 90
        0
280
     0
281
     1
  0
CLASS
  1
ACDBPLACEHOLDER
  2
AcDbPlaceHolder
  3
ObjectDBX Classes
 90
        0
280
     0
281
     0
  0
CLASS
  1
LAYOUT
  2
AcDbLayout
  3
ObjectDBX Classes
 90
        0
280
     0
281
     0
  0
ENDSEC
  0
SECTION
  2
TABLES
  0
TABLE
  2
VPORT
  5
8
330
0
100
AcDbSymbolTable
 70
     1
  0
VPORT
  5
29
330
8
100
AcDbSymbolTableRecord
100
AcDbViewportTableRecord
  2
*ACTIVE
 70
     0
 10
0.0
 20
0.0
 11
1.0
 21
1.0
 12
297.0
 22
210.0
 13
0.0
 23
0.0
 14
0.5
 24
0.5
 15
0.5
 25
0.5
 16
0.0
 26
0.0
 36
1.0
 17
0.0
 27
0.0
 37
0.0
 40
420.0
 41
1.414286
 42
50.0
 43
0.0
 44
0.0
 50
0.0
 51
0.0
 71
     0
 72
   100
 73
     1
 74
     3
 75
     0
 76
     0
 77
     0
 78
     0
  0
ENDTAB
  0
TABLE
  2
LTYPE
  5
5
330
0
100
AcDbSymbolTable
 70
     4
  0
LTYPE
  5
14
330
5
100
AcDbSymbolTableRecord
100
AcDbLinetypeTableRecord
  2
BYBLOCK
 70
     0
  3

 72
    65
 73
     0
 40
0.0
  0
LTYPE
  5
15
330
5
100
AcDbSymbolTableRecord
100
AcDbLinetypeTableRecord
  2
BYLAYER
 70
     0
  3

 72
    65
 73
     0
 40
0.0
  0
LTYPE
  5
16
330
5
100
AcDbSymbolTableRecord
100
AcDbLinetypeTableRecord
  2
CONTINUOUS
 70
     0
  3
--------------------
 72
    65
 73
     0
 40
0.0
  0
LTYPE
  5
2A
330
5
100
AcDbSymbolTableRecord
100
AcDbLinetypeTableRecord
  2
CENTER
 70
     0
  3
Center ____ _ ____ _ ____ _ ____ _ ____ _ ____
 72
    65
 73
     4
 40
13.0
 49
10.0
 74
     0
 49
-1.0
 74
     0
 49
1.0
 74
     0
 49
-1.0
 74
     0
  0
ENDTAB
  0
TABLE
  2
LAYER
  5
2
330
0
100
AcDbSymbolTable
 70
    20
  0
LAYER
  5
10
330
2
100
AcDbSymbolTableRecord
100
AcDbLayerTableRecord
  2
0
 70
     0
 62
     7
  6
CONTINUOUS
  0
LAYER
  5
2D
330
2
100
AcDbSymbolTableRecord
100
AcDbLayerTableRecord
  2
LAYERGROUP-1
 70
     0
 62
     3
  6
CONTINUOUS
  0
LAYER
  5
3D
330
2
100
AcDbSymbolTableRecord
100
AcDbLayerTableRecord
  2
}}ﾊﾊGG血CCТ
 70
     0
 62
     3
  6
CONTINUOUS
  0
LAYER
  5
A8
330
2
100
AcDbSymbolTableRecord
100
AcDbLayerTableRecord
  2
GR1-1
 70
     0
 62
     7
  6
CONTINUOUS
  0
LAYER
  5
2BD
330
2
100
AcDbSymbolTableRecord
100
AcDbLayerTableRecord
  2
0-1
 70
     0
 62
     7
  6
CONTINUOUS
  0
ENDTAB
  0
TABLE
  2
STYLE
  5
3
330
0
100
AcDbSymbolTable
 70
     4
  0
STYLE
  5
11
330
3
100
AcDbSymbolTableRecord
100
AcDbTextStyleTableRecord
  2
STANDARD
 70
     0
 40
0.0
 41
1.0
 50
0.0
 71
     0
 42
0.2
  3
txt
  4

  0
STYLE
  5
3F
330
3
100
AcDbSymbolTableRecord
100
AcDbTextStyleTableRecord
  2
STYLE1
 70
     0
 40
0.0
 41
1.0
 50
0.0
 71
     0
 42
0.2
  3
MONOTXT.SHX
  4
extfont.shx
  0
STYLE
  5
40
330
3
100
AcDbSymbolTableRecord
100
AcDbTextStyleTableRecord
  2
FX_VECTOR
 70
     0
 40
0.0
 41
1.0
 50
0.0
 71
     0
 42
0.2
  3
MONOTXT.SHX
  4
BIGFONT.SHX
  0
ENDTAB
  0
TABLE
  2
VIEW
  5
6
330
0
100
AcDbSymbolTable
 70
     0
  0
ENDTAB
  0
TABLE
  2
UCS
  5
7
330
0
100
AcDbSymbolTable
 70
     0
  0
ENDTAB
  0
TABLE
  2
APPID
  5
9
330
0
100
AcDbSymbolTable
 70
     1
  0
APPID
  5
12
330
9
100
AcDbSymbolTableRecord
100
AcDbRegAppTableRecord
  2
ACAD
 70
     0
  0
ENDTAB
  0
TABLE
  2
DIMSTYLE
  5
A
330
0
100
AcDbSymbolTable
 70
     2
  0
DIMSTYLE
105
27
330
A
100
AcDbSymbolTableRecord
100
AcDbDimStyleTableRecord
  2
STANDARD
 70
     0
  3

  4

  5

  6

  7

 40
1.0
 41
0.18
 42
0.0625
 43
0.38
 44
0.18
 45
0.0
 46
0.0
 47
0.0
 48
0.0
140
0.18
141
0.09
142
0.0
143
25.4
144
1.0
145
0.0
146
1.0
147
0.09
 71
     0
 72
     0
 73
     1
 74
     1
 75
     0
 76
     0
 77
     0
 78
     0
170
     0
171
     2
172
     0
173
     0
174
     0
175
     0
176
     0
177
     0
178
     0
270
     2
271
     4
272
     4
273
     2
274
     2
340
11
275
     0
280
     0
281
     0
282
     0
283
     1
284
     0
285
     0
286
     0
287
     3
288
     0
  0
DIMSTYLE
105
A7
330
A
100
AcDbSymbolTableRecord
100
AcDbDimStyleTableRecord
  2
FXDIMINFO
 70
     0
  3

  4

  5

  6

  7
FXTIP_ARROW_E
 40
1.0
 41
4.0
 42
1.0
 43
10.0
 44
1.0
 45
0.0
 46
6.0
 47
0.0
 48
0.0
140
4.0
141
2.5
142
0.0
143
0.03937
144
1.0
145
0.0
146
1.0
147
1.0
 71
     0
 72
     0
 73
     0
 74
     0
 75
     0
 76
     0
 77
     1
 78
     8
170
     0
171
     3
172
     1
173
     1
174
     0
175
     0
176
     7
177
     7
178
     7
179
     2
270
     2
271
     2
272
     2
273
     2
274
     3
340
3F
275
     0
280
     0
281
     0
282
     0
283
     0
284
     8
285
     0
286
     0
287
     3
288
     0
  0
ENDTAB
  0
TABLE
  2
BLOCK_RECORD
  5
1
330
0
100
AcDbSymbolTable
 70
    19
  0
BLOCK_RECORD
  5
1F
330
1
100
AcDbSymbolTableRecord
100
AcDbBlockTableRecord
  2
*MODEL_SPACE
  0
BLOCK_RECORD
  5
1B
330
1
100
AcDbSymbolTableRecord
100
AcDbBlockTableRecord
  2
*PAPER_SPACE
  0
BLOCK_RECORD
  5
41
330
1
100
AcDbSymbolTableRecord
100
AcDbBlockTableRecord
  2
FXTIP_ARROW_S
  0
BLOCK_RECORD
  5
47
330
1
100
AcDbSymbolTableRecord
100
AcDbBlockTableRecord
  2
FXTIP_ARROW_E
  0
BLOCK_RECORD
  5
4D
330
1
100
AcDbSymbolTableRecord
100
AcDbBlockTableRecord
  2
FXTIP_BLACKDOT_S
  0
BLOCK_RECORD
  5
53
330
1
100
AcDbSymbolTableRecord
100
AcDbBlockTableRecord
  2
FXTIP_BLACKDOT_E
  0
BLOCK_RECORD
  5
59
330
1
100
AcDbSymbolTableRecord
100
AcDbBlockTableRecord
  2
FXTIP_TRIANGLE_S
  0
BLOCK_RECORD
  5
60
330
1
100
AcDbSymbolTableRecord
100
AcDbBlockTableRecord
  2
FXTIP_TRIANGLE_E
  0
BLOCK_RECORD
  5
67
330
1
100
AcDbSymbolTableRecord
100
AcDbBlockTableRecord
  2
FXTIP_ARCHITECT_S
  0
BLOCK_RECORD
  5
6D
330
1
100
AcDbSymbolTableRecord
100
AcDbBlockTableRecord
  2
FXTIP_ARCHITECT_E
  0
BLOCK_RECORD
  5
73
330
1
100
AcDbSymbolTableRecord
100
AcDbBlockTableRecord
  2
FXTIP_CIVIL_S
  0
BLOCK_RECORD
  5
79
330
1
100
AcDbSymbolTableRecord
100
AcDbBlockTableRecord
  2
FXTIP_CIVIL_E
  0
BLOCK_RECORD
  5
7F
330
1
100
AcDbSymbolTableRecord
100
AcDbBlockTableRecord
  2
FXTIP_WHITEDOT_S
  0
BLOCK_RECORD
  5
84
330
1
100
AcDbSymbolTableRecord
100
AcDbBlockTableRecord
  2
FXTIP_WHITEDOT_E
  0
BLOCK_RECORD
  5
89
330
1
100
AcDbSymbolTableRecord
100
AcDbBlockTableRecord
  2
FXTIP_UPARROW_S
  0
BLOCK_RECORD
  5
8E
330
1
100
AcDbSymbolTableRecord
100
AcDbBlockTableRecord
  2
FXTIP_UPARROW_E
  0
BLOCK_RECORD
  5
93
330
1
100
AcDbSymbolTableRecord
100
AcDbBlockTableRecord
  2
FXTIP_DOWNARROW_S
  0
BLOCK_RECORD
  5
98
330
1
100
AcDbSymbolTableRecord
100
AcDbBlockTableRecord
  2
FXTIP_DOWNARROW_E
  0
BLOCK_RECORD
  5
9D
330
1
100
AcDbSymbolTableRecord
100
AcDbBlockTableRecord
  2
FXTIP_BLACKTRIANGLE_S
  0
BLOCK_RECORD
  5
A2
330
1
100
AcDbSymbolTableRecord
100
AcDbBlockTableRecord
  2
FXTIP_BLACKTRIANGLE_E
  0
ENDTAB
  0
ENDSEC
  0
SECTION
  2
BLOCKS
  0
BLOCK
  5
20
330
1F
100
AcDbEntity
  8
0
100
AcDbBlockBegin
  2
*MODEL_SPACE
 70
     0
 71
     0
 10
0.0
 20
0.0
 30
0.0
  3
*MODEL_SPACE
  1

  0
ENDBLK
  5
21
330
1F
100
AcDbEntity
  8
0
100
AcDbBlockEnd
  0
BLOCK
  5
1C
330
1B
100
AcDbEntity
 67
     1
  8
0
100
AcDbBlockBegin
  2
*PAPER_SPACE
 70
     0
 71
     0
 10
0.0
 20
0.0
 30
0.0
  3
*PAPER_SPACE
  1

  0
ENDBLK
  5
1D
330
1B
100
AcDbEntity
 67
     1
  8
0
100
AcDbBlockEnd
  0
BLOCK
  5
42
330
41
100
AcDbEntity
  8
0
100
AcDbBlockBegin
  2
FXTIP_ARROW_S
 70
     0
 71
     0
 10
0.0
 20
0.0
 30
0.0
  3
FXTIP_ARROW_S
  1

  0
LINE
  5
44
330
41
100
AcDbEntity
  8
0
  6
CONTINUOUS
 62
     0
100
AcDbLine
 10
0.0
 20
0.0
 30
0.0
 11
-1.0
 21
0.0
 31
0.0
  0
LINE
  5
45
330
41
100
AcDbEntity
  8
0
  6
CONTINUOUS
 62
     0
100
AcDbLine
 10
0.0
 20
0.0
 30
0.0
 11
-0.965926
 21
-0.258819
 31
0.0
  0
LINE
  5
46
330
41
100
AcDbEntity
  8
0
  6
CONTINUOUS
 62
     0
100
AcDbLine
 10
0.0
 20
0.0
 30
0.0
 11
-0.965926
 21
0.258819
 31
0.0
  0
ENDBLK
  5
43
330
41
100
AcDbEntity
  8
0
100
AcDbBlockEnd
  0
BLOCK
  5
48
330
47
100
AcDbEntity
  8
0
100
AcDbBlockBegin
  2
FXTIP_ARROW_E
 70
     0
 71
     0
 10
0.0
 20
0.0
 30
0.0
  3
FXTIP_ARROW_E
  1

  0
LINE
  5
4A
330
47
100
AcDbEntity
  8
0
  6
CONTINUOUS
 62
     0
100
AcDbLine
 10
0.0
 20
0.0
 30
0.0
 11
-1.0
 21
0.0
 31
0.0
  0
LINE
  5
4B
330
47
100
AcDbEntity
  8
0
  6
CONTINUOUS
 62
     0
100
AcDbLine
 10
0.0
 20
0.0
 30
0.0
 11
-0.965926
 21
0.258819
 31
0.0
  0
LINE
  5
4C
330
47
100
AcDbEntity
  8
0
  6
CONTINUOUS
 62
     0
100
AcDbLine
 10
0.0
 20
0.0
 30
0.0
 11
-0.965926
 21
-0.258819
 31
0.0
  0
ENDBLK
  5
49
330
47
100
AcDbEntity
  8
0
100
AcDbBlockEnd
  0
BLOCK
  5
4E
330
4D
100
AcDbEntity
  8
0
100
AcDbBlockBegin
  2
FXTIP_BLACKDOT_S
 70
     0
 71
     0
 10
0.0
 20
0.0
 30
0.0
  3
FXTIP_BLACKDOT_S
  1

  0
LINE
  5
50
330
4D
100
AcDbEntity
  8
0
  6
CONTINUOUS
 62
     0
100
AcDbLine
 10
0.0
 20
0.0
 30
0.0
 11
-1.0
 21
0.0
 31
0.0
  0
LWPOLYLINE
  5
51
330
4D
100
AcDbEntity
  8
0
  6
CONTINUOUS
 62
     0
100
AcDbPolyline
 90
        2
 70
     1
 10
-0.25
 20
0.0
 40
0.5
 41
0.5
 42
1.0
 10
0.25
 20
0.0
 40
0.5
 41
0.5
 42
1.0
  0
CIRCLE
  5
52
330
4D
100
AcDbEntity
  8
0
  6
CONTINUOUS
 62
     0
100
AcDbCircle
 10
0.0
 20
0.0
 30
0.0
 40
0.5
  0
ENDBLK
  5
4F
330
4D
100
AcDbEntity
  8
0
100
AcDbBlockEnd
  0
BLOCK
  5
54
330
53
100
AcDbEntity
  8
0
100
AcDbBlockBegin
  2
FXTIP_BLACKDOT_E
 70
     0
 71
     0
 10
0.0
 20
0.0
 30
0.0
  3
FXTIP_BLACKDOT_E
  1

  0
LINE
  5
56
330
53
100
AcDbEntity
  8
0
  6
CONTINUOUS
 62
     0
100
AcDbLine
 10
0.0
 20
0.0
 30
0.0
 11
-1.0
 21
0.0
 31
0.0
  0
LWPOLYLINE
  5
57
330
53
100
AcDbEntity
  8
0
  6
CONTINUOUS
 62
     0
100
AcDbPolyline
 90
        2
 70
     1
 10
-0.25
 20
0.0
 40
0.5
 41
0.5
 42
1.0
 10
0.25
 20
0.0
 40
0.5
 41
0.5
 42
1.0
  0
CIRCLE
  5
58
330
53
100
AcDbEntity
  8
0
  6
CONTINUOUS
 62
     0
100
AcDbCircle
 10
0.0
 20
0.0
 30
0.0
 40
0.5
  0
ENDBLK
  5
55
330
53
100
AcDbEntity
  8
0
100
AcDbBlockEnd
  0
BLOCK
  5
5A
330
59
100
AcDbEntity
  8
0
100
AcDbBlockBegin
  2
FXTIP_TRIANGLE_S
 70
     0
 71
     0
 10
0.0
 20
0.0
 30
0.0
  3
FXTIP_TRIANGLE_S
  1

  0
LINE
  5
5C
330
59
100
AcDbEntity
  8
0
  6
CONTINUOUS
 62
     0
100
AcDbLine
 10
0.0
 20
0.0
 30
0.0
 11
-1.0
 21
0.0
 31
0.0
  0
LINE
  5
5D
330
59
100
AcDbEntity
  8
0
  6
CONTINUOUS
 62
     0
100
AcDbLine
 10
0.0
 20
0.0
 30
0.0
 11
-0.965926
 21
-0.258819
 31
0.0
  0
LINE
  5
5E
330
59
100
AcDbEntity
  8
0
  6
CONTINUOUS
 62
     0
100
AcDbLine
 10
0.0
 20
0.0
 30
0.0
 11
-0.965926
 21
0.258819
 31
0.0
  0
LINE
  5
5F
330
59
100
AcDbEntity
  8
0
  6
CONTINUOUS
 62
     0
100
AcDbLine
 10
-0.965926
 20
-0.258819
 30
0.0
 11
-0.965926
 21
0.258819
 31
0.0
  0
ENDBLK
  5
5B
330
59
100
AcDbEntity
  8
0
100
AcDbBlockEnd
  0
BLOCK
  5
61
330
60
100
AcDbEntity
  8
0
100
AcDbBlockBegin
  2
FXTIP_TRIANGLE_E
 70
     0
 71
     0
 10
0.0
 20
0.0
 30
0.0
  3
FXTIP_TRIANGLE_E
  1

  0
LINE
  5
63
330
60
100
AcDbEntity
  8
0
  6
CONTINUOUS
 62
     0
100
AcDbLine
 10
0.0
 20
0.0
 30
0.0
 11
-1.0
 21
0.0
 31
0.0
  0
LINE
  5
64
330
60
100
AcDbEntity
  8
0
  6
CONTINUOUS
 62
     0
100
AcDbLine
 10
0.0
 20
0.0
 30
0.0
 11
-0.965926
 21
0.258819
 31
0.0
  0
LINE
  5
65
330
60
100
AcDbEntity
  8
0
  6
CONTINUOUS
 62
     0
100
AcDbLine
 10
0.0
 20
0.0
 30
0.0
 11
-0.965926
 21
-0.258819
 31
0.0
  0
LINE
  5
66
330
60
100
AcDbEntity
  8
0
  6
CONTINUOUS
 62
     0
100
AcDbLine
 10
-0.965926
 20
0.258819
 30
0.0
 11
-0.965926
 21
-0.258819
 31
0.0
  0
ENDBLK
  5
62
330
60
100
AcDbEntity
  8
0
100
AcDbBlockEnd
  0
BLOCK
  5
68
330
67
100
AcDbEntity
  8
0
100
AcDbBlockBegin
  2
FXTIP_ARCHITECT_S
 70
     0
 71
     0
 10
0.0
 20
0.0
 30
0.0
  3
FXTIP_ARCHITECT_S
  1

  0
LINE
  5
6A
330
67
100
AcDbEntity
  8
0
  6
CONTINUOUS
 62
     0
100
AcDbLine
 10
0.0
 20
0.0
 30
0.0
 11
-1.0
 21
0.0
 31
0.0
  0
LINE
  5
6B
330
67
100
AcDbEntity
  8
0
  6
CONTINUOUS
 62
     0
100
AcDbLine
 10
0.0
 20
0.0
 30
0.0
 11
-0.707107
 21
-0.707107
 31
0.0
  0
LINE
  5
6C
330
67
100
AcDbEntity
  8
0
  6
CONTINUOUS
 62
     0
100
AcDbLine
 10
0.0
 20
0.0
 30
0.0
 11
0.707107
 21
0.707107
 31
0.0
  0
ENDBLK
  5
69
330
67
100
AcDbEntity
  8
0
100
AcDbBlockEnd
  0
BLOCK
  5
6E
330
6D
100
AcDbEntity
  8
0
100
AcDbBlockBegin
  2
FXTIP_ARCHITECT_E
 70
     0
 71
     0
 10
0.0
 20
0.0
 30
0.0
  3
FXTIP_ARCHITECT_E
  1

  0
LINE
  5
70
330
6D
100
AcDbEntity
  8
0
  6
CONTINUOUS
 62
     0
100
AcDbLine
 10
0.0
 20
0.0
 30
0.0
 11
-1.0
 21
0.0
 31
0.0
  0
LINE
  5
71
330
6D
100
AcDbEntity
  8
0
  6
CONTINUOUS
 62
     0
100
AcDbLine
 10
0.0
 20
0.0
 30
0.0
 11
0.707107
 21
0.707107
 31
0.0
  0
LINE
  5
72
330
6D
100
AcDbEntity
  8
0
  6
CONTINUOUS
 62
     0
100
AcDbLine
 10
0.0
 20
0.0
 30
0.0
 11
-0.707107
 21
-0.707107
 31
0.0
  0
ENDBLK
  5
6F
330
6D
100
AcDbEntity
  8
0
100
AcDbBlockEnd
  0
BLOCK
  5
74
330
73
100
AcDbEntity
  8
0
100
AcDbBlockBegin
  2
FXTIP_CIVIL_S
 70
     0
 71
     0
 10
0.0
 20
0.0
 30
0.0
  3
FXTIP_CIVIL_S
  1

  0
LINE
  5
76
330
73
100
AcDbEntity
  8
0
  6
CONTINUOUS
 62
     0
100
AcDbLine
 10
0.0
 20
0.0
 30
0.0
 11
-1.0
 21
0.0
 31
0.0
  0
LINE
  5
77
330
73
100
AcDbEntity
  8
0
  6
CONTINUOUS
 62
     0
100
AcDbLine
 10
0.0
 20
-0.0625
 30
0.0
 11
-1.0
 21
-0.0625
 31
0.0
  0
LINE
  5
78
330
73
100
AcDbEntity
  8
0
  6
CONTINUOUS
 62
     0
100
AcDbLine
 10
0.0
 20
-0.125
 30
0.0
 11
-1.0
 21
-0.125
 31
0.0
  0
ENDBLK
  5
75
330
73
100
AcDbEntity
  8
0
100
AcDbBlockEnd
  0
BLOCK
  5
7A
330
79
100
AcDbEntity
  8
0
100
AcDbBlockBegin
  2
FXTIP_CIVIL_E
 70
     0
 71
     0
 10
0.0
 20
0.0
 30
0.0
  3
FXTIP_CIVIL_E
  1

  0
LINE
  5
7C
330
79
100
AcDbEntity
  8
0
  6
CONTINUOUS
 62
     0
100
AcDbLine
 10
0.0
 20
0.0
 30
0.0
 11
-1.0
 21
0.0
 31
0.0
  0
LINE
  5
7D
330
79
100
AcDbEntity
  8
0
  6
CONTINUOUS
 62
     0
100
AcDbLine
 10
0.0
 20
0.0625
 30
0.0
 11
-1.0
 21
0.0625
 31
0.0
  0
LINE
  5
7E
330
79
100
AcDbEntity
  8
0
  6
CONTINUOUS
 62
     0
100
AcDbLine
 10
0.0
 20
0.125
 30
0.0
 11
-1.0
 21
0.125
 31
0.0
  0
ENDBLK
  5
7B
330
79
100
AcDbEntity
  8
0
100
AcDbBlockEnd
  0
BLOCK
  5
80
330
7F
100
AcDbEntity
  8
0
100
AcDbBlockBegin
  2
FXTIP_WHITEDOT_S
 70
     0
 71
     0
 10
0.0
 20
0.0
 30
0.0
  3
FXTIP_WHITEDOT_S
  1

  0
LINE
  5
82
330
7F
100
AcDbEntity
  8
0
  6
CONTINUOUS
 62
     0
100
AcDbLine
 10
0.0
 20
0.0
 30
0.0
 11
-1.0
 21
0.0
 31
0.0
  0
CIRCLE
  5
83
330
7F
100
AcDbEntity
  8
0
  6
CONTINUOUS
 62
     0
100
AcDbCircle
 10
0.0
 20
0.0
 30
0.0
 40
0.5
  0
ENDBLK
  5
81
330
7F
100
AcDbEntity
  8
0
100
AcDbBlockEnd
  0
BLOCK
  5
85
330
84
100
AcDbEntity
  8
0
100
AcDbBlockBegin
  2
FXTIP_WHITEDOT_E
 70
     0
 71
     0
 10
0.0
 20
0.0
 30
0.0
  3
FXTIP_WHITEDOT_E
  1

  0
LINE
  5
87
330
84
100
AcDbEntity
  8
0
  6
CONTINUOUS
 62
     0
100
AcDbLine
 10
0.0
 20
0.0
 30
0.0
 11
-1.0
 21
0.0
 31
0.0
  0
CIRCLE
  5
88
330
84
100
AcDbEntity
  8
0
  6
CONTINUOUS
 62
     0
100
AcDbCircle
 10
0.0
 20
0.0
 30
0.0
 40
0.5
  0
ENDBLK
  5
86
330
84
100
AcDbEntity
  8
0
100
AcDbBlockEnd
  0
BLOCK
  5
8A
330
89
100
AcDbEntity
  8
0
100
AcDbBlockBegin
  2
FXTIP_UPARROW_S
 70
     0
 71
     0
 10
0.0
 20
0.0
 30
0.0
  3
FXTIP_UPARROW_S
  1

  0
LINE
  5
8C
330
89
100
AcDbEntity
  8
0
  6
CONTINUOUS
 62
     0
100
AcDbLine
 10
0.0
 20
0.0
 30
0.0
 11
-1.0
 21
0.0
 31
0.0
  0
LINE
  5
8D
330
89
100
AcDbEntity
  8
0
  6
CONTINUOUS
 62
     0
100
AcDbLine
 10
0.0
 20
0.0
 30
0.0
 11
-0.965926
 21
-0.258819
 31
0.0
  0
ENDBLK
  5
8B
330
89
100
AcDbEntity
  8
0
100
AcDbBlockEnd
  0
BLOCK
  5
8F
330
8E
100
AcDbEntity
  8
0
100
AcDbBlockBegin
  2
FXTIP_UPARROW_E
 70
     0
 71
     0
 10
0.0
 20
0.0
 30
0.0
  3
FXTIP_UPARROW_E
  1

  0
LINE
  5
91
330
8E
100
AcDbEntity
  8
0
  6
CONTINUOUS
 62
     0
100
AcDbLine
 10
0.0
 20
0.0
 30
0.0
 11
-1.0
 21
0.0
 31
0.0
  0
LINE
  5
92
330
8E
100
AcDbEntity
  8
0
  6
CONTINUOUS
 62
     0
100
AcDbLine
 10
0.0
 20
0.0
 30
0.0
 11
-0.965926
 21
0.258819
 31
0.0
  0
ENDBLK
  5
90
330
8E
100
AcDbEntity
  8
0
100
AcDbBlockEnd
  0
BLOCK
  5
94
330
93
100
AcDbEntity
  8
0
100
AcDbBlockBegin
  2
FXTIP_DOWNARROW_S
 70
     0
 71
     0
 10
0.0
 20
0.0
 30
0.0
  3
FXTIP_DOWNARROW_S
  1

  0
LINE
  5
96
330
93
100
AcDbEntity
  8
0
  6
CONTINUOUS
 62
     0
100
AcDbLine
 10
0.0
 20
0.0
 30
0.0
 11
-1.0
 21
0.0
 31
0.0
  0
LINE
  5
97
330
93
100
AcDbEntity
  8
0
  6
CONTINUOUS
 62
     0
100
AcDbLine
 10
0.0
 20
0.0
 30
0.0
 11
-0.965926
 21
0.258819
 31
0.0
  0
ENDBLK
  5
95
330
93
100
AcDbEntity
  8
0
100
AcDbBlockEnd
  0
BLOCK
  5
99
330
98
100
AcDbEntity
  8
0
100
AcDbBlockBegin
  2
FXTIP_DOWNARROW_E
 70
     0
 71
     0
 10
0.0
 20
0.0
 30
0.0
  3
FXTIP_DOWNARROW_E
  1

  0
LINE
  5
9B
330
98
100
AcDbEntity
  8
0
  6
CONTINUOUS
 62
     0
100
AcDbLine
 10
0.0
 20
0.0
 30
0.0
 11
-1.0
 21
0.0
 31
0.0
  0
LINE
  5
9C
330
98
100
AcDbEntity
  8
0
  6
CONTINUOUS
 62
     0
100
AcDbLine
 10
0.0
 20
0.0
 30
0.0
 11
-0.965926
 21
-0.258819
 31
0.0
  0
ENDBLK
  5
9A
330
98
100
AcDbEntity
  8
0
100
AcDbBlockEnd
  0
BLOCK
  5
9E
330
9D
100
AcDbEntity
  8
0
100
AcDbBlockBegin
  2
FXTIP_BLACKTRIANGLE_S
 70
     0
 71
     0
 10
0.0
 20
0.0
 30
0.0
  3
FXTIP_BLACKTRIANGLE_S
  1

  0
LINE
  5
A0
330
9D
100
AcDbEntity
  8
0
  6
CONTINUOUS
 62
     0
100
AcDbLine
 10
0.0
 20
0.0
 30
0.0
 11
-1.0
 21
0.0
 31
0.0
  0
SOLID
  5
A1
330
9D
100
AcDbEntity
  8
0
  6
CONTINUOUS
 62
     0
100
AcDbTrace
 10
0.0
 20
0.0
 30
0.0
 11
-0.965926
 21
-0.258819
 31
0.0
 12
-0.965926
 22
0.258819
 32
0.0
 13
-0.965926
 23
0.258819
 33
0.0
  0
ENDBLK
  5
9F
330
9D
100
AcDbEntity
  8
0
100
AcDbBlockEnd
  0
BLOCK
  5
A3
330
A2
100
AcDbEntity
  8
0
100
AcDbBlockBegin
  2
FXTIP_BLACKTRIANGLE_E
 70
     0
 71
     0
 10
0.0
 20
0.0
 30
0.0
  3
FXTIP_BLACKTRIANGLE_E
  1

  0
LINE
  5
A5
330
A2
100
AcDbEntity
  8
0
  6
CONTINUOUS
 62
     0
100
AcDbLine
 10
0.0
 20
0.0
 30
0.0
 11
-1.0
 21
0.0
 31
0.0
  0
SOLID
  5
A6
330
A2
100
AcDbEntity
  8
0
  6
CONTINUOUS
 62
     0
100
AcDbTrace
 10
0.0
 20
0.0
 30
0.0
 11
-0.965926
 21
0.258819
 31
0.0
 12
-0.965926
 22
-0.258819
 32
0.0
 13
-0.965926
 23
-0.258819
 33
0.0
  0
ENDBLK
  5
A4
330
A2
100
AcDbEntity
  8
0
100
AcDbBlockEnd
  0
ENDSEC
  0
SECTION
  2
ENTITIES
  0
LINE
  5
A9
330
1F
100
AcDbEntity
  8
GR1-1
  6
CONTINUOUS
 62
     3
100
AcDbLine
 10
79.560372
 20
219.5
 30
0.0
 11
79.560372
 21
216.0
 31
0.0
  0
LINE
  5
AA
330
1F
100
AcDbEntity
  8
GR1-1
  6
CONTINUOUS
 62
     3
100
AcDbLine
 10
79.560372
 20
216.0
 30
0.0
 11
181.560372
 21
216.0
 31
0.0
  0
LINE
  5
AB
330
1F
100
AcDbEntity
  8
GR1-1
  6
CONTINUOUS
 62
     3
100
AcDbLine
 10
181.560372
 20
216.0
 30
0.0
 11
181.560372
 21
219.5
 31
0.0
  0
LINE
  5
AC
330
1F
100
AcDbEntity
  8
GR1-1
  6
CONTINUOUS
 62
     3
100
AcDbLine
 10
181.560372
 20
219.5
 30
0.0
 11
79.560372
 21
219.5
 31
0.0
  0
LINE
  5
AD
330
1F
100
AcDbEntity
  8
GR1-1
  6
CONTINUOUS
 62
     3
100
AcDbLine
 10
88.060372
 20
216.0
 30
0.0
 11
88.060372
 21
215.5
 31
0.0
  0
ARC
  5
AE
330
1F
100
AcDbEntity
  8
GR1-1
  6
CONTINUOUS
 62
     3
100
AcDbCircle
 10
91.64903
 20
218.170122
 30
0.0
 40
4.473032676673776
100
AcDbArc
 50
216.650892
 51
270.0
  0
LINE
  5
AF
330
1F
100
AcDbEntity
  8
GR1-1
  6
CONTINUOUS
 62
     3
100
AcDbLine
 10
91.64903
 20
213.697089
 30
0.0
 11
169.471713
 21
213.697089
 31
0.0
  0
ARC
  5
B0
330
1F
100
AcDbEntity
  8
GR1-1
  6
CONTINUOUS
 62
     3
100
AcDbCircle
 10
169.471713
 20
218.170122
 30
0.0
 40
4.473032676673776
100
AcDbArc
 50
270.0
 51
323.349108
  0
LINE
  5
B1
330
1F
100
AcDbEntity
  8
GR1-1
  6
CONTINUOUS
 62
     3
100
AcDbLine
 10
173.060372
 20
215.5
 30
0.0
 11
173.060372
 21
216.0
 31
0.0
  0
ARC
  5
B2
330
1F
100
AcDbEntity
  8
GR1-1
  6
CONTINUOUS
 62
     3
100
AcDbCircle
 10
164.060372
 20
212.0
 30
0.0
 40
4.0
100
AcDbArc
 50
0.0
 51
25.104612
  0
LINE
  5
B3
330
1F
100
AcDbEntity
  8
GR1-1
  6
CONTINUOUS
 62
     3
100
AcDbLine
 10
168.060372
 20
212.0
 30
0.0
 11
168.060372
 21
205.7
 31
0.0
  0
ARC
  5
B4
330
1F
100
AcDbEntity
  8
GR1-1
  6
CONTINUOUS
 62
     3
100
AcDbCircle
 10
172.560372
 20
205.7
 30
0.0
 40
4.5
100
AcDbArc
 50
180.0
 51
220.926063
  0
LINE
  5
B5
330
1F
100
AcDbEntity
  8
GR1-1
  6
CONTINUOUS
 62
     3
100
AcDbLine
 10
169.160372
 20
202.752119
 30
0.0
 11
168.160372
 21
202.4
 31
0.0
  0
LINE
  5
B6
330
1F
100
AcDbEntity
  8
GR1-1
  6
CONTINUOUS
 62
     3
100
AcDbLine
 10
168.160372
 20
202.4
 30
0.0
 11
92.960372
 21
202.4
 31
0.0
  0
LINE
  5
B7
330
1F
100
AcDbEntity
  8
GR1-1
  6
CONTINUOUS
 62
     3
100
AcDbLine
 10
92.960372
 20
202.4
 30
0.0
 11
91.960372
 21
202.752119
 31
0.0
  0
ARC
  5
B8
330
1F
100
AcDbEntity
  8
GR1-1
  6
CONTINUOUS
 62
     3
100
AcDbCircle
 10
88.560372
 20
205.7
 30
0.0
 40
4.5
100
AcDbArc
 50
319.073937
 51
360.0
  0
LINE
  5
B9
330
1F
100
AcDbEntity
  8
GR1-1
  6
CONTINUOUS
 62
     3
100
AcDbLine
 10
93.060372
 20
205.7
 30
0.0
 11
93.060372
 21
212.0
 31
0.0
  0
ARC
  5
BA
330
1F
100
AcDbEntity
  8
GR1-1
  6
CONTINUOUS
 62
     3
100
AcDbCircle
 10
97.060372
 20
212.0
 30
0.0
 40
4.0
100
AcDbArc
 50
154.895388
 51
180.0
  0
LINE
  5
BB
330
1F
100
AcDbEntity
  8
GR1-1
  6
CONTINUOUS
 62
     3
100
AcDbLine
 10
94.560372
 20
202.4
 30
0.0
 11
94.560372
 21
145.889557
 31
0.0
  0
ARC
  5
BC
330
1F
100
AcDbEntity
  8
GR1-1
  6
CONTINUOUS
 62
     3
100
AcDbCircle
 10
229.519004
 20
155.417867
 30
0.0
 40
135.2945721841073
100
AcDbArc
 50
184.038478
 51
192.549166
  0
LINE
  5
BD
330
1F
100
AcDbEntity
  8
GR1-1
  6
CONTINUOUS
 62
     3
100
AcDbLine
 10
103.060372
 20
106.1
 30
0.0
 11
103.060372
 21
121.9
 31
0.0
  0
LINE
  5
BE
330
1F
100
AcDbEntity
  8
GR1-1
  6
CONTINUOUS
 62
     3
100
AcDbLine
 10
158.060372
 20
121.9
 30
0.0
 11
158.060372
 21
106.1
 31
0.0
  0
LINE
  5
BF
330
1F
100
AcDbEntity
  8
GR1-1
  6
CONTINUOUS
 62
     3
100
AcDbLine
 10
158.060372
 20
98.95
 30
0.0
 11
160.760372
 21
98.95
 31
0.0
  0
LINE
  5
C0
330
1F
100
AcDbEntity
  8
GR1-1
  6
CONTINUOUS
 62
     3
100
AcDbLine
 10
156.760372
 20
196.45
 30
0.0
 11
104.360372
 21
196.45
 31
0.0
  0
ARC
  5
C1
330
1F
100
AcDbEntity
  8
GR1-1
  6
CONTINUOUS
 62
     3
100
AcDbCircle
 10
110.595617
 20
187.606624
 30
0.0
 40
3.0
100
AcDbArc
 50
110.128289
 51
166.097313
  0
ARC
  5
C2
330
1F
100
AcDbEntity
  8
GR1-1
  6
CONTINUOUS
 62
     3
100
AcDbCircle
 10
190.479257
 20
154.441829
 30
0.0
 40
89.46156784938876
100
AcDbArc
 50
157.742307
 51
168.350886
  0
ARC
  5
C3
330
1F
100
AcDbEntity
  8
GR1-1
  6
CONTINUOUS
 62
     3
100
AcDbCircle
 10
130.560372
 20
133.133721
 30
0.0
 40
61.01627906976702
100
AcDbArc
 50
94.640326
 51
110.128289
  0
CIRCLE
  5
C4
330
1F
100
AcDbEntity
  8
GR1-1
  6
CONTINUOUS
 62
     3
100
AcDbCircle
 10
130.560372
 20
207.5
 30
0.0
 40
2.1
  0
ARC
  5
C5
330
1F
100
AcDbEntity
  8
GR1-1
  6
CONTINUOUS
 62
     3
100
AcDbCircle
 10
130.560372
 20
133.133721
 30
0.0
 40
61.01627906976702
100
AcDbArc
 50
69.871711
 51
85.359674
  0
ARC
  5
C6
330
1F
100
AcDbEntity
  8
GR1-1
  6
CONTINUOUS
 62
     3
100
AcDbCircle
 10
150.525126
 20
187.606624
 30
0.0
 40
3.0
100
AcDbArc
 50
13.902687
 51
69.871711
  0
LINE
  5
C7
330
1F
100
AcDbEntity
  8
GR1-1
  6
CENTER
 62
     6
100
AcDbLine
 10
84.153261
 20
114.0
 30
0.0
 11
171.698017
 21
114.0
 31
0.0
  0
LINE
  5
C8
330
1F
100
AcDbEntity
  8
GR1-1
  6
CONTINUOUS
 62
     6
100
AcDbLine
 10
169.160372
 20
202.752119
 30
0.0
 11
91.960372
 21
202.752119
 31
0.0
  0
ARC
  5
C9
330
1F
100
AcDbEntity
  8
GR1-1
  6
CONTINUOUS
 62
     6
100
AcDbCircle
 10
130.560372
 20
579.075
 30
0.0
 40
378.625000000005
100
AcDbArc
 50
265.834869
 51
274.165131
  0
LINE
  5
CA
330
1F
100
AcDbEntity
  8
GR1-1
  6
CENTER
 62
     6
100
AcDbLine
 10
130.560372
 20
224.303406
 30
0.0
 11
130.560372
 21
49.625128
 31
0.0
  0
LINE
  5
CB
330
1F
100
AcDbEntity
  8
GR1-1
  6
CONTINUOUS
 62
     3
100
AcDbLine
 10
111.560372
 20
161.5
 30
0.0
 11
112.159956
 21
161.5
 31
0.0
  0
ARC
  5
CC
330
1F
100
AcDbEntity
  8
GR1-1
  6
CONTINUOUS
 62
     3
100
AcDbCircle
 10
112.159956
 20
163.5
 30
0.0
 40
2.0
100
AcDbArc
 50
270.0
 51
340.0
  0
LINE
  5
CD
330
1F
100
AcDbEntity
  8
GR1-1
  6
CONTINUOUS
 62
     3
100
AcDbLine
 10
114.039342
 20
162.81596
 30
0.0
 11
117.449016
 21
172.183962
 31
0.0
  0
ARC
  5
CE
330
1F
100
AcDbEntity
  8
GR1-1
  6
CONTINUOUS
 62
     3
100
AcDbCircle
 10
122.147479
 20
170.473861
 30
0.0
 40
5.0
100
AcDbArc
 50
103.908283
 51
160.0
  0
LINE
  5
CF
330
1F
100
AcDbEntity
  8
GR1-1
  6
CONTINUOUS
 62
     3
100
AcDbLine
 10
111.560372
 20
161.5
 30
0.0
 11
111.560372
 21
66.5
 31
0.0
  0
LINE
  5
D0
330
1F
100
AcDbEntity
  8
GR1-1
  6
CONTINUOUS
 62
     3
100
AcDbLine
 10
149.560372
 20
161.5
 30
0.0
 11
148.960787
 21
161.5
 31
0.0
  0
ARC
  5
D1
330
1F
100
AcDbEntity
  8
GR1-1
  6
CONTINUOUS
 62
     3
100
AcDbCircle
 10
148.960787
 20
163.5
 30
0.0
 40
2.0
100
AcDbArc
 50
200.0
 51
270.0
  0
LINE
  5
D2
330
1F
100
AcDbEntity
  8
GR1-1
  6
CONTINUOUS
 62
     3
100
AcDbLine
 10
147.081401
 20
162.81596
 30
0.0
 11
143.671727
 21
172.183962
 31
0.0
  0
ARC
  5
D3
330
1F
100
AcDbEntity
  8
GR1-1
  6
CONTINUOUS
 62
     3
100
AcDbCircle
 10
138.973264
 20
170.473861
 30
0.0
 40
5.0
100
AcDbArc
 50
20.0
 51
76.091717
  0
ARC
  5
D4
330
1F
100
AcDbEntity
  8
GR1-1
  6
CONTINUOUS
 62
     3
100
AcDbCircle
 10
130.560372
 20
136.5
 30
0.0
 40
40.0
100
AcDbArc
 50
76.091717
 51
103.908283
  0
LINE
  5
D5
330
1F
100
AcDbEntity
  8
GR1-1
  6
CONTINUOUS
 62
     6
100
AcDbLine
 10
119.019925
 20
53.625061
 30
0.0
 11
119.019925
 21
174.374939
 31
0.0
  0
LINE
  5
D6
330
1F
100
AcDbEntity
  8
GR1-1
  6
CONTINUOUS
 62
     6
100
AcDbLine
 10
112.159956
 20
66.5
 30
0.0
 11
112.159956
 21
161.5
 31
0.0
  0
TEXT
  5
D7
330
1F
100
AcDbEntity
  8
GR1-1
  6
CONTINUOUS
 62
     7
100
AcDbText
 10
329.711761
 20
11.905534
 30
0.0
 40
6.0
  1
ＳＵＳ－ＳＪ－１２５　ＲＢ
 41
0.787879
  7
FX_VECTOR
 72
     5
 11
381.711761
 21
11.905534
 31
0.0
100
AcDbText
  0
ARC
  5
D8
330
1F
100
AcDbEntity
  8
GR1-1
  6
CONTINUOUS
 62
     3
100
AcDbCircle
 10
105.560372
 20
102.0
 30
0.0
 40
2.0
100
AcDbArc
 50
180.0
 51
270.0
  0
LINE
  5
D9
330
1F
100
AcDbEntity
  8
GR1-1
  6
CONTINUOUS
 62
     3
100
AcDbLine
 10
105.560372
 20
100.0
 30
0.0
 11
106.060372
 21
100.0
 31
0.0
  0
LINE
  5
DA
330
1F
100
AcDbEntity
  8
GR1-1
  6
CONTINUOUS
 62
     3
100
AcDbLine
 10
103.560372
 20
102.0
 30
0.0
 11
103.560372
 21
126.0
 31
0.0
  0
LINE
  5
DB
330
1F
100
AcDbEntity
  8
GR1-1
  6
CONTINUOUS
 62
     3
100
AcDbLine
 10
105.560372
 20
128.0
 30
0.0
 11
106.060372
 21
128.0
 31
0.0
  0
ARC
  5
DC
330
1F
100
AcDbEntity
  8
GR1-1
  6
CONTINUOUS
 62
     3
100
AcDbCircle
 10
105.560372
 20
126.0
 30
0.0
 40
2.0
100
AcDbArc
 50
90.0
 51
180.0
  0
LINE
  5
DD
330
1F
100
AcDbEntity
  8
GR1-1
  6
CONTINUOUS
 62
     3
100
AcDbLine
 10
103.560372
 20
122.4
 30
0.0
 11
103.060372
 21
121.9
 31
0.0
  0
LINE
  5
DE
330
1F
100
AcDbEntity
  8
GR1-1
  6
CONTINUOUS
 62
     3
100
AcDbLine
 10
103.060372
 20
106.1
 30
0.0
 11
103.560372
 21
105.6
 31
0.0
  0
ARC
  5
DF
330
1F
100
AcDbEntity
  8
GR1-1
  6
CONTINUOUS
 62
     3
100
AcDbCircle
 10
107.560372
 20
96.65
 30
0.0
 40
1.5
100
AcDbArc
 50
180.0
 51
270.0
  0
LINE
  5
E0
330
1F
100
AcDbEntity
  8
GR1-1
  6
CONTINUOUS
 62
     3
100
AcDbLine
 10
107.560372
 20
95.15
 30
0.0
 11
111.560372
 21
95.15
 31
0.0
  0
LINE
  5
E1
330
1F
100
AcDbEntity
  8
GR1-1
  6
CONTINUOUS
 62
     3
100
AcDbLine
 10
106.060372
 20
96.65
 30
0.0
 11
106.060372
 21
131.35
 31
0.0
  0
LINE
  5
E2
330
1F
100
AcDbEntity
  8
GR1-1
  6
CONTINUOUS
 62
     3
100
AcDbLine
 10
107.560372
 20
132.85
 30
0.0
 11
111.560372
 21
132.85
 31
0.0
  0
ARC
  5
E3
330
1F
100
AcDbEntity
  8
GR1-1
  6
CONTINUOUS
 62
     3
100
AcDbCircle
 10
107.560372
 20
131.35
 30
0.0
 40
1.5
100
AcDbArc
 50
90.0
 51
180.0
  0
LINE
  5
E4
330
1F
100
AcDbEntity
  8
GR1-1
  6
CONTINUOUS
 62
     3
100
AcDbLine
 10
97.360372
 20
126.0
 30
0.0
 11
99.860372
 21
126.0
 31
0.0
  0
ARC
  5
E5
330
1F
100
AcDbEntity
  8
GR1-1
  6
CONTINUOUS
 62
     3
100
AcDbCircle
 10
99.860372
 20
125.5
 30
0.0
 40
0.5
100
AcDbArc
 50
0.0
 51
90.0
  0
ARC
  5
E6
330
1F
100
AcDbEntity
  8
GR1-1
  6
CONTINUOUS
 62
     3
100
AcDbCircle
 10
97.360372
 20
125.5
 30
0.0
 40
0.5
100
AcDbArc
 50
90.0
 51
180.0
  0
LINE
  5
E7
330
1F
100
AcDbEntity
  8
GR1-1
  6
CONTINUOUS
 62
     3
100
AcDbLine
 10
96.860372
 20
125.5
 30
0.0
 11
96.860372
 21
102.5
 31
0.0
  0
ARC
  5
E8
330
1F
100
AcDbEntity
  8
GR1-1
  6
CONTINUOUS
 62
     3
100
AcDbCircle
 10
97.360372
 20
102.5
 30
0.0
 40
0.5
100
AcDbArc
 50
180.0
 51
270.0
  0
LINE
  5
E9
330
1F
100
AcDbEntity
  8
GR1-1
  6
CONTINUOUS
 62
     3
100
AcDbLine
 10
97.360372
 20
102.0
 30
0.0
 11
99.860372
 21
102.0
 31
0.0
  0
ARC
  5
EA
330
1F
100
AcDbEntity
  8
GR1-1
  6
CONTINUOUS
 62
     3
100
AcDbCircle
 10
99.860372
 20
102.5
 30
0.0
 40
0.5
100
AcDbArc
 50
270.0
 51
360.0
  0
LINE
  5
EB
330
1F
100
AcDbEntity
  8
GR1-1
  6
CONTINUOUS
 62
     3
100
AcDbLine
 10
89.860372
 20
108.0
 30
0.0
 11
87.760372
 21
108.0
 31
0.0
  0
LINE
  5
EC
330
1F
100
AcDbEntity
  8
GR1-1
  6
CONTINUOUS
 62
     3
100
AcDbLine
 10
87.760372
 20
108.0
 30
0.0
 11
86.760372
 21
108.947
 31
0.0
  0
LINE
  5
ED
330
1F
100
AcDbEntity
  8
GR1-1
  6
CONTINUOUS
 62
     3
100
AcDbLine
 10
86.760372
 20
108.947
 30
0.0
 11
86.760372
 21
119.053
 31
0.0
  0
LINE
  5
EE
330
1F
100
AcDbEntity
  8
GR1-1
  6
CONTINUOUS
 62
     3
100
AcDbLine
 10
86.760372
 20
119.053
 30
0.0
 11
87.760372
 21
120.0
 31
0.0
  0
LINE
  5
EF
330
1F
100
AcDbEntity
  8
GR1-1
  6
CONTINUOUS
 62
     3
100
AcDbLine
 10
87.760372
 20
120.0
 30
0.0
 11
89.860372
 21
120.0
 31
0.0
  0
LINE
  5
F0
330
1F
100
AcDbEntity
  8
GR1-1
  6
CONTINUOUS
 62
     6
100
AcDbLine
 10
86.760372
 20
108.947
 30
0.0
 11
89.860372
 21
108.947
 31
0.0
  0
LINE
  5
F1
330
1F
100
AcDbEntity
  8
GR1-1
  6
CONTINUOUS
 62
     6
100
AcDbLine
 10
87.760372
 20
108.0
 30
0.0
 11
87.760372
 21
120.0
 31
0.0
  0
LINE
  5
F2
330
1F
100
AcDbEntity
  8
GR1-1
  6
CONTINUOUS
 62
     6
100
AcDbLine
 10
89.860372
 20
119.053
 30
0.0
 11
86.760372
 21
119.053
 31
0.0
  0
LINE
  5
F3
330
1F
100
AcDbEntity
  8
GR1-1
  6
CONTINUOUS
 62
     3
100
AcDbLine
 10
149.560372
 20
161.5
 30
0.0
 11
149.560372
 21
66.5
 31
0.0
  0
LINE
  5
F4
330
1F
100
AcDbEntity
  8
GR1-1
  6
CONTINUOUS
 62
     6
100
AcDbLine
 10
142.100818
 20
53.625061
 30
0.0
 11
142.100818
 21
174.374939
 31
0.0
  0
LINE
  5
F5
330
1F
100
AcDbEntity
  8
GR1-1
  6
CONTINUOUS
 62
     6
100
AcDbLine
 10
148.960787
 20
66.5
 30
0.0
 11
148.960787
 21
161.5
 31
0.0
  0
ARC
  5
F6
330
1F
100
AcDbEntity
  8
GR1-1
  6
CONTINUOUS
 62
     3
100
AcDbCircle
 10
155.560372
 20
102.0
 30
0.0
 40
2.0
100
AcDbArc
 50
270.0
 51
360.0
  0
LINE
  5
F7
330
1F
100
AcDbEntity
  8
GR1-1
  6
CONTINUOUS
 62
     3
100
AcDbLine
 10
155.560372
 20
100.0
 30
0.0
 11
155.060372
 21
100.0
 31
0.0
  0
LINE
  5
F8
330
1F
100
AcDbEntity
  8
GR1-1
  6
CONTINUOUS
 62
     3
100
AcDbLine
 10
157.560372
 20
102.0
 30
0.0
 11
157.560372
 21
126.0
 31
0.0
  0
LINE
  5
F9
330
1F
100
AcDbEntity
  8
GR1-1
  6
CONTINUOUS
 62
     3
100
AcDbLine
 10
155.560372
 20
128.0
 30
0.0
 11
155.060372
 21
128.0
 31
0.0
  0
ARC
  5
FA
330
1F
100
AcDbEntity
  8
GR1-1
  6
CONTINUOUS
 62
     3
100
AcDbCircle
 10
155.560372
 20
126.0
 30
0.0
 40
2.0
100
AcDbArc
 50
0.0
 51
90.0
  0
LINE
  5
FB
330
1F
100
AcDbEntity
  8
GR1-1
  6
CONTINUOUS
 62
     3
100
AcDbLine
 10
157.560372
 20
122.4
 30
0.0
 11
158.060372
 21
121.9
 31
0.0
  0
LINE
  5
FC
330
1F
100
AcDbEntity
  8
GR1-1
  6
CONTINUOUS
 62
     3
100
AcDbLine
 10
158.060372
 20
106.1
 30
0.0
 11
157.560372
 21
105.6
 31
0.0
  0
ARC
  5
FD
330
1F
100
AcDbEntity
  8
GR1-1
  6
CONTINUOUS
 62
     3
100
AcDbCircle
 10
153.560372
 20
96.65
 30
0.0
 40
1.5
100
AcDbArc
 50
270.0
 51
360.0
  0
LINE
  5
FE
330
1F
100
AcDbEntity
  8
GR1-1
  6
CONTINUOUS
 62
     3
100
AcDbLine
 10
153.560372
 20
95.15
 30
0.0
 11
149.560372
 21
95.15
 31
0.0
  0
LINE
  5
FF
330
1F
100
AcDbEntity
  8
GR1-1
  6
CONTINUOUS
 62
     3
100
AcDbLine
 10
155.060372
 20
96.65
 30
0.0
 11
155.060372
 21
131.35
 31
0.0
  0
LINE
  5
100
330
1F
100
AcDbEntity
  8
GR1-1
  6
CONTINUOUS
 62
     3
100
AcDbLine
 10
153.560372
 20
132.85
 30
0.0
 11
149.560372
 21
132.85
 31
0.0
  0
ARC
  5
101
330
1F
100
AcDbEntity
  8
GR1-1
  6
CONTINUOUS
 62
     3
100
AcDbCircle
 10
153.560372
 20
131.35
 30
0.0
 40
1.5
100
AcDbArc
 50
0.0
 51
90.0
  0
LINE
  5
102
330
1F
100
AcDbEntity
  8
GR1-1
  6
CONTINUOUS
 62
     3
100
AcDbLine
 10
111.560372
 20
66.5
 30
0.0
 11
112.159956
 21
66.5
 31
0.0
  0
ARC
  5
103
330
1F
100
AcDbEntity
  8
GR1-1
  6
CONTINUOUS
 62
     3
100
AcDbCircle
 10
112.159956
 20
64.5
 30
0.0
 40
2.0
100
AcDbArc
 50
20.0
 51
90.0
  0
LINE
  5
104
330
1F
100
AcDbEntity
  8
GR1-1
  6
CONTINUOUS
 62
     3
100
AcDbLine
 10
114.039342
 20
65.18404
 30
0.0
 11
117.449016
 21
55.816038
 31
0.0
  0
ARC
  5
105
330
1F
100
AcDbEntity
  8
GR1-1
  6
CONTINUOUS
 62
     3
100
AcDbCircle
 10
122.147479
 20
57.526139
 30
0.0
 40
5.0
100
AcDbArc
 50
200.0
 51
256.091717
  0
LINE
  5
106
330
1F
100
AcDbEntity
  8
GR1-1
  6
CONTINUOUS
 62
     3
100
AcDbLine
 10
149.560372
 20
66.5
 30
0.0
 11
148.960787
 21
66.5
 31
0.0
  0
ARC
  5
107
330
1F
100
AcDbEntity
  8
GR1-1
  6
CONTINUOUS
 62
     3
100
AcDbCircle
 10
148.960787
 20
64.5
 30
0.0
 40
2.0
100
AcDbArc
 50
90.0
 51
160.0
  0
LINE
  5
108
330
1F
100
AcDbEntity
  8
GR1-1
  6
CONTINUOUS
 62
     3
100
AcDbLine
 10
147.081401
 20
65.18404
 30
0.0
 11
143.671727
 21
55.816038
 31
0.0
  0
ARC
  5
109
330
1F
100
AcDbEntity
  8
GR1-1
  6
CONTINUOUS
 62
     3
100
AcDbCircle
 10
138.973264
 20
57.526139
 30
0.0
 40
5.0
100
AcDbArc
 50
283.908283
 51
340.0
  0
ARC
  5
10A
330
1F
100
AcDbEntity
  8
GR1-1
  6
CONTINUOUS
 62
     3
100
AcDbCircle
 10
130.560372
 20
91.5
 30
0.0
 40
40.0
100
AcDbArc
 50
256.091717
 51
283.908283
  0
LINE
  5
10B
330
1F
100
AcDbEntity
  8
GR1-1
  6
CONTINUOUS
 62
     3
100
AcDbLine
 10
386.560372
 20
219.5
 30
0.0
 11
386.560372
 21
216.0
 31
0.0
  0
LINE
  5
10C
330
1F
100
AcDbEntity
  8
GR1-1
  6
CONTINUOUS
 62
     3
100
AcDbLine
 10
335.560372
 20
213.697089
 30
0.0
 11
374.471713
 21
213.697089
 31
0.0
  0
ARC
  5
10D
330
1F
100
AcDbEntity
  8
GR1-1
  6
CONTINUOUS
 62
     3
100
AcDbCircle
 10
374.471713
 20
218.170122
 30
0.0
 40
4.473032676673776
100
AcDbArc
 50
270.0
 51
323.349108
  0
LINE
  5
10E
330
1F
100
AcDbEntity
  8
GR1-1
  6
CONTINUOUS
 62
     3
100
AcDbLine
 10
378.060372
 20
215.5
 30
0.0
 11
378.060372
 21
216.0
 31
0.0
  0
ARC
  5
10F
330
1F
100
AcDbEntity
  8
GR1-1
  6
CONTINUOUS
 62
     3
100
AcDbCircle
 10
369.060372
 20
212.0
 30
0.0
 40
4.0
100
AcDbArc
 50
0.0
 51
25.104612
  0
LINE
  5
110
330
1F
100
AcDbEntity
  8
GR1-1
  6
CONTINUOUS
 62
     3
100
AcDbLine
 10
373.060372
 20
212.0
 30
0.0
 11
373.060372
 21
205.7
 31
0.0
  0
ARC
  5
111
330
1F
100
AcDbEntity
  8
GR1-1
  6
CONTINUOUS
 62
     3
100
AcDbCircle
 10
377.560372
 20
205.7
 30
0.0
 40
4.5
100
AcDbArc
 50
180.0
 51
220.926063
  0
LINE
  5
112
330
1F
100
AcDbEntity
  8
GR1-1
  6
CONTINUOUS
 62
     3
100
AcDbLine
 10
374.160372
 20
202.752119
 30
0.0
 11
373.160372
 21
202.4
 31
0.0
  0
LINE
  5
113
330
1F
100
AcDbEntity
  8
GR1-1
  6
CONTINUOUS
 62
     3
100
AcDbLine
 10
373.160372
 20
202.4
 30
0.0
 11
335.560372
 21
202.4
 31
0.0
  0
ARC
  5
114
330
1F
100
AcDbEntity
  8
GR1-1
  6
CONTINUOUS
 62
     3
100
AcDbCircle
 10
297.560372
 20
114.0
 30
0.0
 40
62.5
100
AcDbArc
 50
-260.312573
 51
44.616638
  0
LINE
  5
115
330
1F
100
AcDbEntity
  8
GR1-1
  6
CONTINUOUS
 62
     3
100
AcDbLine
 10
356.04695
 20
183.15
 30
0.0
 11
314.236721
 21
107.722349
 31
0.0
  0
CIRCLE
  5
116
330
1F
100
AcDbEntity
  8
GR1-1
  6
CONTINUOUS
 62
     3
100
AcDbCircle
 10
297.560372
 20
114.0
 30
0.0
 40
10.5
  0
ARC
  5
117
330
1F
100
AcDbEntity
  8
GR1-1
  6
CONTINUOUS
 62
     3
100
AcDbCircle
 10
299.360372
 20
115.95
 30
0.0
 40
17.0
100
AcDbArc
 50
175.460699
 51
330.945631
  0
ARC
  5
118
330
1F
100
AcDbEntity
  8
GR1-1
  6
CONTINUOUS
 62
     3
100
AcDbCircle
 10
382.241292
 20
165.969274
 30
0.0
 40
31.32604184452368
100
AcDbArc
 50
115.895221
 51
146.73935
  0
LINE
  5
119
330
1F
100
AcDbEntity
  8
GR1-1
  6
CONTINUOUS
 62
     3
100
AcDbLine
 10
368.560372
 20
194.15
 30
0.0
 11
371.560372
 21
194.15
 31
0.0
  0
LINE
  5
11A
330
1F
100
AcDbEntity
  8
GR1-1
  6
CONTINUOUS
 62
     3
100
AcDbLine
 10
371.560372
 20
194.15
 30
0.0
 11
371.560372
 21
202.4
 31
0.0
  0
CIRCLE
  5
11B
330
1F
100
AcDbEntity
  8
GR1-1
  6
CONTINUOUS
 62
     3
100
AcDbCircle
 10
354.310372
 20
207.5
 30
0.0
 40
2.1
  0
LINE
  5
11C
330
1F
100
AcDbEntity
  8
GR1-1
  6
CONTINUOUS
 62
     3
100
AcDbLine
 10
376.561441
 20
279.0
 30
0.0
 11
294.561441
 21
279.0
 31
0.0
  0
LINE
  5
11D
330
1F
100
AcDbEntity
  8
GR1-1
  6
CONTINUOUS
 62
     3
100
AcDbLine
 10
299.584205
 20
285.969491
 30
0.0
 11
302.084205
 21
288.469491
 31
0.0
  0
ARC
  5
11E
330
1F
100
AcDbEntity
  8
GR1-1
  6
CONTINUOUS
 62
     3
100
AcDbCircle
 10
298.053696
 20
292.5
 30
0.0
 40
5.7
100
AcDbArc
 50
-45.0
 51
135.0
  0
LINE
  5
11F
330
1F
100
AcDbEntity
  8
GR1-1
  6
CONTINUOUS
 62
     3
100
AcDbLine
 10
294.023187
 20
296.530509
 30
0.0
 11
291.523187
 21
294.030509
 31
0.0
  0
ARC
  5
120
330
1F
100
AcDbEntity
  8
GR1-1
  6
CONTINUOUS
 62
     3
100
AcDbCircle
 10
295.553696
 20
290.0
 30
0.0
 40
5.7
100
AcDbArc
 50
135.0
 51
315.0
  0
LINE
  5
121
330
1F
100
AcDbEntity
  8
GR1-1
  6
CONTINUOUS
 62
     3
100
AcDbLine
 10
299.59195
 20
285.969491
 30
0.0
 11
302.09195
 21
288.469491
 31
0.0
  0
ARC
  5
122
330
1F
100
AcDbEntity
  8
GR1-1
  6
CONTINUOUS
 62
     3
100
AcDbCircle
 10
298.061441
 20
292.5
 30
0.0
 40
5.7
100
AcDbArc
 50
-45.0
 51
135.0
  0
LINE
  5
123
330
1F
100
AcDbEntity
  8
GR1-1
  6
CONTINUOUS
 62
     3
100
AcDbLine
 10
294.030932
 20
296.530509
 30
0.0
 11
291.530932
 21
294.030509
 31
0.0
  0
ARC
  5
124
330
1F
100
AcDbEntity
  8
GR1-1
  6
CONTINUOUS
 62
     3
100
AcDbCircle
 10
295.561441
 20
290.0
 30
0.0
 40
5.7
100
AcDbArc
 50
135.0
 51
315.0
  0
ARC
  5
125
330
1F
100
AcDbEntity
  8
GR1-1
  6
CONTINUOUS
 62
     3
100
AcDbCircle
 10
294.561441
 20
289.0
 30
0.0
 40
10.0
100
AcDbArc
 50
180.0
 51
270.0
  0
LINE
  5
126
330
1F
100
AcDbEntity
  8
GR1-1
  6
CONTINUOUS
 62
     3
100
AcDbLine
 10
284.561441
 20
289.0
 30
0.0
 11
284.561441
 21
371.0
 31
0.0
  0
LINE
  5
127
330
1F
100
AcDbEntity
  8
GR1-1
  6
CONTINUOUS
 62
     3
100
AcDbLine
 10
291.523187
 20
365.969491
 30
0.0
 11
294.023187
 21
363.469491
 31
0.0
  0
ARC
  5
128
330
1F
100
AcDbEntity
  8
GR1-1
  6
CONTINUOUS
 62
     3
100
AcDbCircle
 10
298.053696
 20
367.5
 30
0.0
 40
5.7
100
AcDbArc
 50
-135.0
 51
45.0
  0
LINE
  5
129
330
1F
100
AcDbEntity
  8
GR1-1
  6
CONTINUOUS
 62
     3
100
AcDbLine
 10
302.084205
 20
371.530509
 30
0.0
 11
299.584205
 21
374.030509
 31
0.0
  0
ARC
  5
12A
330
1F
100
AcDbEntity
  8
GR1-1
  6
CONTINUOUS
 62
     3
100
AcDbCircle
 10
295.553696
 20
370.0
 30
0.0
 40
5.7
100
AcDbArc
 50
45.0
 51
225.0
  0
LINE
  5
12B
330
1F
100
AcDbEntity
  8
GR1-1
  6
CONTINUOUS
 62
     3
100
AcDbLine
 10
291.530932
 20
365.969491
 30
0.0
 11
294.030932
 21
363.469491
 31
0.0
  0
ARC
  5
12C
330
1F
100
AcDbEntity
  8
GR1-1
  6
CONTINUOUS
 62
     3
100
AcDbCircle
 10
298.061441
 20
367.5
 30
0.0
 40
5.7
100
AcDbArc
 50
-135.0
 51
45.0
  0
LINE
  5
12D
330
1F
100
AcDbEntity
  8
GR1-1
  6
CONTINUOUS
 62
     3
100
AcDbLine
 10
302.09195
 20
371.530509
 30
0.0
 11
299.59195
 21
374.030509
 31
0.0
  0
ARC
  5
12E
330
1F
100
AcDbEntity
  8
GR1-1
  6
CONTINUOUS
 62
     3
100
AcDbCircle
 10
295.561441
 20
370.0
 30
0.0
 40
5.7
100
AcDbArc
 50
45.0
 51
225.0
  0
ARC
  5
12F
330
1F
100
AcDbEntity
  8
GR1-1
  6
CONTINUOUS
 62
     3
100
AcDbCircle
 10
294.553696
 20
289.0
 30
0.0
 40
10.0
100
AcDbArc
 50
180.0
 51
270.0
  0
LINE
  5
130
330
1F
100
AcDbEntity
  8
GR1-1
  6
CONTINUOUS
 62
     3
100
AcDbLine
 10
294.561441
 20
381.0
 30
0.0
 11
376.561441
 21
381.0
 31
0.0
  0
LINE
  5
131
330
1F
100
AcDbEntity
  8
GR1-1
  6
CONTINUOUS
 62
     3
100
AcDbLine
 10
371.530932
 20
374.030509
 30
0.0
 11
369.030932
 21
371.530509
 31
0.0
  0
ARC
  5
132
330
1F
100
AcDbEntity
  8
GR1-1
  6
CONTINUOUS
 62
     3
100
AcDbCircle
 10
373.061441
 20
367.5
 30
0.0
 40
5.7
100
AcDbArc
 50
135.0
 51
315.0
  0
LINE
  5
133
330
1F
100
AcDbEntity
  8
GR1-1
  6
CONTINUOUS
 62
     3
100
AcDbLine
 10
377.09195
 20
363.469491
 30
0.0
 11
379.59195
 21
365.969491
 31
0.0
  0
ARC
  5
134
330
1F
100
AcDbEntity
  8
GR1-1
  6
CONTINUOUS
 62
     3
100
AcDbCircle
 10
375.561441
 20
370.0
 30
0.0
 40
5.7
100
AcDbArc
 50
-45.0
 51
135.0
  0
LINE
  5
135
330
1F
100
AcDbEntity
  8
GR1-1
  6
CONTINUOUS
 62
     3
100
AcDbLine
 10
371.523187
 20
374.030509
 30
0.0
 11
369.023187
 21
371.530509
 31
0.0
  0
ARC
  5
136
330
1F
100
AcDbEntity
  8
GR1-1
  6
CONTINUOUS
 62
     3
100
AcDbCircle
 10
373.053696
 20
367.5
 30
0.0
 40
5.7
100
AcDbArc
 50
135.0
 51
315.0
  0
LINE
  5
137
330
1F
100
AcDbEntity
  8
GR1-1
  6
CONTINUOUS
 62
     3
100
AcDbLine
 10
377.084205
 20
363.469491
 30
0.0
 11
379.584205
 21
365.969491
 31
0.0
  0
ARC
  5
138
330
1F
100
AcDbEntity
  8
GR1-1
  6
CONTINUOUS
 62
     3
100
AcDbCircle
 10
375.553696
 20
370.0
 30
0.0
 40
5.7
100
AcDbArc
 50
-45.0
 51
135.0
  0
LINE
  5
139
330
1F
100
AcDbEntity
  8
GR1-1
  6
CONTINUOUS
 62
     3
100
AcDbLine
 10
386.561441
 20
371.0
 30
0.0
 11
386.561441
 21
289.0
 31
0.0
  0
LINE
  5
13A
330
1F
100
AcDbEntity
  8
GR1-1
  6
CONTINUOUS
 62
     3
100
AcDbLine
 10
379.59195
 20
294.030509
 30
0.0
 11
377.09195
 21
296.530509
 31
0.0
  0
ARC
  5
13B
330
1F
100
AcDbEntity
  8
GR1-1
  6
CONTINUOUS
 62
     3
100
AcDbCircle
 10
373.061441
 20
292.5
 30
0.0
 40
5.7
100
AcDbArc
 50
45.0
 51
225.0
  0
LINE
  5
13C
330
1F
100
AcDbEntity
  8
GR1-1
  6
CONTINUOUS
 62
     3
100
AcDbLine
 10
369.030932
 20
288.469491
 30
0.0
 11
371.530932
 21
285.969491
 31
0.0
  0
ARC
  5
13D
330
1F
100
AcDbEntity
  8
GR1-1
  6
CONTINUOUS
 62
     3
100
AcDbCircle
 10
375.561441
 20
290.0
 30
0.0
 40
5.7
100
AcDbArc
 50
-135.0
 51
45.0
  0
LINE
  5
13E
330
1F
100
AcDbEntity
  8
GR1-1
  6
CONTINUOUS
 62
     3
100
AcDbLine
 10
379.584205
 20
294.030509
 30
0.0
 11
377.084205
 21
296.530509
 31
0.0
  0
ARC
  5
13F
330
1F
100
AcDbEntity
  8
GR1-1
  6
CONTINUOUS
 62
     3
100
AcDbCircle
 10
373.053696
 20
292.5
 30
0.0
 40
5.7
100
AcDbArc
 50
45.0
 51
225.0
  0
LINE
  5
140
330
1F
100
AcDbEntity
  8
GR1-1
  6
CONTINUOUS
 62
     3
100
AcDbLine
 10
369.023187
 20
288.469491
 30
0.0
 11
371.523187
 21
285.969491
 31
0.0
  0
ARC
  5
141
330
1F
100
AcDbEntity
  8
GR1-1
  6
CONTINUOUS
 62
     3
100
AcDbCircle
 10
375.553696
 20
290.0
 30
0.0
 40
5.7
100
AcDbArc
 50
-135.0
 51
45.0
  0
ARC
  5
142
330
1F
100
AcDbEntity
  8
GR1-1
  6
CONTINUOUS
 62
     3
100
AcDbCircle
 10
376.561441
 20
289.0
 30
0.0
 40
10.0
100
AcDbArc
 50
270.0
 51
360.0
  0
CIRCLE
  5
143
330
1F
100
AcDbEntity
  8
GR1-1
  6
CONTINUOUS
 62
     3
100
AcDbCircle
 10
335.561441
 20
330.0
 30
0.0
 40
13.0
  0
ARC
  5
144
330
1F
100
AcDbEntity
  8
GR1-1
  6
CONTINUOUS
 62
     3
100
AcDbCircle
 10
376.561441
 20
371.0
 30
0.0
 40
10.0
100
AcDbArc
 50
0.0
 51
90.0
  0
ARC
  5
145
330
1F
100
AcDbEntity
  8
GR1-1
  6
CONTINUOUS
 62
     3
100
AcDbCircle
 10
294.561441
 20
371.0
 30
0.0
 40
10.0
100
AcDbArc
 50
90.0
 51
180.0
  0
LINE
  5
146
330
1F
100
AcDbEntity
  8
GR1-1
  6
CENTER
 62
     6
100
AcDbLine
 10
229.106126
 20
114.0
 30
0.0
 11
367.438133
 21
114.0
 31
0.0
  0
LINE
  5
147
330
1F
100
AcDbEntity
  8
GR1-1
  6
CENTER
 62
     6
100
AcDbLine
 10
335.560372
 20
129.11712
 30
0.0
 11
335.560372
 21
224.01154
 31
0.0
  0
LINE
  5
148
330
1F
100
AcDbEntity
  8
GR1-1
  6
CONTINUOUS
 62
     6
100
AcDbLine
 10
335.560372
 20
202.752119
 30
0.0
 11
374.160372
 21
202.752119
 31
0.0
  0
CIRCLE
  5
149
330
1F
100
AcDbEntity
  8
GR1-1
  6
CONTINUOUS
 62
     6
100
AcDbCircle
 10
297.560372
 20
114.0
 30
0.0
 40
8.5
  0
CIRCLE
  5
14A
330
1F
100
AcDbEntity
  8
GR1-1
  6
CONTINUOUS
 62
     6
100
AcDbCircle
 10
297.560372
 20
114.0
 30
0.0
 40
3.0
  0
LINE
  5
14B
330
1F
100
AcDbEntity
  8
GR1-1
  6
CENTER
 62
     6
100
AcDbLine
 10
297.560372
 20
48.680285
 30
0.0
 11
297.560372
 21
134.96569
 31
0.0
  0
LINE
  5
14C
330
1F
100
AcDbEntity
  8
GR1-1
  6
CONTINUOUS
 62
     6
100
AcDbLine
 10
307.057761
 20
367.5
 30
0.0
 11
302.057761
 21
367.5
 31
0.0
  0
LINE
  5
14D
330
1F
100
AcDbEntity
  8
GR1-1
  6
CONTINUOUS
 62
     6
100
AcDbLine
 10
300.553696
 20
367.5
 30
0.0
 11
295.553696
 21
367.5
 31
0.0
  0
LINE
  5
14E
330
1F
100
AcDbEntity
  8
GR1-1
  6
CONTINUOUS
 62
     6
100
AcDbLine
 10
295.553696
 20
367.5
 30
0.0
 11
295.553696
 21
372.5
 31
0.0
  0
LINE
  5
14F
330
1F
100
AcDbEntity
  8
GR1-1
  6
CONTINUOUS
 62
     6
100
AcDbLine
 10
295.553696
 20
374.004065
 30
0.0
 11
295.553696
 21
379.004065
 31
0.0
  0
LINE
  5
150
330
1F
100
AcDbEntity
  8
GR1-1
  6
CONTINUOUS
 62
     6
100
AcDbLine
 10
298.053696
 20
376.504065
 30
0.0
 11
298.053696
 21
371.504065
 31
0.0
  0
LINE
  5
151
330
1F
100
AcDbEntity
  8
GR1-1
  6
CONTINUOUS
 62
     6
100
AcDbLine
 10
298.053696
 20
370.0
 30
0.0
 11
298.053696
 21
365.0
 31
0.0
  0
LINE
  5
152
330
1F
100
AcDbEntity
  8
GR1-1
  6
CONTINUOUS
 62
     6
100
AcDbLine
 10
298.053696
 20
363.495935
 30
0.0
 11
298.053696
 21
358.495935
 31
0.0
  0
LINE
  5
153
330
1F
100
AcDbEntity
  8
GR1-1
  6
CONTINUOUS
 62
     6
100
AcDbLine
 10
295.553696
 20
360.995935
 30
0.0
 11
295.553696
 21
365.995935
 31
0.0
  0
LINE
  5
154
330
1F
100
AcDbEntity
  8
GR1-1
  6
CONTINUOUS
 62
     6
100
AcDbLine
 10
294.053696
 20
367.5
 30
0.0
 11
289.053696
 21
367.5
 31
0.0
  0
LINE
  5
155
330
1F
100
AcDbEntity
  8
GR1-1
  6
CONTINUOUS
 62
     6
100
AcDbLine
 10
286.553696
 20
370.0
 30
0.0
 11
291.553696
 21
370.0
 31
0.0
  0
LINE
  5
156
330
1F
100
AcDbEntity
  8
GR1-1
  6
CONTINUOUS
 62
     6
100
AcDbLine
 10
293.053696
 20
370.0
 30
0.0
 11
298.053696
 21
370.0
 31
0.0
  0
LINE
  5
157
330
1F
100
AcDbEntity
  8
GR1-1
  6
CONTINUOUS
 62
     6
100
AcDbLine
 10
299.557761
 20
370.0
 30
0.0
 11
304.557761
 21
370.0
 31
0.0
  0
LINE
  5
158
330
1F
100
AcDbEntity
  8
GR1-1
  6
CONTINUOUS
 62
     6
100
AcDbLine
 10
295.553696
 20
299.004065
 30
0.0
 11
295.553696
 21
294.004065
 31
0.0
  0
LINE
  5
159
330
1F
100
AcDbEntity
  8
GR1-1
  6
CONTINUOUS
 62
     6
100
AcDbLine
 10
295.553696
 20
292.5
 30
0.0
 11
300.553696
 21
292.5
 31
0.0
  0
LINE
  5
15A
330
1F
100
AcDbEntity
  8
GR1-1
  6
CONTINUOUS
 62
     6
100
AcDbLine
 10
302.057761
 20
292.5
 30
0.0
 11
307.057761
 21
292.5
 31
0.0
  0
LINE
  5
15B
330
1F
100
AcDbEntity
  8
GR1-1
  6
CONTINUOUS
 62
     6
100
AcDbLine
 10
304.557761
 20
290.0
 30
0.0
 11
299.557761
 21
290.0
 31
0.0
  0
LINE
  5
15C
330
1F
100
AcDbEntity
  8
GR1-1
  6
CONTINUOUS
 62
     6
100
AcDbLine
 10
298.053696
 20
290.0
 30
0.0
 11
293.053696
 21
290.0
 31
0.0
  0
LINE
  5
15D
330
1F
100
AcDbEntity
  8
GR1-1
  6
CONTINUOUS
 62
     6
100
AcDbLine
 10
291.553696
 20
290.0
 30
0.0
 11
286.553696
 21
290.0
 31
0.0
  0
LINE
  5
15E
330
1F
100
AcDbEntity
  8
GR1-1
  6
CONTINUOUS
 62
     6
100
AcDbLine
 10
289.053696
 20
292.5
 30
0.0
 11
294.053696
 21
292.5
 31
0.0
  0
LINE
  5
15F
330
1F
100
AcDbEntity
  8
GR1-1
  6
CONTINUOUS
 62
     6
100
AcDbLine
 10
295.553696
 20
292.5
 30
0.0
 11
295.553696
 21
287.5
 31
0.0
  0
LINE
  5
160
330
1F
100
AcDbEntity
  8
GR1-1
  6
CONTINUOUS
 62
     6
100
AcDbLine
 10
295.553696
 20
285.995935
 30
0.0
 11
295.553696
 21
280.995935
 31
0.0
  0
LINE
  5
161
330
1F
100
AcDbEntity
  8
GR1-1
  6
CONTINUOUS
 62
     6
100
AcDbLine
 10
298.053696
 20
283.495935
 30
0.0
 11
298.053696
 21
288.495935
 31
0.0
  0
LINE
  5
162
330
1F
100
AcDbEntity
  8
GR1-1
  6
CONTINUOUS
 62
     6
100
AcDbLine
 10
298.053696
 20
290.0
 30
0.0
 11
298.053696
 21
295.0
 31
0.0
  0
LINE
  5
163
330
1F
100
AcDbEntity
  8
GR1-1
  6
CONTINUOUS
 62
     6
100
AcDbLine
 10
298.053696
 20
296.504065
 30
0.0
 11
298.053696
 21
301.504065
 31
0.0
  0
CIRCLE
  5
164
330
1F
100
AcDbEntity
  8
GR1-1
  6
CONTINUOUS
 62
     6
100
AcDbCircle
 10
335.561441
 20
330.0
 30
0.0
 40
8.009445438332094
  0
CIRCLE
  5
165
330
1F
100
AcDbEntity
  8
GR1-1
  6
CONTINUOUS
 62
     6
100
AcDbCircle
 10
335.561441
 20
330.0
 30
0.0
 40
13.40000000000002
  0
CIRCLE
  5
166
330
1F
100
AcDbEntity
  8
GR1-1
  6
CONTINUOUS
 62
     7
100
AcDbCircle
 10
335.553696
 20
330.0
 30
0.0
 40
38.0
  0
CIRCLE
  5
167
330
1F
100
AcDbEntity
  8
GR1-1
  6
CONTINUOUS
 62
     6
100
AcDbCircle
 10
335.561441
 20
330.0
 30
0.0
 40
38.0
  0
CIRCLE
  5
168
330
1F
100
AcDbEntity
  8
GR1-1
  6
CONTINUOUS
 62
     6
100
AcDbCircle
 10
335.553696
 20
330.0
 30
0.0
 40
42.5
  0
CIRCLE
  5
169
330
1F
100
AcDbEntity
  8
GR1-1
  6
CONTINUOUS
 62
     6
100
AcDbCircle
 10
335.561441
 20
330.0
 30
0.0
 40
42.5
  0
LINE
  5
16A
330
1F
100
AcDbEntity
  8
GR1-1
  6
CENTER
 62
     6
100
AcDbLine
 10
388.933856
 20
330.0
 30
0.0
 11
230.259905
 21
330.0
 31
0.0
  0
LINE
  5
16B
330
1F
100
AcDbEntity
  8
GR1-1
  6
CONTINUOUS
 62
     6
100
AcDbLine
 10
364.053696
 20
292.5
 30
0.0
 11
369.053696
 21
292.5
 31
0.0
  0
LINE
  5
16C
330
1F
100
AcDbEntity
  8
GR1-1
  6
CONTINUOUS
 62
     6
100
AcDbLine
 10
370.557761
 20
292.5
 30
0.0
 11
375.557761
 21
292.5
 31
0.0
  0
LINE
  5
16D
330
1F
100
AcDbEntity
  8
GR1-1
  6
CONTINUOUS
 62
     6
100
AcDbLine
 10
375.557761
 20
292.5
 30
0.0
 11
375.557761
 21
287.5
 31
0.0
  0
LINE
  5
16E
330
1F
100
AcDbEntity
  8
GR1-1
  6
CONTINUOUS
 62
     6
100
AcDbLine
 10
375.557761
 20
285.995935
 30
0.0
 11
375.557761
 21
280.995935
 31
0.0
  0
LINE
  5
16F
330
1F
100
AcDbEntity
  8
GR1-1
  6
CONTINUOUS
 62
     6
100
AcDbLine
 10
373.057761
 20
283.495935
 30
0.0
 11
373.057761
 21
288.495935
 31
0.0
  0
LINE
  5
170
330
1F
100
AcDbEntity
  8
GR1-1
  6
CONTINUOUS
 62
     6
100
AcDbLine
 10
373.057761
 20
290.0
 30
0.0
 11
373.057761
 21
295.0
 31
0.0
  0
LINE
  5
171
330
1F
100
AcDbEntity
  8
GR1-1
  6
CONTINUOUS
 62
     6
100
AcDbLine
 10
373.057761
 20
296.504065
 30
0.0
 11
373.057761
 21
301.504065
 31
0.0
  0
LINE
  5
172
330
1F
100
AcDbEntity
  8
GR1-1
  6
CONTINUOUS
 62
     6
100
AcDbLine
 10
375.557761
 20
299.004065
 30
0.0
 11
375.557761
 21
294.004065
 31
0.0
  0
LINE
  5
173
330
1F
100
AcDbEntity
  8
GR1-1
  6
CONTINUOUS
 62
     6
100
AcDbLine
 10
377.057761
 20
292.5
 30
0.0
 11
382.057761
 21
292.5
 31
0.0
  0
LINE
  5
174
330
1F
100
AcDbEntity
  8
GR1-1
  6
CONTINUOUS
 62
     6
100
AcDbLine
 10
379.557761
 20
290.0
 30
0.0
 11
384.557761
 21
290.0
 31
0.0
  0
LINE
  5
175
330
1F
100
AcDbEntity
  8
GR1-1
  6
CONTINUOUS
 62
     6
100
AcDbLine
 10
378.057761
 20
290.0
 30
0.0
 11
373.057761
 21
290.0
 31
0.0
  0
LINE
  5
176
330
1F
100
AcDbEntity
  8
GR1-1
  6
CONTINUOUS
 62
     6
100
AcDbLine
 10
371.553696
 20
290.0
 30
0.0
 11
366.553696
 21
290.0
 31
0.0
  0
LINE
  5
177
330
1F
100
AcDbEntity
  8
GR1-1
  6
CONTINUOUS
 62
     6
100
AcDbLine
 10
373.057761
 20
358.495935
 30
0.0
 11
373.057761
 21
363.495935
 31
0.0
  0
LINE
  5
178
330
1F
100
AcDbEntity
  8
GR1-1
  6
CONTINUOUS
 62
     6
100
AcDbLine
 10
373.057761
 20
365.0
 30
0.0
 11
373.057761
 21
370.0
 31
0.0
  0
LINE
  5
179
330
1F
100
AcDbEntity
  8
GR1-1
  6
CONTINUOUS
 62
     6
100
AcDbLine
 10
373.057761
 20
370.0
 30
0.0
 11
378.057761
 21
370.0
 31
0.0
  0
LINE
  5
17A
330
1F
100
AcDbEntity
  8
GR1-1
  6
CONTINUOUS
 62
     6
100
AcDbLine
 10
379.557761
 20
370.0
 30
0.0
 11
384.557761
 21
370.0
 31
0.0
  0
LINE
  5
17B
330
1F
100
AcDbEntity
  8
GR1-1
  6
CONTINUOUS
 62
     6
100
AcDbLine
 10
382.057761
 20
367.5
 30
0.0
 11
377.057761
 21
367.5
 31
0.0
  0
LINE
  5
17C
330
1F
100
AcDbEntity
  8
GR1-1
  6
CONTINUOUS
 62
     6
100
AcDbLine
 10
375.557761
 20
367.5
 30
0.0
 11
370.557761
 21
367.5
 31
0.0
  0
LINE
  5
17D
330
1F
100
AcDbEntity
  8
GR1-1
  6
CONTINUOUS
 62
     6
100
AcDbLine
 10
369.053696
 20
367.5
 30
0.0
 11
364.053696
 21
367.5
 31
0.0
  0
LINE
  5
17E
330
1F
100
AcDbEntity
  8
GR1-1
  6
CONTINUOUS
 62
     6
100
AcDbLine
 10
366.553696
 20
370.0
 30
0.0
 11
371.553696
 21
370.0
 31
0.0
  0
LINE
  5
17F
330
1F
100
AcDbEntity
  8
GR1-1
  6
CONTINUOUS
 62
     6
100
AcDbLine
 10
373.057761
 20
371.504065
 30
0.0
 11
373.057761
 21
376.504065
 31
0.0
  0
LINE
  5
180
330
1F
100
AcDbEntity
  8
GR1-1
  6
CONTINUOUS
 62
     6
100
AcDbLine
 10
375.557761
 20
374.004065
 30
0.0
 11
375.557761
 21
379.004065
 31
0.0
  0
LINE
  5
181
330
1F
100
AcDbEntity
  8
GR1-1
  6
CONTINUOUS
 62
     6
100
AcDbLine
 10
375.557761
 20
372.5
 30
0.0
 11
375.557761
 21
367.5
 31
0.0
  0
LINE
  5
182
330
1F
100
AcDbEntity
  8
GR1-1
  6
CONTINUOUS
 62
     6
100
AcDbLine
 10
375.557761
 20
365.995935
 30
0.0
 11
375.557761
 21
360.995935
 31
0.0
  0
LINE
  5
183
330
1F
100
AcDbEntity
  8
LAYERGROUP-1
  6
CENTER
 62
     6
100
AcDbLine
 10
335.560372
 20
383.460513
 30
0.0
 11
335.560372
 21
276.456838
 31
0.0
  0
ARC
  5
184
330
1F
100
AcDbEntity
  8
GR1-1
  6
CONTINUOUS
 62
     3
100
AcDbCircle
 10
297.560372
 20
114.0
 30
0.0
 40
48.0
100
AcDbArc
 50
-255.876408
 51
39.45269
  0
CIRCLE
  5
185
330
1F
100
AcDbEntity
  8
GR1-1
  6
CONTINUOUS
 62
     3
100
AcDbCircle
 10
331.060372
 20
114.0
 30
0.0
 40
5.0
  0
CIRCLE
  5
186
330
1F
100
AcDbEntity
  8
GR1-1
  6
CONTINUOUS
 62
     3
100
AcDbCircle
 10
328.510336
 20
101.180105
 30
0.0
 40
2.0
  0
CIRCLE
  5
187
330
1F
100
AcDbEntity
  8
GR1-1
  6
CONTINUOUS
 62
     3
100
AcDbCircle
 10
321.248449
 20
90.311923
 30
0.0
 40
5.0
  0
CIRCLE
  5
188
330
1F
100
AcDbEntity
  8
GR1-1
  6
CONTINUOUS
 62
     3
100
AcDbCircle
 10
297.560372
 20
80.5
 30
0.0
 40
5.0
  0
CIRCLE
  5
189
330
1F
100
AcDbEntity
  8
GR1-1
  6
CONTINUOUS
 62
     3
100
AcDbCircle
 10
273.872294
 20
90.311923
 30
0.0
 40
5.0
  0
CIRCLE
  5
18A
330
1F
100
AcDbEntity
  8
GR1-1
  6
CONTINUOUS
 62
     3
100
AcDbCircle
 10
264.060372
 20
114.0
 30
0.0
 40
5.0
  0
CIRCLE
  5
18B
330
1F
100
AcDbEntity
  8
GR1-1
  6
CONTINUOUS
 62
     3
100
AcDbCircle
 10
266.57958
 20
126.745673
 30
0.0
 40
2.0
  0
CIRCLE
  5
18C
330
1F
100
AcDbEntity
  8
GR1-1
  6
CONTINUOUS
 62
     3
100
AcDbCircle
 10
273.872294
 20
137.688077
 30
0.0
 40
5.0
  0
TEXT
  5
18D
330
1F
100
AcDbEntity
  8
GR1-1
  6
CONTINUOUS
 62
     7
100
AcDbText
 10
256.715973
 20
84.85363
 30
0.0
 40
7.27538
  1
G
 50
122.0
 41
1.053374
  7
FX_VECTOR
 72
     5
 11
253.234995
 21
90.424359
 31
0.0
100
AcDbText
  0
TEXT
  5
18E
330
1F
100
AcDbEntity
  8
GR1-1
  6
CONTINUOUS
 62
     7
100
AcDbText
 10
253.057083
 20
90.821724
 30
0.0
 40
7.27538
  1
O
 50
114.0
 41
0.997933
  7
FX_VECTOR
 72
     5
 11
250.385278
 21
96.822697
 31
0.0
100
AcDbText
  0
TEXT
  5
18F
330
1F
100
AcDbEntity
  8
GR1-1
  6
CONTINUOUS
 62
     7
100
AcDbText
 10
250.264389
 20
97.240967
 30
0.0
 40
7.27538
  1
L
 50
106.0
 41
1.185046
  7
FX_VECTOR
 72
     5
 11
248.45376
 21
103.555382
 31
0.0
100
AcDbText
  0
TEXT
  5
190
330
1F
100
AcDbEntity
  8
GR1-1
  6
CONTINUOUS
 62
     7
100
AcDbText
 10
248.392258
 20
103.986389
 30
0.0
 40
7.27538
  1
D
 50
98.0
 41
1.053374
  7
FX_VECTOR
 72
     5
 11
247.478046
 21
110.491344
 31
0.0
100
AcDbText
  0
TEXT
  5
191
330
1F
100
AcDbEntity
  8
GR1-1
  6
CONTINUOUS
 62
     7
100
AcDbText
 10
247.536819
 20
117.926849
 30
0.0
 40
7.27538
  1
C
 50
82.0
 41
1.053374
  7
FX_VECTOR
 72
     5
 11
248.451031
 21
124.431804
 31
0.0
100
AcDbText
  0
TEXT
  5
192
330
1F
100
AcDbEntity
  8
GR1-1
  6
CONTINUOUS
 62
     7
100
AcDbText
 10
248.57016
 20
124.850586
 30
0.0
 40
7.27538
  1
A
 50
74.0
 41
1.115337
  7
FX_VECTOR
 72
     5
 11
250.380789
 21
131.165001
 31
0.0
100
AcDbText
  0
TEXT
  5
193
330
1F
100
AcDbEntity
  8
GR1-1
  6
CONTINUOUS
 62
     7
100
AcDbText
 10
250.557037
 20
131.56311
 30
0.0
 40
7.27538
  1
S
 50
66.0
 41
1.115337
  7
FX_VECTOR
 72
     5
 11
253.228843
 21
137.564084
 31
0.0
100
AcDbText
  0
TEXT
  5
194
330
1F
100
AcDbEntity
  8
GR1-1
  6
CONTINUOUS
 62
     7
100
AcDbText
 10
253.458786
 20
137.933777
 30
0.0
 40
7.27538
  1
T
 50
58.0
 41
1.264049
  7
FX_VECTOR
 72
     5
 11
256.939764
 21
143.504506
 31
0.0
100
AcDbText
  0
TEXT
  5
195
330
1F
100
AcDbEntity
  8
GR1-1
  6
CONTINUOUS
 62
     7
100
AcDbText
 10
257.218903
 20
143.838593
 30
0.0
 40
7.27538
  1
E
 50
50.0
 41
1.115337
  7
FX_VECTOR
 72
     5
 11
261.441299
 21
148.870649
 31
0.0
100
AcDbText
  0
TEXT
  5
196
330
1F
100
AcDbEntity
  8
GR1-1
  6
CONTINUOUS
 62
     7
100
AcDbText
 10
261.764252
 20
149.162659
 30
0.0
 40
7.27538
  1
R
 50
42.0
 41
1.053374
  7
FX_VECTOR
 72
     5
 11
266.645883
 21
153.558099
 31
0.0
100
AcDbText
  0
TEXT
  5
197
330
1F
100
AcDbEntity
  8
GR1-1
  6
CONTINUOUS
 62
     7
100
AcDbText
 10
342.803101
 20
135.894653
 30
0.0
 40
7.241241
  1
1
 50
291.25
 41
2.106545
  7
FX_VECTOR
 72
     5
 11
345.699049
 21
128.447735
 31
0.0
100
AcDbText
  0
TEXT
  5
198
330
1F
100
AcDbEntity
  8
GR1-1
  6
CONTINUOUS
 62
     7
100
AcDbText
 10
345.542389
 20
128.966858
 30
0.0
 40
7.241241
  1
2
 50
282.75
 41
1.363058
  7
FX_VECTOR
 72
     5
 11
347.305803
 21
121.173689
 31
0.0
100
AcDbText
  0
TEXT
  5
199
330
1F
100
AcDbEntity
  8
GR1-1
  6
CONTINUOUS
 62
     7
100
AcDbText
 10
347.2276
 20
121.710266
 30
0.0
 40
7.241241
  1
5
 50
274.25
 41
1.363058
  7
FX_VECTOR
 72
     5
 11
347.819741
 21
113.742049
 31
0.0
100
AcDbText
  0
TEXT
  5
19A
330
1F
100
AcDbEntity
  8
GR1-1
  6
CONTINUOUS
 62
     7
100
AcDbText
 10
347.821686
 20
114.284302
 30
0.0
 40
7.241241
  1
X
 50
265.75
 41
1.363058
  7
FX_VECTOR
 72
     5
 11
347.229545
 21
106.316085
 31
0.0
100
AcDbText
  0
TEXT
  5
19B
330
1F
100
AcDbEntity
  8
GR1-1
  6
CONTINUOUS
 62
     7
100
AcDbText
 10
347.311646
 20
106.852081
 30
0.0
 40
7.241241
  1
3
 50
257.25
 41
1.363058
  7
FX_VECTOR
 72
     5
 11
345.548231
 21
99.058912
 31
0.0
100
AcDbText
  0
TEXT
  5
19C
330
1F
100
AcDbEntity
  8
GR1-1
  6
CONTINUOUS
 62
     7
100
AcDbText
 10
345.708618
 20
99.576874
 30
0.0
 40
7.241241
  1
8
 50
248.75
 41
1.363058
  7
FX_VECTOR
 72
     5
 11
342.81267
 21
92.129955
 31
0.0
100
AcDbText
  0
LINE
  5
19D
330
1F
100
AcDbEntity
  8
GR1-1
  6
CONTINUOUS
 62
     7
100
AcDbLine
 10
257.525058
 20
74.019709
 30
0.0
 11
261.539841
 21
78.478578
 31
0.0
  0
LINE
  5
19E
330
1F
100
AcDbEntity
  8
GR1-1
  6
CONTINUOUS
 62
     7
100
AcDbLine
 10
261.539841
 20
78.478578
 30
0.0
 11
265.99871
 21
74.463794
 31
0.0
  0
LINE
  5
19F
330
1F
100
AcDbEntity
  8
GR1-1
  6
CONTINUOUS
 62
     7
100
AcDbLine
 10
265.99871
 20
74.463794
 30
0.0
 11
261.983927
 21
70.004926
 31
0.0
  0
LINE
  5
1A0
330
1F
100
AcDbEntity
  8
GR1-1
  6
CONTINUOUS
 62
     7
100
AcDbLine
 10
261.983927
 20
70.004926
 30
0.0
 11
257.525058
 21
74.019709
 31
0.0
  0
LINE
  5
1A1
330
1F
100
AcDbEntity
  8
GR1-1
  6
CONTINUOUS
 62
     7
100
AcDbLine
 10
259.682157
 20
75.710656
 30
0.0
 11
259.869297
 21
72.139821
 31
0.0
  0
LINE
  5
1A2
330
1F
100
AcDbEntity
  8
GR1-1
  6
CONTINUOUS
 62
     7
100
AcDbLine
 10
259.869297
 20
72.139821
 30
0.0
 11
263.863815
 21
72.349165
 31
0.0
  0
LINE
  5
1A3
330
1F
100
AcDbEntity
  8
GR1-1
  6
CONTINUOUS
 62
     7
100
AcDbLine
 10
263.863815
 20
72.349165
 30
0.0
 11
263.654471
 21
76.343683
 31
0.0
  0
LINE
  5
1A4
330
1F
100
AcDbEntity
  8
GR1-1
  6
CONTINUOUS
 62
     7
100
AcDbLine
 10
263.654471
 20
76.343683
 30
0.0
 11
261.313319
 21
76.220988
 31
0.0
  0
LINE
  5
1A5
330
1F
100
AcDbEntity
  8
GR1-1
  6
CONTINUOUS
 62
     7
100
AcDbLine
 10
261.233771
 20
76.387764
 30
0.0
 11
261.757633
 21
76.969572
 31
0.0
  0
LINE
  5
1A6
330
1F
100
AcDbEntity
  8
GR1-1
  6
CONTINUOUS
 62
     7
100
AcDbLine
 10
261.757633
 20
76.969572
 30
0.0
 11
261.014488
 21
77.638702
 31
0.0
  0
LINE
  5
1A7
330
1F
100
AcDbEntity
  8
GR1-1
  6
CONTINUOUS
 62
     7
100
AcDbLine
 10
261.014488
 20
77.638702
 30
0.0
 11
259.659953
 21
76.134339
 31
0.0
  0
LINE
  5
1A8
330
1F
100
AcDbEntity
  8
GR1-1
  6
CONTINUOUS
 62
     7
100
AcDbLine
 10
259.659953
 20
76.134339
 30
0.0
 11
261.761884
 21
74.241752
 31
0.0
  0
LINE
  5
1A9
330
1F
100
AcDbEntity
  8
GR1-1
  6
CONTINUOUS
 62
     7
100
AcDbLine
 10
261.761884
 20
74.241752
 30
0.0
 11
262.096449
 21
74.613324
 31
0.0
  0
LINE
  5
1AA
330
1F
100
AcDbEntity
  8
GR1-1
  6
CONTINUOUS
 62
     7
100
AcDbLine
 10
262.096449
 20
74.613324
 30
0.0
 11
261.596467
 21
75.06351
 31
0.0
  0
LINE
  5
1AB
330
1F
100
AcDbEntity
  8
GR1-1
  6
CONTINUOUS
 62
     7
100
AcDbLine
 10
261.658147
 20
75.237688
 30
0.0
 11
262.708178
 21
75.292717
 31
0.0
  0
LINE
  5
1AC
330
1F
100
AcDbEntity
  8
GR1-1
  6
CONTINUOUS
 62
     7
100
AcDbLine
 10
262.708178
 20
75.292717
 30
0.0
 11
262.81285
 21
73.295458
 31
0.0
  0
LINE
  5
1AD
330
1F
100
AcDbEntity
  8
GR1-1
  6
CONTINUOUS
 62
     7
100
AcDbLine
 10
262.81285
 20
73.295458
 30
0.0
 11
260.81559
 21
73.190786
 31
0.0
  0
LINE
  5
1AE
330
1F
100
AcDbEntity
  8
GR1-1
  6
CONTINUOUS
 62
     7
100
AcDbLine
 10
260.81559
 20
73.190786
 30
0.0
 11
260.733123
 21
74.764363
 31
0.0
  0
LINE
  5
1AF
330
1F
100
AcDbEntity
  8
GR1-1
  6
CONTINUOUS
 62
     7
100
AcDbLine
 10
260.733123
 20
74.764363
 30
0.0
 11
259.682157
 21
75.710656
 31
0.0
  0
ARC
  5
1B0
330
1F
100
AcDbEntity
  8
GR1-1
  6
CONTINUOUS
 62
     7
100
AcDbCircle
 10
261.308085
 20
76.320851
 30
0.0
 40
0.1
100
AcDbArc
 50
138.0
 51
273.0
  0
ARC
  5
1B1
330
1F
100
AcDbEntity
  8
GR1-1
  6
CONTINUOUS
 62
     7
100
AcDbCircle
 10
261.66338
 20
75.137825
 30
0.0
 40
0.1
100
AcDbArc
 50
93.0
 51
228.0
  0
ARC
  5
1B2
330
1F
100
AcDbEntity
  8
GR1-1
  6
CONTINUOUS
 62
     6
100
AcDbCircle
 10
297.560372
 20
114.0
 30
0.0
 40
44.50000000000003
100
AcDbArc
 50
-254.347251
 51
37.661928
  0
ARC
  5
1B3
330
1F
100
AcDbEntity
  8
GR1-1
  6
CENTER
 62
     6
100
AcDbCircle
 10
297.560372
 20
114.0
 30
0.0
 40
33.50000000000003
100
AcDbArc
 50
-247.248511
 51
29.248466
  0
ARC
  5
1B4
330
1F
100
AcDbEntity
  8
GR1-1
  6
CONTINUOUS
 62
     6
100
AcDbCircle
 10
297.560372
 20
114.0
 30
0.0
 40
25.0
100
AcDbArc
 50
-236.631038
 51
16.157758
  0
LINE
  5
1B5
330
1F
100
AcDbEntity
  8
GR1-1
  6
CENTER
 62
     6
100
AcDbLine
 10
323.294835
 20
103.340436
 30
0.0
 11
333.774929
 21
98.999439
 31
0.0
  0
CIRCLE
  5
1B6
330
1F
100
AcDbEntity
  8
GR1-1
  6
CONTINUOUS
 62
     6
100
AcDbCircle
 10
321.248449
 20
90.311923
 30
0.0
 40
7.25
  0
LINE
  5
1B7
330
1F
100
AcDbEntity
  8
GR1-1
  6
CENTER
 62
     6
100
AcDbLine
 10
328.28054
 20
83.279832
 30
0.0
 11
314.207081
 21
97.353291
 31
0.0
  0
CIRCLE
  5
1B8
330
1F
100
AcDbEntity
  8
GR1-1
  6
CONTINUOUS
 62
     6
100
AcDbCircle
 10
273.872294
 20
137.688077
 30
0.0
 40
7.25
  0
LINE
  5
1B9
330
1F
100
AcDbEntity
  8
GR1-1
  6
CENTER
 62
     6
100
AcDbLine
 10
280.913662
 20
130.646709
 30
0.0
 11
266.840203
 21
144.720168
 31
0.0
  0
LINE
  5
1BA
330
1F
100
AcDbEntity
  8
GR1-1
  6
CENTER
 62
     6
100
AcDbLine
 10
261.314987
 20
128.926339
 30
0.0
 11
271.795081
 21
124.585341
 31
0.0
  0
LINE
  5
1BB
330
1F
100
AcDbEntity
  8
GR1-1
  6
CENTER
 62
     6
100
AcDbLine
 10
280.913662
 20
97.353291
 30
0.0
 11
266.840203
 21
83.279832
 31
0.0
  0
CIRCLE
  5
1BC
330
1F
100
AcDbEntity
  8
GR1-1
  6
CONTINUOUS
 62
     6
100
AcDbCircle
 10
273.872294
 20
90.311923
 30
0.0
 40
7.25
  0
ARC
  5
1BD
330
1F
100
AcDbEntity
  8
GR1-1
  6
CONTINUOUS
 62
     6
100
AcDbCircle
 10
297.560372
 20
114.0
 30
0.0
 40
16.59999999999999
100
AcDbArc
 50
153.174287
 51
313.126581
  0
LINE
  5
1BE
330
1F
100
AcDbEntity
  8
GR1-1
  6
CONTINUOUS
 62
     3
100
AcDbLine
 10
249.560372
 20
349.0
 30
0.0
 11
249.560372
 21
348.400415
 31
0.0
  0
ARC
  5
1BF
330
1F
100
AcDbEntity
  8
GR1-1
  6
CONTINUOUS
 62
     3
100
AcDbCircle
 10
247.560372
 20
348.400415
 30
0.0
 40
2.0
100
AcDbArc
 50
290.0
 51
360.0
  0
LINE
  5
1C0
330
1F
100
AcDbEntity
  8
GR1-1
  6
CONTINUOUS
 62
     3
100
AcDbLine
 10
248.244412
 20
346.52103
 30
0.0
 11
239.426628
 21
343.311619
 31
0.0
  0
ARC
  5
1C1
330
1F
100
AcDbEntity
  8
GR1-1
  6
CONTINUOUS
 62
     3
100
AcDbCircle
 10
241.136729
 20
338.613156
 30
0.0
 40
5.0
100
AcDbArc
 50
110.0
 51
165.753732
  0
ARC
  5
1C2
330
1F
100
AcDbEntity
  8
GR1-1
  6
CONTINUOUS
 62
     3
100
AcDbCircle
 10
275.060372
 20
330.0
 30
0.0
 40
40.0
100
AcDbArc
 50
165.753732
 51
194.246268
  0
ARC
  5
1C3
330
1F
100
AcDbEntity
  8
GR1-1
  6
CONTINUOUS
 62
     3
100
AcDbCircle
 10
241.136729
 20
321.386844
 30
0.0
 40
5.0
100
AcDbArc
 50
194.246268
 51
250.0
  0
LINE
  5
1C4
330
1F
100
AcDbEntity
  8
GR1-1
  6
CONTINUOUS
 62
     3
100
AcDbLine
 10
239.426628
 20
316.688381
 30
0.0
 11
248.244412
 21
313.47897
 31
0.0
  0
LINE
  5
1C5
330
1F
100
AcDbEntity
  8
GR1-1
  6
CONTINUOUS
 62
     3
100
AcDbLine
 10
249.560372
 20
311.599585
 30
0.0
 11
249.560372
 21
311.0
 31
0.0
  0
LINE
  5
1C6
330
1F
100
AcDbEntity
  8
GR1-1
  6
CONTINUOUS
 62
     3
100
AcDbLine
 10
249.560372
 20
311.0
 30
0.0
 11
284.561441
 21
311.0
 31
0.0
  0
ARC
  5
1C7
330
1F
100
AcDbEntity
  8
GR1-1
  6
CONTINUOUS
 62
     3
100
AcDbCircle
 10
247.560372
 20
311.599585
 30
0.0
 40
2.0
100
AcDbArc
 50
0.0
 51
70.0
  0
LINE
  5
1C8
330
1F
100
AcDbEntity
  8
GR1-1
  6
CONTINUOUS
 62
     6
100
AcDbLine
 10
284.561441
 20
317.555
 30
0.0
 11
237.924724
 21
317.555
 31
0.0
  0
LINE
  5
1C9
330
1F
100
AcDbEntity
  8
GR1-1
  6
CONTINUOUS
 62
     6
100
AcDbLine
 10
249.560372
 20
311.599585
 30
0.0
 11
284.561441
 21
311.599585
 31
0.0
  0
LINE
  5
1CA
330
1F
100
AcDbEntity
  8
GR1-1
  6
CONTINUOUS
 62
     6
100
AcDbLine
 10
237.924724
 20
342.445
 30
0.0
 11
284.561441
 21
342.445
 31
0.0
  0
LINE
  5
1CB
330
1F
100
AcDbEntity
  8
GR1-1
  6
CONTINUOUS
 62
     3
100
AcDbLine
 10
249.560372
 20
349.0
 30
0.0
 11
284.561441
 21
349.0
 31
0.0
  0
LINE
  5
1CC
330
1F
100
AcDbEntity
  8
GR1-1
  6
CONTINUOUS
 62
     6
100
AcDbLine
 10
249.560372
 20
348.400415
 30
0.0
 11
284.561441
 21
348.400415
 31
0.0
  0
LINE
  5
1CD
330
1F
100
AcDbEntity
  8
GR1-1
  6
CONTINUOUS
 62
     3
100
AcDbLine
 10
282.413696
 20
117.295429
 30
0.0
 11
288.69793
 21
196.45
 31
0.0
  0
LINE
  5
1CE
330
1F
100
AcDbEntity
  8
GR1-1
  6
CONTINUOUS
 62
     3
100
AcDbLine
 10
299.560372
 20
202.4
 30
0.0
 11
299.560372
 21
200.45
 31
0.0
  0
ARC
  5
1CF
330
1F
100
AcDbEntity
  8
GR1-1
  6
CONTINUOUS
 62
     3
100
AcDbCircle
 10
295.560372
 20
200.45
 30
0.0
 40
4.0
100
AcDbArc
 50
270.0
 51
360.0
  0
LINE
  5
1D0
330
1F
100
AcDbEntity
  8
GR1-1
  6
CONTINUOUS
 62
     3
100
AcDbLine
 10
311.433774
 20
196.45
 30
0.0
 11
285.560372
 21
196.45
 31
0.0
  0
LINE
  5
1D1
330
1F
100
AcDbEntity
  8
GR1-1
  6
CONTINUOUS
 62
     3
100
AcDbLine
 10
285.560372
 20
196.45
 30
0.0
 11
285.560372
 21
193.95
 31
0.0
  0
LINE
  5
1D2
330
1F
100
AcDbEntity
  8
GR1-1
  6
CONTINUOUS
 62
     6
100
AcDbLine
 10
316.43578
 20
200.058889
 30
0.0
 11
316.43578
 21
122.689557
 31
0.0
  0
LINE
  5
1D3
330
1F
100
AcDbEntity
  8
GR1-1
  6
CONTINUOUS
 62
     3
100
AcDbLine
 10
284.540175
 20
219.5
 30
0.0
 11
284.540175
 21
216.0
 31
0.0
  0
LINE
  5
1D4
330
1F
100
AcDbEntity
  8
GR1-1
  6
CONTINUOUS
 62
     3
100
AcDbLine
 10
335.540175
 20
213.697089
 30
0.0
 11
296.628834
 21
213.697089
 31
0.0
  0
ARC
  5
1D5
330
1F
100
AcDbEntity
  8
GR1-1
  6
CONTINUOUS
 62
     3
100
AcDbCircle
 10
296.628834
 20
218.170122
 30
0.0
 40
4.473032676673776
100
AcDbArc
 50
216.650892
 51
270.0
  0
LINE
  5
1D6
330
1F
100
AcDbEntity
  8
GR1-1
  6
CONTINUOUS
 62
     3
100
AcDbLine
 10
293.040175
 20
215.5
 30
0.0
 11
293.040175
 21
216.0
 31
0.0
  0
ARC
  5
1D7
330
1F
100
AcDbEntity
  8
GR1-1
  6
CONTINUOUS
 62
     3
100
AcDbCircle
 10
302.040175
 20
212.0
 30
0.0
 40
4.0
100
AcDbArc
 50
154.895388
 51
180.0
  0
LINE
  5
1D8
330
1F
100
AcDbEntity
  8
GR1-1
  6
CONTINUOUS
 62
     3
100
AcDbLine
 10
298.040175
 20
212.0
 30
0.0
 11
298.040175
 21
205.7
 31
0.0
  0
ARC
  5
1D9
330
1F
100
AcDbEntity
  8
GR1-1
  6
CONTINUOUS
 62
     3
100
AcDbCircle
 10
293.540175
 20
205.7
 30
0.0
 40
4.5
100
AcDbArc
 50
319.073937
 51
360.0
  0
LINE
  5
1DA
330
1F
100
AcDbEntity
  8
GR1-1
  6
CONTINUOUS
 62
     3
100
AcDbLine
 10
296.940175
 20
202.752119
 30
0.0
 11
297.940175
 21
202.4
 31
0.0
  0
LINE
  5
1DB
330
1F
100
AcDbEntity
  8
GR1-1
  6
CONTINUOUS
 62
     3
100
AcDbLine
 10
297.940175
 20
202.4
 30
0.0
 11
335.540175
 21
202.4
 31
0.0
  0
LINE
  5
1DC
330
1F
100
AcDbEntity
  8
GR1-1
  6
CONTINUOUS
 62
     6
100
AcDbLine
 10
335.540175
 20
202.752119
 30
0.0
 11
296.940175
 21
202.752119
 31
0.0
  0
ARC
  5
1DD
330
1F
100
AcDbEntity
  8
GR1-1
  6
CONTINUOUS
 62
     3
100
AcDbCircle
 10
70.641486
 20
154.441829
 30
0.0
 40
89.46156784938876
100
AcDbArc
 50
11.649114
 51
22.257693
  0
LINE
  5
1DE
330
1F
100
AcDbEntity
  8
GR1-1
  6
CONTINUOUS
 62
     3
100
AcDbLine
 10
166.560372
 20
202.4
 30
0.0
 11
166.560372
 21
145.889557
 31
0.0
  0
LINE
  5
1DF
330
1F
100
AcDbEntity
  8
GR1-1
  6
CONTINUOUS
 62
     3
100
AcDbLine
 10
164.760372
 20
124.5
 30
0.0
 11
166.260372
 21
122.5
 31
0.0
  0
LINE
  5
1E0
330
1F
100
AcDbEntity
  8
GR1-1
  6
CONTINUOUS
 62
     3
100
AcDbLine
 10
166.260372
 20
122.5
 30
0.0
 11
166.260372
 21
105.5
 31
0.0
  0
LINE
  5
1E1
330
1F
100
AcDbEntity
  8
GR1-1
  6
CONTINUOUS
 62
     3
100
AcDbLine
 10
166.260372
 20
105.5
 30
0.0
 11
164.760372
 21
103.5
 31
0.0
  0
LINE
  5
1E2
330
1F
100
AcDbEntity
  8
GR1-1
  6
CONTINUOUS
 62
     3
100
AcDbLine
 10
164.760372
 20
103.5
 30
0.0
 11
160.760372
 21
103.5
 31
0.0
  0
LINE
  5
1E3
330
1F
100
AcDbEntity
  8
GR1-1
  6
CONTINUOUS
 62
     3
100
AcDbLine
 10
160.760372
 20
124.5
 30
0.0
 11
164.760372
 21
124.5
 31
0.0
  0
ARC
  5
1E4
330
1F
100
AcDbEntity
  8
GR1-1
  6
CONTINUOUS
 62
     3
100
AcDbCircle
 10
31.601739
 20
155.417867
 30
0.0
 40
135.2945721841073
100
AcDbArc
 50
346.789894
 51
355.961522
  0
LINE
  5
1E5
330
1F
100
AcDbEntity
  8
GR1-1
  6
CONTINUOUS
 62
     6
100
AcDbLine
 10
164.760372
 20
103.5
 30
0.0
 11
164.760372
 21
124.5
 31
0.0
  0
LINE
  5
1E6
330
1F
100
AcDbEntity
  8
GR1-1
  6
CONTINUOUS
 62
     3
100
AcDbLine
 10
386.560372
 20
219.5
 30
0.0
 11
284.540175
 21
219.5
 31
0.0
  0
LINE
  5
1E7
330
1F
100
AcDbEntity
  8
GR1-1
  6
CONTINUOUS
 62
     3
100
AcDbLine
 10
386.560372
 20
216.0
 30
0.0
 11
284.540175
 21
216.0
 31
0.0
  0
LINE
  5
1E8
330
1F
100
AcDbEntity
  8
GR1-1
  6
CONTINUOUS
 62
     3
100
AcDbLine
 10
160.760372
 20
192.45
 30
0.0
 11
160.760372
 21
98.95
 31
0.0
  0
ARC
  5
1E9
330
1F
100
AcDbEntity
  8
LAYERGROUP-1
  6
CONTINUOUS
 62
     3
100
AcDbCircle
 10
156.760372
 20
192.45
 30
0.0
 40
4.0
100
AcDbArc
 50
0.0
 51
90.0
  0
LINE
  5
1EA
330
1F
100
AcDbEntity
  8
GR1-1
  6
CONTINUOUS
 62
     3
100
AcDbLine
 10
100.360372
 20
192.45
 30
0.0
 11
100.360372
 21
98.95
 31
0.0
  0
ARC
  5
1EB
330
1F
100
AcDbEntity
  8
LAYERGROUP-1
  6
CONTINUOUS
 62
     3
100
AcDbCircle
 10
104.360372
 20
192.45
 30
0.0
 40
4.0
100
AcDbArc
 50
90.0
 51
180.0
  0
LINE
  5
1EC
330
1F
100
AcDbEntity
  8
GR1-1
  6
CONTINUOUS
 62
     3
100
AcDbLine
 10
102.860372
 20
98.95
 30
0.0
 11
100.360372
 21
98.95
 31
0.0
  0
LINE
  5
1ED
330
1F
100
AcDbEntity
  8
GR1-1
  6
CONTINUOUS
 62
     3
100
AcDbLine
 10
282.361441
 20
302.3
 30
0.0
 11
282.361441
 21
299.8
 31
0.0
  0
LINE
  5
1EE
330
1F
100
AcDbEntity
  8
GR1-1
  6
CONTINUOUS
 62
     3
100
AcDbLine
 10
282.361441
 20
299.8
 30
0.0
 11
284.561441
 21
299.8
 31
0.0
  0
LINE
  5
1EF
330
1F
100
AcDbEntity
  8
GR1-1
  6
CONTINUOUS
 62
     3
100
AcDbLine
 10
282.361441
 20
357.7
 30
0.0
 11
282.361441
 21
360.2
 31
0.0
  0
LINE
  5
1F0
330
1F
100
AcDbEntity
  8
GR1-1
  6
CONTINUOUS
 62
     3
100
AcDbLine
 10
282.361441
 20
360.2
 30
0.0
 11
284.561441
 21
360.2
 31
0.0
  0
LINE
  5
1F1
330
1F
100
AcDbEntity
  8
GR1-1
  6
CONTINUOUS
 62
     3
100
AcDbLine
 10
283.566084
 20
305.0
 30
0.0
 11
283.566084
 21
305.5
 31
0.0
  0
ARC
  5
1F2
330
1F
100
AcDbEntity
  8
GR1-1
  6
CONTINUOUS
 62
     3
100
AcDbCircle
 10
285.566084
 20
305.0
 30
0.0
 40
2.0
100
AcDbArc
 50
180.0
 51
240.0
  0
LINE
  5
1F3
330
1F
100
AcDbEntity
  8
GR1-1
  6
CONTINUOUS
 62
     3
100
AcDbLine
 10
284.566084
 20
305.5
 30
0.0
 11
280.216084
 21
305.5
 31
0.0
  0
LINE
  5
1F4
330
1F
100
AcDbEntity
  8
GR1-1
  6
CONTINUOUS
 62
     3
100
AcDbLine
 10
278.716084
 20
307.0
 30
0.0
 11
278.716084
 21
311.0
 31
0.0
  0
ARC
  5
1F5
330
1F
100
AcDbEntity
  8
GR1-1
  6
CONTINUOUS
 62
     3
100
AcDbCircle
 10
280.216084
 20
307.0
 30
0.0
 40
1.5
100
AcDbArc
 50
180.0
 51
270.0
  0
LINE
  5
1F6
330
1F
100
AcDbEntity
  8
GR1-1
  6
CONTINUOUS
 62
     3
100
AcDbLine
 10
283.566084
 20
355.0
 30
0.0
 11
283.566084
 21
354.5
 31
0.0
  0
ARC
  5
1F7
330
1F
100
AcDbEntity
  8
GR1-1
  6
CONTINUOUS
 62
     3
100
AcDbCircle
 10
285.566084
 20
355.0
 30
0.0
 40
2.0
100
AcDbArc
 50
120.0
 51
180.0
  0
LINE
  5
1F8
330
1F
100
AcDbEntity
  8
GR1-1
  6
CONTINUOUS
 62
     3
100
AcDbLine
 10
284.566084
 20
354.5
 30
0.0
 11
280.216084
 21
354.5
 31
0.0
  0
LINE
  5
1F9
330
1F
100
AcDbEntity
  8
GR1-1
  6
CONTINUOUS
 62
     3
100
AcDbLine
 10
278.716084
 20
353.0
 30
0.0
 11
278.716084
 21
349.0
 31
0.0
  0
ARC
  5
1FA
330
1F
100
AcDbEntity
  8
GR1-1
  6
CONTINUOUS
 62
     3
100
AcDbCircle
 10
280.216084
 20
353.0
 30
0.0
 40
1.5
100
AcDbArc
 50
90.0
 51
180.0
  0
TEXT
  5
1FB
330
1F
100
AcDbEntity
  8
}}ﾊﾊGG血CCТ
  6
CONTINUOUS
 62
     7
100
AcDbText
 10
429.0
 20
12.0
 30
0.0
 40
6.0
  1
S35G0CAA-C01
 41
0.711864
  7
FX_VECTOR
 72
     5
 11
477.0
 21
12.0
 31
0.0
100
AcDbText
  0
TEXT
  5
1FC
330
1F
100
AcDbEntity
  8
LAYERGROUP-1
  6
CONTINUOUS
 62
     7
100
AcDbText
 10
127.560379
 20
32.5
 30
0.0
 40
4.0
  1
54
 41
0.828947
  7
FX_VECTOR
 72
     5
 11
133.560379
 21
32.5
 31
0.0
100
AcDbText
  0
LINE
  5
1FD
330
1F
100
AcDbEntity
  8
LAYERGROUP-1
  6
CONTINUOUS
 62
     7
100
AcDbLine
 10
103.560372
 20
31.5
 30
0.0
 11
157.560372
 21
31.5
 31
0.0
  0
INSERT
  5
1FE
330
1F
100
AcDbEntity
  8
LAYERGROUP-1
  6
CONTINUOUS
 62
     7
100
AcDbBlockReference
  2
FXTIP_ARROW_S
 10
103.560372
 20
31.5
 30
0.0
 41
4.0
 42
4.0
 50
180.0
  0
INSERT
  5
1FF
330
1F
100
AcDbEntity
  8
LAYERGROUP-1
  6
CONTINUOUS
 62
     7
100
AcDbBlockReference
  2
FXTIP_ARROW_E
 10
157.560372
 20
31.5
 30
0.0
 41
4.0
 42
4.0
 50
360.0
  0
LINE
  5
200
330
1F
100
AcDbEntity
  8
LAYERGROUP-1
  6
CONTINUOUS
 62
     7
100
AcDbLine
 10
103.560372
 20
98.2
 30
0.0
 11
103.560372
 21
30.5
 31
0.0
  0
LINE
  5
201
330
1F
100
AcDbEntity
  8
LAYERGROUP-1
  6
CONTINUOUS
 62
     7
100
AcDbLine
 10
157.560372
 20
98.2
 30
0.0
 11
157.560372
 21
30.5
 31
0.0
  0
TEXT
  5
202
330
1F
100
AcDbEntity
  8
LAYERGROUP-1
  6
CONTINUOUS
 62
     7
100
AcDbText
 10
127.560379
 20
42.5
 30
0.0
 40
4.0
  1
38
 41
0.851351
  7
FX_VECTOR
 72
     5
 11
133.560379
 21
42.5
 31
0.0
100
AcDbText
  0
LINE
  5
203
330
1F
100
AcDbEntity
  8
LAYERGROUP-1
  6
CONTINUOUS
 62
     7
100
AcDbLine
 10
111.560372
 20
41.5
 30
0.0
 11
149.560372
 21
41.5
 31
0.0
  0
INSERT
  5
204
330
1F
100
AcDbEntity
  8
LAYERGROUP-1
  6
CONTINUOUS
 62
     7
100
AcDbBlockReference
  2
FXTIP_ARROW_S
 10
111.560372
 20
41.5
 30
0.0
 41
4.0
 42
4.0
 50
180.0
  0
INSERT
  5
205
330
1F
100
AcDbEntity
  8
LAYERGROUP-1
  6
CONTINUOUS
 62
     7
100
AcDbBlockReference
  2
FXTIP_ARROW_E
 10
149.560372
 20
41.5
 30
0.0
 41
4.0
 42
4.0
 50
360.0
  0
LINE
  5
206
330
1F
100
AcDbEntity
  8
LAYERGROUP-1
  6
CONTINUOUS
 62
     7
100
AcDbLine
 10
111.560372
 20
66.1
 30
0.0
 11
111.560372
 21
40.5
 31
0.0
  0
LINE
  5
207
330
1F
100
AcDbEntity
  8
LAYERGROUP-1
  6
CONTINUOUS
 62
     7
100
AcDbLine
 10
149.560372
 20
65.5
 30
0.0
 11
149.560372
 21
40.5
 31
0.0
  0
TEXT
  5
208
330
1F
100
AcDbEntity
  8
GR1-1
  6
CONTINUOUS
 62
     7
100
AcDbText
 10
331.05368
 20
249.93335
 30
0.0
 40
4.0
  1
102
 41
0.828947
  7
FX_VECTOR
 72
     5
 11
340.05368
 21
249.93335
 31
0.0
100
AcDbText
  0
LINE
  5
209
330
1F
100
AcDbEntity
  8
GR1-1
  6
CONTINUOUS
 62
     7
100
AcDbLine
 10
284.553696
 20
288.0
 30
0.0
 11
284.553696
 21
247.933352
 31
0.0
  0
LINE
  5
20A
330
1F
100
AcDbEntity
  8
GR1-1
  6
CONTINUOUS
 62
     7
100
AcDbLine
 10
386.553696
 20
288.0
 30
0.0
 11
386.553696
 21
247.933352
 31
0.0
  0
LINE
  5
20B
330
1F
100
AcDbEntity
  8
GR1-1
  6
CONTINUOUS
 62
     7
100
AcDbLine
 10
284.553696
 20
248.933352
 30
0.0
 11
386.553696
 21
248.933352
 31
0.0
  0
INSERT
  5
20C
330
1F
100
AcDbEntity
  8
GR1-1
  6
CONTINUOUS
 62
     7
100
AcDbBlockReference
  2
FXTIP_ARROW_S
 10
284.553696
 20
248.933352
 30
0.0
 41
4.0
 42
4.0
 50
180.0
  0
INSERT
  5
20D
330
1F
100
AcDbEntity
  8
GR1-1
  6
CONTINUOUS
 62
     7
100
AcDbBlockReference
  2
FXTIP_ARROW_E
 10
386.553696
 20
248.933352
 30
0.0
 41
4.0
 42
4.0
 50
360.0
  0
TEXT
  5
20E
330
1F
100
AcDbEntity
  8
GR1-1
  6
CONTINUOUS
 62
     7
100
AcDbText
 10
332.555725
 20
259.93335
 30
0.0
 40
4.0
  1
80
 41
0.851351
  7
FX_VECTOR
 72
     5
 11
338.555725
 21
259.93335
 31
0.0
100
AcDbText
  0
LINE
  5
20F
330
1F
100
AcDbEntity
  8
GR1-1
  6
CONTINUOUS
 62
     7
100
AcDbLine
 10
295.553696
 20
279.995935
 30
0.0
 11
295.553696
 21
257.933352
 31
0.0
  0
LINE
  5
210
330
1F
100
AcDbEntity
  8
GR1-1
  6
CONTINUOUS
 62
     7
100
AcDbLine
 10
375.557761
 20
279.995935
 30
0.0
 11
375.557761
 21
257.933352
 31
0.0
  0
LINE
  5
211
330
1F
100
AcDbEntity
  8
GR1-1
  6
CONTINUOUS
 62
     7
100
AcDbLine
 10
295.553696
 20
258.933352
 30
0.0
 11
375.557761
 21
258.933352
 31
0.0
  0
INSERT
  5
212
330
1F
100
AcDbEntity
  8
GR1-1
  6
CONTINUOUS
 62
     7
100
AcDbBlockReference
  2
FXTIP_ARROW_S
 10
295.553696
 20
258.933352
 30
0.0
 41
4.0
 42
4.0
 50
180.0
  0
INSERT
  5
213
330
1F
100
AcDbEntity
  8
GR1-1
  6
CONTINUOUS
 62
     7
100
AcDbBlockReference
  2
FXTIP_ARROW_E
 10
375.557761
 20
258.933352
 30
0.0
 41
4.0
 42
4.0
 50
360.0
  0
TEXT
  5
214
330
1F
100
AcDbEntity
  8
GR1-1
  6
CONTINUOUS
 62
     7
100
AcDbText
 10
332.555725
 20
269.93335
 30
0.0
 40
4.0
  1
75
 41
0.851351
  7
FX_VECTOR
 72
     5
 11
338.555725
 21
269.93335
 31
0.0
100
AcDbText
  0
LINE
  5
215
330
1F
100
AcDbEntity
  8
GR1-1
  6
CONTINUOUS
 62
     7
100
AcDbLine
 10
298.053696
 20
282.495935
 30
0.0
 11
298.053696
 21
267.933352
 31
0.0
  0
LINE
  5
216
330
1F
100
AcDbEntity
  8
GR1-1
  6
CONTINUOUS
 62
     7
100
AcDbLine
 10
373.057761
 20
282.495935
 30
0.0
 11
373.057761
 21
267.933352
 31
0.0
  0
LINE
  5
217
330
1F
100
AcDbEntity
  8
GR1-1
  6
CONTINUOUS
 62
     7
100
AcDbLine
 10
298.053696
 20
268.933352
 30
0.0
 11
373.057761
 21
268.933352
 31
0.0
  0
INSERT
  5
218
330
1F
100
AcDbEntity
  8
GR1-1
  6
CONTINUOUS
 62
     7
100
AcDbBlockReference
  2
FXTIP_ARROW_S
 10
298.053696
 20
268.933352
 30
0.0
 41
4.0
 42
4.0
 50
180.0
  0
INSERT
  5
219
330
1F
100
AcDbEntity
  8
GR1-1
  6
CONTINUOUS
 62
     7
100
AcDbBlockReference
  2
FXTIP_ARROW_E
 10
373.057761
 20
268.933352
 30
0.0
 41
4.0
 42
4.0
 50
360.0
  0
TEXT
  5
21A
330
1F
100
AcDbEntity
  8
GR1-1
  6
CONTINUOUS
 62
     7
100
AcDbText
 10
415.489227
 20
325.5
 30
0.0
 40
4.0
  1
102
 50
90.0
 41
0.828947
  7
FX_VECTOR
 72
     5
 11
415.489227
 21
334.5
 31
0.0
100
AcDbText
  0
LINE
  5
21B
330
1F
100
AcDbEntity
  8
GR1-1
  6
CONTINUOUS
 62
     7
100
AcDbLine
 10
377.553696
 20
279.0
 30
0.0
 11
417.489229
 21
279.0
 31
0.0
  0
LINE
  5
21C
330
1F
100
AcDbEntity
  8
GR1-1
  6
CONTINUOUS
 62
     7
100
AcDbLine
 10
377.553696
 20
381.0
 30
0.0
 11
417.489229
 21
381.0
 31
0.0
  0
LINE
  5
21D
330
1F
100
AcDbEntity
  8
GR1-1
  6
CONTINUOUS
 62
     7
100
AcDbLine
 10
416.489229
 20
279.0
 30
0.0
 11
416.489229
 21
381.0
 31
0.0
  0
INSERT
  5
21E
330
1F
100
AcDbEntity
  8
GR1-1
  6
CONTINUOUS
 62
     7
100
AcDbBlockReference
  2
FXTIP_ARROW_S
 10
416.489229
 20
279.0
 30
0.0
 41
4.0
 42
4.0
 50
270.0
  0
INSERT
  5
21F
330
1F
100
AcDbEntity
  8
GR1-1
  6
CONTINUOUS
 62
     7
100
AcDbBlockReference
  2
FXTIP_ARROW_E
 10
416.489229
 20
381.0
 30
0.0
 41
4.0
 42
4.0
 50
90.0
  0
TEXT
  5
220
330
1F
100
AcDbEntity
  8
GR1-1
  6
CONTINUOUS
 62
     7
100
AcDbText
 10
405.489227
 20
327.0
 30
0.0
 40
4.0
  1
80
 50
90.0
 41
0.851351
  7
FX_VECTOR
 72
     5
 11
405.489227
 21
333.0
 31
0.0
100
AcDbText
  0
LINE
  5
221
330
1F
100
AcDbEntity
  8
GR1-1
  6
CONTINUOUS
 62
     7
100
AcDbLine
 10
385.557761
 20
290.0
 30
0.0
 11
407.489229
 21
290.0
 31
0.0
  0
LINE
  5
222
330
1F
100
AcDbEntity
  8
GR1-1
  6
CONTINUOUS
 62
     7
100
AcDbLine
 10
385.557761
 20
370.0
 30
0.0
 11
407.489229
 21
370.0
 31
0.0
  0
LINE
  5
223
330
1F
100
AcDbEntity
  8
GR1-1
  6
CONTINUOUS
 62
     7
100
AcDbLine
 10
406.489229
 20
290.0
 30
0.0
 11
406.489229
 21
370.0
 31
0.0
  0
INSERT
  5
224
330
1F
100
AcDbEntity
  8
GR1-1
  6
CONTINUOUS
 62
     7
100
AcDbBlockReference
  2
FXTIP_ARROW_S
 10
406.489229
 20
290.0
 30
0.0
 41
4.0
 42
4.0
 50
270.0
  0
INSERT
  5
225
330
1F
100
AcDbEntity
  8
GR1-1
  6
CONTINUOUS
 62
     7
100
AcDbBlockReference
  2
FXTIP_ARROW_E
 10
406.489229
 20
370.0
 30
0.0
 41
4.0
 42
4.0
 50
90.0
  0
TEXT
  5
226
330
1F
100
AcDbEntity
  8
GR1-1
  6
CONTINUOUS
 62
     7
100
AcDbText
 10
395.489227
 20
327.0
 30
0.0
 40
4.0
  1
75
 50
90.0
 41
0.851351
  7
FX_VECTOR
 72
     5
 11
395.489227
 21
333.0
 31
0.0
100
AcDbText
  0
LINE
  5
227
330
1F
100
AcDbEntity
  8
GR1-1
  6
CONTINUOUS
 62
     7
100
AcDbLine
 10
383.057761
 20
367.5
 30
0.0
 11
397.489229
 21
367.5
 31
0.0
  0
LINE
  5
228
330
1F
100
AcDbEntity
  8
GR1-1
  6
CONTINUOUS
 62
     7
100
AcDbLine
 10
383.057761
 20
292.5
 30
0.0
 11
397.489229
 21
292.5
 31
0.0
  0
LINE
  5
229
330
1F
100
AcDbEntity
  8
GR1-1
  6
CONTINUOUS
 62
     7
100
AcDbLine
 10
396.489229
 20
367.5
 30
0.0
 11
396.489229
 21
292.5
 31
0.0
  0
INSERT
  5
22A
330
1F
100
AcDbEntity
  8
GR1-1
  6
CONTINUOUS
 62
     7
100
AcDbBlockReference
  2
FXTIP_ARROW_S
 10
396.489229
 20
367.5
 30
0.0
 41
4.0
 42
4.0
 50
90.0
  0
INSERT
  5
22B
330
1F
100
AcDbEntity
  8
GR1-1
  6
CONTINUOUS
 62
     7
100
AcDbBlockReference
  2
FXTIP_ARROW_E
 10
396.489229
 20
292.5
 30
0.0
 41
4.0
 42
4.0
 50
270.0
  0
TEXT
  5
22C
330
1F
100
AcDbEntity
  8
GR1-1
  6
CONTINUOUS
 62
     7
100
AcDbText
 10
271.723424
 20
385.352727
 30
0.0
 40
4.0
  1
4-11
 50
45.0
 41
0.818182
  7
FX_VECTOR
 72
     5
 11
280.208705
 21
393.838008
 31
0.0
100
AcDbText
  0
LINE
  5
22D
330
1F
100
AcDbEntity
  8
GR1-1
  6
CONTINUOUS
 62
     7
100
AcDbLine
 10
290.823826
 20
366.676598
 30
0.0
 11
271.935566
 21
385.564858
 31
0.0
  0
LINE
  5
22E
330
1F
100
AcDbEntity
  8
GR1-1
  6
CONTINUOUS
 62
     7
100
AcDbLine
 10
298.884843
 20
374.737615
 30
0.0
 11
279.996583
 21
393.625876
 31
0.0
  0
LINE
  5
22F
330
1F
100
AcDbEntity
  8
GR1-1
  6
CONTINUOUS
 62
     7
100
AcDbLine
 10
272.642672
 20
384.857752
 30
0.0
 11
280.70369
 21
392.918769
 31
0.0
  0
INSERT
  5
230
330
1F
100
AcDbEntity
  8
GR1-1
  6
CONTINUOUS
 62
     7
100
AcDbBlockReference
  2
FXTIP_ARROW_S
 10
272.642672
 20
384.857752
 30
0.0
 41
4.0
 42
4.0
 50
225.0
  0
INSERT
  5
231
330
1F
100
AcDbEntity
  8
GR1-1
  6
CONTINUOUS
 62
     7
100
AcDbBlockReference
  2
FXTIP_ARROW_E
 10
280.70369
 20
392.918769
 30
0.0
 41
4.0
 42
4.0
 50
45.0
  0
TEXT
  5
232
330
1F
100
AcDbEntity
  8
GR1-1
  6
CONTINUOUS
 62
     7
100
AcDbText
 10
313.560364
 20
42.248795
 30
0.0
 40
4.0
  1
38
 41
0.851351
  7
STYLE1
 72
     5
 11
319.560364
 21
42.248795
 31
0.0
100
AcDbText
  0
LINE
  5
233
330
1F
100
AcDbEntity
  8
GR1-1
  6
CONTINUOUS
 62
     7
100
AcDbLine
 10
297.560372
 20
47.680285
 30
0.0
 11
297.560372
 21
40.248795
 31
0.0
  0
LINE
  5
234
330
1F
100
AcDbEntity
  8
GR1-1
  6
CONTINUOUS
 62
     7
100
AcDbLine
 10
335.560372
 20
127.61712
 30
0.0
 11
335.560372
 21
40.248795
 31
0.0
  0
LINE
  5
235
330
1F
100
AcDbEntity
  8
GR1-1
  6
CONTINUOUS
 62
     7
100
AcDbLine
 10
297.560372
 20
41.248795
 30
0.0
 11
335.560372
 21
41.248795
 31
0.0
  0
INSERT
  5
236
330
1F
100
AcDbEntity
  8
GR1-1
  6
CONTINUOUS
 62
     7
100
AcDbBlockReference
  2
FXTIP_ARROW_S
 10
297.560372
 20
41.248795
 30
0.0
 41
4.0
 42
4.0
 50
180.0
  0
INSERT
  5
237
330
1F
100
AcDbEntity
  8
GR1-1
  6
CONTINUOUS
 62
     7
100
AcDbBlockReference
  2
FXTIP_ARROW_E
 10
335.560372
 20
41.248795
 30
0.0
 41
4.0
 42
4.0
 50
360.0
  0
LINE
  5
238
330
1F
100
AcDbEntity
  8
GR1-1
  6
CONTINUOUS
 62
     7
100
AcDbLine
 10
261.750035
 20
78.289319
 30
0.0
 11
261.350583
 21
78.268385
 31
0.0
  0
LINE
  5
239
330
1F
100
AcDbEntity
  8
GR1-1
  6
CONTINUOUS
 62
     7
100
AcDbLine
 10
261.960228
 20
78.100061
 30
0.0
 11
261.161324
 21
78.058192
 31
0.0
  0
LINE
  5
23A
330
1F
100
AcDbEntity
  8
GR1-1
  6
CONTINUOUS
 62
     7
100
AcDbLine
 10
262.170421
 20
77.910802
 30
0.0
 11
260.972065
 21
77.847999
 31
0.0
  0
LINE
  5
23B
330
1F
100
AcDbEntity
  8
GR1-1
  6
CONTINUOUS
 62
     7
100
AcDbLine
 10
262.380614
 20
77.721543
 30
0.0
 11
260.782807
 21
77.637806
 31
0.0
  0
LINE
  5
23C
330
1F
100
AcDbEntity
  8
GR1-1
  6
CONTINUOUS
 62
     7
100
AcDbLine
 10
262.590807
 20
77.532285
 30
0.0
 11
261.212879
 21
77.46007
 31
0.0
  0
LINE
  5
23D
330
1F
100
AcDbEntity
  8
GR1-1
  6
CONTINUOUS
 62
     7
100
AcDbLine
 10
260.835856
 20
77.440311
 30
0.0
 11
260.593548
 21
77.427613
 31
0.0
  0
LINE
  5
23E
330
1F
100
AcDbEntity
  8
GR1-1
  6
CONTINUOUS
 62
     7
100
AcDbLine
 10
262.801
 20
77.343026
 30
0.0
 11
261.423072
 21
77.270812
 31
0.0
  0
LINE
  5
23F
330
1F
100
AcDbEntity
  8
GR1-1
  6
CONTINUOUS
 62
     7
100
AcDbLine
 10
260.646597
 20
77.230118
 30
0.0
 11
260.404289
 21
77.21742
 31
0.0
  0
LINE
  5
240
330
1F
100
AcDbEntity
  8
GR1-1
  6
CONTINUOUS
 62
     7
100
AcDbLine
 10
263.011193
 20
77.153767
 30
0.0
 11
261.633265
 21
77.081553
 31
0.0
  0
LINE
  5
241
330
1F
100
AcDbEntity
  8
GR1-1
  6
CONTINUOUS
 62
     7
100
AcDbLine
 10
260.457339
 20
77.019925
 30
0.0
 11
260.21503
 21
77.007226
 31
0.0
  0
LINE
  5
242
330
1F
100
AcDbEntity
  8
GR1-1
  6
CONTINUOUS
 62
     7
100
AcDbLine
 10
263.221386
 20
76.964508
 30
0.0
 11
261.680355
 21
76.883746
 31
0.0
  0
LINE
  5
243
330
1F
100
AcDbEntity
  8
GR1-1
  6
CONTINUOUS
 62
     7
100
AcDbLine
 10
260.26808
 20
76.809732
 30
0.0
 11
260.025772
 21
76.797033
 31
0.0
  0
LINE
  5
244
330
1F
100
AcDbEntity
  8
GR1-1
  6
CONTINUOUS
 62
     7
100
AcDbLine
 10
263.431579
 20
76.77525
 30
0.0
 11
261.491097
 21
76.673553
 31
0.0
  0
LINE
  5
245
330
1F
100
AcDbEntity
  8
GR1-1
  6
CONTINUOUS
 62
     7
100
AcDbLine
 10
260.078821
 20
76.599539
 30
0.0
 11
259.836513
 21
76.58684
 31
0.0
  0
LINE
  5
246
330
1F
100
AcDbEntity
  8
GR1-1
  6
CONTINUOUS
 62
     7
100
AcDbLine
 10
263.641772
 20
76.585991
 30
0.0
 11
261.301838
 21
76.46336
 31
0.0
  0
LINE
  5
247
330
1F
100
AcDbEntity
  8
GR1-1
  6
CONTINUOUS
 62
     7
100
AcDbLine
 10
259.889562
 20
76.389346
 30
0.0
 11
259.647254
 21
76.376647
 31
0.0
  0
LINE
  5
248
330
1F
100
AcDbEntity
  8
GR1-1
  6
CONTINUOUS
 62
     7
100
AcDbLine
 10
263.851965
 20
76.396732
 30
0.0
 11
261.229286
 21
76.259283
 31
0.0
  0
LINE
  5
249
330
1F
100
AcDbEntity
  8
GR1-1
  6
CONTINUOUS
 62
     7
100
AcDbLine
 10
259.700304
 20
76.179153
 30
0.0
 11
259.457996
 21
76.166454
 31
0.0
  0
LINE
  5
24A
330
1F
100
AcDbEntity
  8
GR1-1
  6
CONTINUOUS
 62
     7
100
AcDbLine
 10
264.062159
 20
76.207474
 30
0.0
 11
263.662707
 21
76.186539
 31
0.0
  0
LINE
  5
24B
330
1F
100
AcDbEntity
  8
GR1-1
  6
CONTINUOUS
 62
     7
100
AcDbLine
 10
259.825332
 20
75.985431
 30
0.0
 11
259.268737
 21
75.956261
 31
0.0
  0
LINE
  5
24C
330
1F
100
AcDbEntity
  8
GR1-1
  6
CONTINUOUS
 62
     7
100
AcDbLine
 10
264.272352
 20
76.018215
 30
0.0
 11
263.673174
 21
75.986813
 31
0.0
  0
LINE
  5
24D
330
1F
100
AcDbEntity
  8
GR1-1
  6
CONTINUOUS
 62
     7
100
AcDbLine
 10
260.035525
 20
75.796172
 30
0.0
 11
259.079478
 21
75.746068
 31
0.0
  0
LINE
  5
24E
330
1F
100
AcDbEntity
  8
GR1-1
  6
CONTINUOUS
 62
     7
100
AcDbLine
 10
264.482545
 20
75.828956
 30
0.0
 11
263.683641
 21
75.787087
 31
0.0
  0
LINE
  5
24F
330
1F
100
AcDbEntity
  8
GR1-1
  6
CONTINUOUS
 62
     7
100
AcDbLine
 10
260.245718
 20
75.606913
 30
0.0
 11
259.822036
 21
75.584709
 31
0.0
  0
LINE
  5
250
330
1F
100
AcDbEntity
  8
GR1-1
  6
CONTINUOUS
 62
     7
100
AcDbLine
 10
259.689123
 20
75.577744
 30
0.0
 11
258.890219
 21
75.535875
 31
0.0
  0
LINE
  5
251
330
1F
100
AcDbEntity
  8
GR1-1
  6
CONTINUOUS
 62
     7
100
AcDbLine
 10
264.692738
 20
75.639697
 30
0.0
 11
263.694108
 21
75.587361
 31
0.0
  0
LINE
  5
252
330
1F
100
AcDbEntity
  8
GR1-1
  6
CONTINUOUS
 62
     7
100
AcDbLine
 10
260.455912
 20
75.417655
 30
0.0
 11
260.032229
 21
75.39545
 31
0.0
  0
LINE
  5
253
330
1F
100
AcDbEntity
  8
GR1-1
  6
CONTINUOUS
 62
     7
100
AcDbLine
 10
259.69959
 20
75.378018
 30
0.0
 11
258.700961
 21
75.325682
 31
0.0
  0
LINE
  5
254
330
1F
100
AcDbEntity
  8
GR1-1
  6
CONTINUOUS
 62
     7
100
AcDbLine
 10
264.902931
 20
75.450439
 30
0.0
 11
263.704576
 21
75.387636
 31
0.0
  0
LINE
  5
255
330
1F
100
AcDbEntity
  8
GR1-1
  6
CONTINUOUS
 62
     7
100
AcDbLine
 10
260.666105
 20
75.228396
 30
0.0
 11
260.242422
 21
75.206192
 31
0.0
  0
LINE
  5
256
330
1F
100
AcDbEntity
  8
GR1-1
  6
CONTINUOUS
 62
     7
100
AcDbLine
 10
259.710057
 20
75.178292
 30
0.0
 11
258.511702
 21
75.115489
 31
0.0
  0
LINE
  5
257
330
1F
100
AcDbEntity
  8
GR1-1
  6
CONTINUOUS
 62
     7
100
AcDbLine
 10
265.113124
 20
75.26118
 30
0.0
 11
263.715043
 21
75.18791
 31
0.0
  0
LINE
  5
258
330
1F
100
AcDbEntity
  8
GR1-1
  6
CONTINUOUS
 62
     7
100
AcDbLine
 10
262.716413
 20
75.135574
 30
0.0
 11
261.584581
 21
75.076257
 31
0.0
  0
LINE
  5
259
330
1F
100
AcDbEntity
  8
GR1-1
  6
CONTINUOUS
 62
     7
100
AcDbLine
 10
260.876298
 20
75.039137
 30
0.0
 11
260.452615
 21
75.016933
 31
0.0
  0
LINE
  5
25A
330
1F
100
AcDbEntity
  8
GR1-1
  6
CONTINUOUS
 62
     7
100
AcDbLine
 10
259.720525
 20
74.978566
 30
0.0
 11
258.322443
 21
74.905295
 31
0.0
  0
LINE
  5
25B
330
1F
100
AcDbEntity
  8
GR1-1
  6
CONTINUOUS
 62
     7
100
AcDbLine
 10
265.323317
 20
75.071921
 30
0.0
 11
263.72551
 21
74.988184
 31
0.0
  0
LINE
  5
25C
330
1F
100
AcDbEntity
  8
GR1-1
  6
CONTINUOUS
 62
     7
100
AcDbLine
 10
262.72688
 20
74.935848
 30
0.0
 11
261.792629
 21
74.886886
 31
0.0
  0
LINE
  5
25D
330
1F
100
AcDbEntity
  8
GR1-1
  6
CONTINUOUS
 62
     7
100
AcDbLine
 10
261.086491
 20
74.849879
 30
0.0
 11
260.662808
 21
74.827674
 31
0.0
  0
LINE
  5
25E
330
1F
100
AcDbEntity
  8
GR1-1
  6
CONTINUOUS
 62
     7
100
AcDbLine
 10
259.730992
 20
74.77884
 30
0.0
 11
258.133185
 21
74.695102
 31
0.0
  0
LINE
  5
25F
330
1F
100
AcDbEntity
  8
GR1-1
  6
CONTINUOUS
 62
     7
100
AcDbLine
 10
265.53351
 20
74.882663
 30
0.0
 11
263.735977
 21
74.788458
 31
0.0
  0
LINE
  5
260
330
1F
100
AcDbEntity
  8
GR1-1
  6
CONTINUOUS
 62
     7
100
AcDbLine
 10
262.737348
 20
74.736122
 30
0.0
 11
262.002822
 21
74.697627
 31
0.0
  0
LINE
  5
261
330
1F
100
AcDbEntity
  8
GR1-1
  6
CONTINUOUS
 62
     7
100
AcDbLine
 10
261.296684
 20
74.66062
 30
0.0
 11
260.740089
 21
74.63145
 31
0.0
  0
LINE
  5
262
330
1F
100
AcDbEntity
  8
GR1-1
  6
CONTINUOUS
 62
     7
100
AcDbLine
 10
259.741459
 20
74.579114
 30
0.0
 11
257.943926
 21
74.484909
 31
0.0
  0
LINE
  5
263
330
1F
100
AcDbEntity
  8
GR1-1
  6
CONTINUOUS
 62
     7
100
AcDbLine
 10
265.743703
 20
74.693404
 30
0.0
 11
263.746444
 21
74.588732
 31
0.0
  0
LINE
  5
264
330
1F
100
AcDbEntity
  8
GR1-1
  6
CONTINUOUS
 62
     7
100
AcDbLine
 10
262.747815
 20
74.536396
 30
0.0
 11
261.991493
 21
74.496759
 31
0.0
  0
LINE
  5
265
330
1F
100
AcDbEntity
  8
GR1-1
  6
CONTINUOUS
 62
     7
100
AcDbLine
 10
261.506877
 20
74.471361
 30
0.0
 11
260.750556
 21
74.431724
 31
0.0
  0
LINE
  5
266
330
1F
100
AcDbEntity
  8
GR1-1
  6
CONTINUOUS
 62
     7
100
AcDbLine
 10
259.751926
 20
74.379388
 30
0.0
 11
257.754667
 21
74.274716
 31
0.0
  0
LINE
  5
267
330
1F
100
AcDbEntity
  8
GR1-1
  6
CONTINUOUS
 62
     7
100
AcDbLine
 10
265.953896
 20
74.504145
 30
0.0
 11
263.756912
 21
74.389006
 31
0.0
  0
LINE
  5
268
330
1F
100
AcDbEntity
  8
GR1-1
  6
CONTINUOUS
 62
     7
100
AcDbLine
 10
262.758282
 20
74.33667
 30
0.0
 11
261.802235
 21
74.286566
 31
0.0
  0
LINE
  5
269
330
1F
100
AcDbEntity
  8
GR1-1
  6
CONTINUOUS
 62
     7
100
AcDbLine
 10
261.71707
 20
74.282102
 30
0.0
 11
260.761023
 21
74.231998
 31
0.0
  0
LINE
  5
26A
330
1F
100
AcDbEntity
  8
GR1-1
  6
CONTINUOUS
 62
     7
100
AcDbLine
 10
259.762393
 20
74.179662
 30
0.0
 11
257.565408
 21
74.064523
 31
0.0
  0
LINE
  5
26B
330
1F
100
AcDbEntity
  8
GR1-1
  6
CONTINUOUS
 62
     7
100
AcDbLine
 10
265.849802
 20
74.298415
 30
0.0
 11
263.767379
 21
74.18928
 31
0.0
  0
LINE
  5
26C
330
1F
100
AcDbEntity
  8
GR1-1
  6
CONTINUOUS
 62
     7
100
AcDbLine
 10
262.768749
 20
74.136944
 30
0.0
 11
260.77149
 21
74.032272
 31
0.0
  0
LINE
  5
26D
330
1F
100
AcDbEntity
  8
GR1-1
  6
CONTINUOUS
 62
     7
100
AcDbLine
 10
259.772861
 20
73.979936
 30
0.0
 11
257.690437
 21
73.870801
 31
0.0
  0
LINE
  5
26E
330
1F
100
AcDbEntity
  8
GR1-1
  6
CONTINUOUS
 62
     7
100
AcDbLine
 10
265.660544
 20
74.088222
 30
0.0
 11
263.777846
 21
73.989554
 31
0.0
  0
LINE
  5
26F
330
1F
100
AcDbEntity
  8
GR1-1
  6
CONTINUOUS
 62
     7
100
AcDbLine
 10
262.779216
 20
73.937218
 30
0.0
 11
260.781957
 21
73.832546
 31
0.0
  0
LINE
  5
270
330
1F
100
AcDbEntity
  8
GR1-1
  6
CONTINUOUS
 62
     7
100
AcDbLine
 10
259.783328
 20
73.78021
 30
0.0
 11
257.90063
 21
73.681542
 31
0.0
  0
LINE
  5
271
330
1F
100
AcDbEntity
  8
GR1-1
  6
CONTINUOUS
 62
     7
100
AcDbLine
 10
265.471285
 20
73.878029
 30
0.0
 11
263.788313
 21
73.789828
 31
0.0
  0
LINE
  5
272
330
1F
100
AcDbEntity
  8
GR1-1
  6
CONTINUOUS
 62
     7
100
AcDbLine
 10
262.789684
 20
73.737492
 30
0.0
 11
260.792424
 21
73.63282
 31
0.0
  0
LINE
  5
273
330
1F
100
AcDbEntity
  8
GR1-1
  6
CONTINUOUS
 62
     7
100
AcDbLine
 10
259.793795
 20
73.580484
 30
0.0
 11
258.110823
 21
73.492284
 31
0.0
  0
LINE
  5
274
330
1F
100
AcDbEntity
  8
GR1-1
  6
CONTINUOUS
 62
     7
100
AcDbLine
 10
265.282026
 20
73.667836
 30
0.0
 11
263.79878
 21
73.590102
 31
0.0
  0
LINE
  5
275
330
1F
100
AcDbEntity
  8
GR1-1
  6
CONTINUOUS
 62
     7
100
AcDbLine
 10
262.800151
 20
73.537766
 30
0.0
 11
260.802892
 21
73.433095
 31
0.0
  0
LINE
  5
276
330
1F
100
AcDbEntity
  8
GR1-1
  6
CONTINUOUS
 62
     7
100
AcDbLine
 10
259.804262
 20
73.380759
 30
0.0
 11
258.321016
 21
73.303025
 31
0.0
  0
LINE
  5
277
330
1F
100
AcDbEntity
  8
GR1-1
  6
CONTINUOUS
 62
     7
100
AcDbLine
 10
265.092767
 20
73.457643
 30
0.0
 11
263.809247
 21
73.390376
 31
0.0
  0
LINE
  5
278
330
1F
100
AcDbEntity
  8
GR1-1
  6
CONTINUOUS
 62
     7
100
AcDbLine
 10
262.810618
 20
73.338041
 30
0.0
 11
260.813359
 21
73.233369
 31
0.0
  0
LINE
  5
279
330
1F
100
AcDbEntity
  8
GR1-1
  6
CONTINUOUS
 62
     7
100
AcDbLine
 10
259.814729
 20
73.181033
 30
0.0
 11
258.531209
 21
73.113766
 31
0.0
  0
LINE
  5
27A
330
1F
100
AcDbEntity
  8
GR1-1
  6
CONTINUOUS
 62
     7
100
AcDbLine
 10
264.903509
 20
73.24745
 30
0.0
 11
263.819715
 21
73.190651
 31
0.0
  0
LINE
  5
27B
330
1F
100
AcDbEntity
  8
GR1-1
  6
CONTINUOUS
 62
     7
100
AcDbLine
 10
259.825197
 20
72.981307
 30
0.0
 11
258.741402
 21
72.924507
 31
0.0
  0
LINE
  5
27C
330
1F
100
AcDbEntity
  8
GR1-1
  6
CONTINUOUS
 62
     7
100
AcDbLine
 10
264.71425
 20
73.037257
 30
0.0
 11
263.830182
 21
72.990925
 31
0.0
  0
LINE
  5
27D
330
1F
100
AcDbEntity
  8
GR1-1
  6
CONTINUOUS
 62
     7
100
AcDbLine
 10
259.835664
 20
72.781581
 30
0.0
 11
258.951596
 21
72.735249
 31
0.0
  0
LINE
  5
27E
330
1F
100
AcDbEntity
  8
GR1-1
  6
CONTINUOUS
 62
     7
100
AcDbLine
 10
264.524991
 20
72.827064
 30
0.0
 11
263.840649
 21
72.791199
 31
0.0
  0
LINE
  5
27F
330
1F
100
AcDbEntity
  8
GR1-1
  6
CONTINUOUS
 62
     7
100
AcDbLine
 10
259.846131
 20
72.581855
 30
0.0
 11
259.161789
 21
72.54599
 31
0.0
  0
LINE
  5
280
330
1F
100
AcDbEntity
  8
GR1-1
  6
CONTINUOUS
 62
     7
100
AcDbLine
 10
264.335733
 20
72.616871
 30
0.0
 11
263.851116
 21
72.591473
 31
0.0
  0
LINE
  5
281
330
1F
100
AcDbEntity
  8
GR1-1
  6
CONTINUOUS
 62
     7
100
AcDbLine
 10
259.856598
 20
72.382129
 30
0.0
 11
259.371982
 21
72.356731
 31
0.0
  0
LINE
  5
282
330
1F
100
AcDbEntity
  8
GR1-1
  6
CONTINUOUS
 62
     7
100
AcDbLine
 10
264.146474
 20
72.406677
 30
0.0
 11
263.861583
 21
72.391747
 31
0.0
  0
LINE
  5
283
330
1F
100
AcDbEntity
  8
GR1-1
  6
CONTINUOUS
 62
     7
100
AcDbLine
 10
259.867065
 20
72.182403
 30
0.0
 11
259.582175
 21
72.167473
 31
0.0
  0
LINE
  5
284
330
1F
100
AcDbEntity
  8
GR1-1
  6
CONTINUOUS
 62
     7
100
AcDbLine
 10
263.957215
 20
72.196484
 30
0.0
 11
259.792368
 21
71.978214
 31
0.0
  0
LINE
  5
285
330
1F
100
AcDbEntity
  8
GR1-1
  6
CONTINUOUS
 62
     7
100
AcDbLine
 10
263.767956
 20
71.986291
 30
0.0
 11
260.002561
 21
71.788955
 31
0.0
  0
LINE
  5
286
330
1F
100
AcDbEntity
  8
GR1-1
  6
CONTINUOUS
 62
     7
100
AcDbLine
 10
263.578698
 20
71.776098
 30
0.0
 11
260.212754
 21
71.599696
 31
0.0
  0
LINE
  5
287
330
1F
100
AcDbEntity
  8
GR1-1
  6
CONTINUOUS
 62
     7
100
AcDbLine
 10
263.389439
 20
71.565905
 30
0.0
 11
260.422947
 21
71.410438
 31
0.0
  0
LINE
  5
288
330
1F
100
AcDbEntity
  8
GR1-1
  6
CONTINUOUS
 62
     7
100
AcDbLine
 10
263.20018
 20
71.355712
 30
0.0
 11
260.63314
 21
71.221179
 31
0.0
  0
LINE
  5
289
330
1F
100
AcDbEntity
  8
GR1-1
  6
CONTINUOUS
 62
     7
100
AcDbLine
 10
263.010922
 20
71.145519
 30
0.0
 11
260.843333
 21
71.03192
 31
0.0
  0
LINE
  5
28A
330
1F
100
AcDbEntity
  8
GR1-1
  6
CONTINUOUS
 62
     7
100
AcDbLine
 10
262.821663
 20
70.935326
 30
0.0
 11
261.053527
 21
70.842662
 31
0.0
  0
LINE
  5
28B
330
1F
100
AcDbEntity
  8
GR1-1
  6
CONTINUOUS
 62
     7
100
AcDbLine
 10
262.632404
 20
70.725133
 30
0.0
 11
261.26372
 21
70.653403
 31
0.0
  0
LINE
  5
28C
330
1F
100
AcDbEntity
  8
GR1-1
  6
CONTINUOUS
 62
     7
100
AcDbLine
 10
262.443145
 20
70.51494
 30
0.0
 11
261.473913
 21
70.464144
 31
0.0
  0
LINE
  5
28D
330
1F
100
AcDbEntity
  8
GR1-1
  6
CONTINUOUS
 62
     7
100
AcDbLine
 10
262.253887
 20
70.304746
 30
0.0
 11
261.684106
 21
70.274885
 31
0.0
  0
LINE
  5
28E
330
1F
100
AcDbEntity
  8
GR1-1
  6
CONTINUOUS
 62
     7
100
AcDbLine
 10
262.064628
 20
70.094553
 30
0.0
 11
261.894299
 21
70.085627
 31
0.0
  0
TEXT
  5
28F
330
1F
100
AcDbEntity
  8
LAYERGROUP-1
  6
CONTINUOUS
 62
     7
100
AcDbText
 10
178.966537
 20
108.0
 30
0.0
 40
4.0
  1
%%c125
 50
90.0
 41
0.828947
  7
FX_VECTOR
 72
     5
 11
178.966537
 21
120.0
 31
0.0
100
AcDbText
  0
LINE
  5
290
330
1F
100
AcDbEntity
  8
LAYERGROUP-1
  6
CONTINUOUS
 62
     7
100
AcDbLine
 10
179.966543
 20
51.5
 30
0.0
 11
179.966543
 21
176.5
 31
0.0
  0
INSERT
  5
291
330
1F
100
AcDbEntity
  8
LAYERGROUP-1
  6
CONTINUOUS
 62
     7
100
AcDbBlockReference
  2
FXTIP_ARROW_S
 10
179.966543
 20
51.5
 30
0.0
 41
4.0
 42
4.0
 50
270.0
  0
INSERT
  5
292
330
1F
100
AcDbEntity
  8
LAYERGROUP-1
  6
CONTINUOUS
 62
     7
100
AcDbBlockReference
  2
FXTIP_ARROW_E
 10
179.966543
 20
176.5
 30
0.0
 41
4.0
 42
4.0
 50
90.0
  0
LINE
  5
293
330
1F
100
AcDbEntity
  8
LAYERGROUP-1
  6
CONTINUOUS
 62
     7
100
AcDbLine
 10
131.560372
 20
51.5
 30
0.0
 11
180.966543
 21
51.5
 31
0.0
  0
LINE
  5
294
330
1F
100
AcDbEntity
  8
LAYERGROUP-1
  6
CONTINUOUS
 62
     7
100
AcDbLine
 10
131.560372
 20
176.5
 30
0.0
 11
180.966543
 21
176.5
 31
0.0
  0
LINE
  5
295
330
1F
100
AcDbEntity
  8
LAYERGROUP-1
  6
CONTINUOUS
 62
     3
100
AcDbLine
 10
90.708877
 20
103.030345
 30
0.0
 11
89.860372
 21
104.5
 31
0.0
  0
LINE
  5
296
330
1F
100
AcDbEntity
  8
LAYERGROUP-1
  6
CONTINUOUS
 62
     3
100
AcDbLine
 10
89.860372
 20
104.5
 30
0.0
 11
89.860372
 21
123.5
 31
0.0
  0
LINE
  5
297
330
1F
100
AcDbEntity
  8
LAYERGROUP-1
  6
CONTINUOUS
 62
     3
100
AcDbLine
 10
89.860372
 20
123.5
 30
0.0
 11
90.708877
 21
124.969655
 31
0.0
  0
ARC
  5
298
330
1F
100
AcDbEntity
  8
LAYERGROUP-1
  6
CONTINUOUS
 62
     3
100
AcDbCircle
 10
94.716435
 20
105.772759
 30
0.0
 40
4.856063222003973
100
AcDbArc
 50
145.615753
 51
214.384247
  0
ARC
  5
299
330
1F
100
AcDbEntity
  8
LAYERGROUP-1
  6
CONTINUOUS
 62
     3
100
AcDbCircle
 10
108.011866
 20
114.0
 30
0.0
 40
18.15149422396827
100
AcDbArc
 50
162.412046
 51
197.587954
  0
ARC
  5
29A
330
1F
100
AcDbEntity
  8
LAYERGROUP-1
  6
CONTINUOUS
 62
     3
100
AcDbCircle
 10
94.716435
 20
122.227241
 30
0.0
 40
4.856063222003973
100
AcDbArc
 50
145.615753
 51
214.384247
  0
LINE
  5
29B
330
1F
100
AcDbEntity
  8
LAYERGROUP-1
  6
CONTINUOUS
 62
     3
100
AcDbLine
 10
90.708877
 20
124.969655
 30
0.0
 11
96.011866
 21
124.969655
 31
0.0
  0
LINE
  5
29C
330
1F
100
AcDbEntity
  8
LAYERGROUP-1
  6
CONTINUOUS
 62
     3
100
AcDbLine
 10
96.011866
 20
124.969655
 30
0.0
 11
96.860372
 21
123.5
 31
0.0
  0
LINE
  5
29D
330
1F
100
AcDbEntity
  8
LAYERGROUP-1
  6
CONTINUOUS
 62
     3
100
AcDbLine
 10
96.860372
 20
123.5
 30
0.0
 11
96.860372
 21
104.5
 31
0.0
  0
LINE
  5
29E
330
1F
100
AcDbEntity
  8
LAYERGROUP-1
  6
CONTINUOUS
 62
     3
100
AcDbLine
 10
96.860372
 20
104.5
 30
0.0
 11
96.011866
 21
103.030345
 31
0.0
  0
LINE
  5
29F
330
1F
100
AcDbEntity
  8
LAYERGROUP-1
  6
CONTINUOUS
 62
     3
100
AcDbLine
 10
96.011866
 20
103.030345
 30
0.0
 11
90.708877
 21
103.030345
 31
0.0
  0
ARC
  5
2A0
330
1F
100
AcDbEntity
  8
LAYERGROUP-1
  6
CONTINUOUS
 62
     3
100
AcDbCircle
 10
92.004308
 20
105.772759
 30
0.0
 40
4.856063222003973
100
AcDbArc
 50
-34.384247
 51
34.384247
  0
ARC
  5
2A1
330
1F
100
AcDbEntity
  8
LAYERGROUP-1
  6
CONTINUOUS
 62
     3
100
AcDbCircle
 10
78.708877
 20
114.0
 30
0.0
 40
18.15149422396827
100
AcDbArc
 50
-17.587954
 51
17.587954
  0
ARC
  5
2A2
330
1F
100
AcDbEntity
  8
LAYERGROUP-1
  6
CONTINUOUS
 62
     3
100
AcDbCircle
 10
92.004308
 20
122.227241
 30
0.0
 40
4.856063222003973
100
AcDbArc
 50
-34.384247
 51
34.384247
  0
LINE
  5
2A3
330
1F
100
AcDbEntity
  8
LAYERGROUP-1
  6
CONTINUOUS
 62
     3
100
AcDbLine
 10
90.708877
 20
108.515172
 30
0.0
 11
96.011866
 21
108.515172
 31
0.0
  0
LINE
  5
2A4
330
1F
100
AcDbEntity
  8
LAYERGROUP-1
  6
CONTINUOUS
 62
     3
100
AcDbLine
 10
90.708877
 20
119.484828
 30
0.0
 11
96.011866
 21
119.484828
 31
0.0
  0
TEXT
  5
2A5
330
1F
100
AcDbEntity
  8
LAYERGROUP-1
  6
CONTINUOUS
 62
     7
100
AcDbText
 10
405.524017
 20
131.0
 30
0.0
 40
4.0
  1
168
 50
90.0
 41
0.828947
  7
FX_VECTOR
 72
     5
 11
405.524017
 21
140.0
 31
0.0
100
AcDbText
  0
LINE
  5
2A6
330
1F
100
AcDbEntity
  8
LAYERGROUP-1
  6
CONTINUOUS
 62
     7
100
AcDbLine
 10
406.524006
 20
51.5
 30
0.0
 11
406.524006
 21
219.5
 31
0.0
  0
INSERT
  5
2A7
330
1F
100
AcDbEntity
  8
LAYERGROUP-1
  6
CONTINUOUS
 62
     7
100
AcDbBlockReference
  2
FXTIP_ARROW_S
 10
406.524006
 20
51.5
 30
0.0
 41
4.0
 42
4.0
 50
270.0
  0
INSERT
  5
2A8
330
1F
100
AcDbEntity
  8
LAYERGROUP-1
  6
CONTINUOUS
 62
     7
100
AcDbBlockReference
  2
FXTIP_ARROW_E
 10
406.524006
 20
219.5
 30
0.0
 41
4.0
 42
4.0
 50
90.0
  0
LINE
  5
2A9
330
1F
100
AcDbEntity
  8
LAYERGROUP-1
  6
CONTINUOUS
 62
     7
100
AcDbLine
 10
298.560372
 20
51.5
 30
0.0
 11
407.524006
 21
51.5
 31
0.0
  0
LINE
  5
2AA
330
1F
100
AcDbEntity
  8
LAYERGROUP-1
  6
CONTINUOUS
 62
     7
100
AcDbLine
 10
387.560372
 20
219.5
 30
0.0
 11
407.524006
 21
219.5
 31
0.0
  0
TEXT
  5
2AB
330
1F
100
AcDbEntity
  8
LAYERGROUP-1
  6
CONTINUOUS
 62
     7
100
AcDbText
 10
395.524017
 20
159.25
 30
0.0
 40
4.0
  1
105.5
 50
90.0
 41
0.905172
  7
FX_VECTOR
 72
     5
 11
395.524017
 21
174.25
 31
0.0
100
AcDbText
  0
LINE
  5
2AC
330
1F
100
AcDbEntity
  8
LAYERGROUP-1
  6
CONTINUOUS
 62
     7
100
AcDbLine
 10
396.524006
 20
114.0
 30
0.0
 11
396.524006
 21
219.5
 31
0.0
  0
INSERT
  5
2AD
330
1F
100
AcDbEntity
  8
LAYERGROUP-1
  6
CONTINUOUS
 62
     7
100
AcDbBlockReference
  2
FXTIP_ARROW_S
 10
396.524006
 20
114.0
 30
0.0
 41
4.0
 42
4.0
 50
270.0
  0
INSERT
  5
2AE
330
1F
100
AcDbEntity
  8
LAYERGROUP-1
  6
CONTINUOUS
 62
     7
100
AcDbBlockReference
  2
FXTIP_ARROW_E
 10
396.524006
 20
219.5
 30
0.0
 41
4.0
 42
4.0
 50
90.0
  0
LINE
  5
2AF
330
1F
100
AcDbEntity
  8
LAYERGROUP-1
  6
CONTINUOUS
 62
     7
100
AcDbLine
 10
368.438133
 20
114.0
 30
0.0
 11
397.524006
 21
114.0
 31
0.0
  0
LINE
  5
2B0
330
1F
100
AcDbEntity
  8
}}ﾊﾊGG血CCТ
  6
CONTINUOUS
 62
     7
100
AcDbLine
 10
10.0
 20
10.0
 30
0.0
 11
584.0
 21
10.0
 31
0.0
  0
LINE
  5
2B1
330
1F
100
AcDbEntity
  8
}}ﾊﾊGG血CCТ
  6
CONTINUOUS
 62
     7
100
AcDbLine
 10
10.0
 20
10.0
 30
0.0
 11
10.0
 21
410.0
 31
0.0
  0
LINE
  5
2B2
330
1F
100
AcDbEntity
  8
}}ﾊﾊGG血CCТ
  6
CONTINUOUS
 62
     7
100
AcDbLine
 10
10.0
 20
410.0
 30
0.0
 11
584.0
 21
410.0
 31
0.0
  0
LINE
  5
2B3
330
1F
100
AcDbEntity
  8
}}ﾊﾊGG血CCТ
  6
CONTINUOUS
 62
     7
100
AcDbLine
 10
584.0
 20
410.0
 30
0.0
 11
584.0
 21
10.0
 31
0.0
  0
LINE
  5
2B4
330
1F
100
AcDbEntity
  8
}}ﾊﾊGG血CCТ
  6
CONTINUOUS
 62
     7
100
AcDbLine
 10
327.0
 20
10.0
 30
0.0
 11
327.0
 21
20.0
 31
0.0
  0
TEXT
  5
2B5
330
1F
100
AcDbEntity
  8
}}ﾊﾊGG血CCТ
  6
CONTINUOUS
 62
     7
100
AcDbText
 10
311.738831
 20
11.596879
 30
0.0
 40
6.648749
  1
品名
 41
1.083413
  7
FX_VECTOR
 72
     5
 11
323.058371
 21
11.596879
 31
0.0
100
AcDbText
  0
LINE
  5
2B6
330
1F
100
AcDbEntity
  8
}}ﾊﾊGG血CCТ
  6
CONTINUOUS
 62
     7
100
AcDbLine
 10
407.0
 20
20.0
 30
0.0
 11
407.0
 21
10.0
 31
0.0
  0
LINE
  5
2B7
330
1F
100
AcDbEntity
  8
}}ﾊﾊGG血CCТ
  6
CONTINUOUS
 62
     7
100
AcDbLine
 10
307.0
 20
20.0
 30
0.0
 11
584.0
 21
20.0
 31
0.0
  0
TEXT
  5
2B8
330
1F
100
AcDbEntity
  8
}}ﾊﾊGG血CCТ
  6
CONTINUOUS
 62
     7
100
AcDbText
 10
523.225769
 20
11.461285
 30
0.0
 40
6.0
  1
GOLD CASTER
 41
0.719626
  7
FX_VECTOR
 72
     5
 11
567.225769
 21
11.461285
 31
0.0
100
AcDbText
  0
LINE
  5
2B9
330
1F
100
AcDbEntity
  8
}}ﾊﾊGG血CCТ
  6
CONTINUOUS
 62
     7
100
AcDbLine
 10
427.0
 20
10.0
 30
0.0
 11
427.0
 21
20.0
 31
0.0
  0
TEXT
  5
2BA
330
1F
100
AcDbEntity
  8
}}ﾊﾊGG血CCТ
  6
CONTINUOUS
 62
     7
100
AcDbText
 10
411.738831
 20
11.596879
 30
0.0
 40
6.648749
  1
図番
 41
1.083413
  7
FX_VECTOR
 72
     5
 11
423.058371
 21
11.596879
 31
0.0
100
AcDbText
  0
LINE
  5
2BB
330
1F
100
AcDbEntity
  8
}}ﾊﾊGG血CCТ
  6
CONTINUOUS
 62
     7
100
AcDbLine
 10
507.0
 20
20.0
 30
0.0
 11
507.0
 21
10.0
 31
0.0
  0
LINE
  5
2BC
330
1F
100
AcDbEntity
  8
}}ﾊﾊGG血CCТ
  6
CONTINUOUS
 62
     7
100
AcDbLine
 10
307.0
 20
20.0
 30
0.0
 11
307.0
 21
10.0
 31
0.0
  0
LINE
  5
2BE
330
1F
100
AcDbEntity
  8
0-1
  6
CONTINUOUS
 62
     7
100
AcDbLine
 10
518.8019
 20
17.913462
 30
0.0
 11
512.8019
 21
17.913462
 31
0.0
  0
LINE
  5
2BF
330
1F
100
AcDbEntity
  8
0-1
  6
CONTINUOUS
 62
     7
100
AcDbLine
 10
512.8019
 20
17.913462
 30
0.0
 11
512.8019
 21
11.913462
 31
0.0
  0
LINE
  5
2C0
330
1F
100
AcDbEntity
  8
0-1
  6
CONTINUOUS
 62
     7
100
AcDbLine
 10
512.8019
 20
11.913462
 30
0.0
 11
518.8019
 21
11.913462
 31
0.0
  0
LINE
  5
2C1
330
1F
100
AcDbEntity
  8
0-1
  6
CONTINUOUS
 62
     7
100
AcDbLine
 10
518.8019
 20
11.913462
 30
0.0
 11
518.8019
 21
17.913462
 31
0.0
  0
LINE
  5
2C2
330
1F
100
AcDbEntity
  8
0-1
  6
CONTINUOUS
 62
     7
100
AcDbLine
 10
518.224977
 20
15.346154
 30
0.0
 11
515.8019
 21
17.769231
 31
0.0
  0
LINE
  5
2C3
330
1F
100
AcDbEntity
  8
0-1
  6
CONTINUOUS
 62
     7
100
AcDbLine
 10
515.8019
 20
17.769231
 30
0.0
 11
512.946131
 21
14.913462
 31
0.0
  0
LINE
  5
2C4
330
1F
100
AcDbEntity
  8
0-1
  6
CONTINUOUS
 62
     7
100
AcDbLine
 10
512.946131
 20
14.913462
 30
0.0
 11
515.8019
 21
12.057692
 31
0.0
  0
LINE
  5
2C5
330
1F
100
AcDbEntity
  8
0-1
  6
CONTINUOUS
 62
     7
100
AcDbLine
 10
515.8019
 20
12.057692
 30
0.0
 11
517.359592
 21
13.615385
 31
0.0
  0
LINE
  5
2C6
330
1F
100
AcDbEntity
  8
0-1
  6
CONTINUOUS
 62
     7
100
AcDbLine
 10
517.359592
 20
13.615385
 30
0.0
 11
517.359592
 21
12.980769
 31
0.0
  0
LINE
  5
2C7
330
1F
100
AcDbEntity
  8
0-1
  6
CONTINUOUS
 62
     7
100
AcDbLine
 10
517.359592
 20
12.980769
 30
0.0
 11
518.224977
 21
12.980769
 31
0.0
  0
LINE
  5
2C8
330
1F
100
AcDbEntity
  8
0-1
  6
CONTINUOUS
 62
     7
100
AcDbLine
 10
518.224977
 20
12.980769
 30
0.0
 11
518.224977
 21
15.0
 31
0.0
  0
LINE
  5
2C9
330
1F
100
AcDbEntity
  8
0-1
  6
CONTINUOUS
 62
     7
100
AcDbLine
 10
518.224977
 20
15.0
 30
0.0
 11
515.8019
 21
15.0
 31
0.0
  0
LINE
  5
2CA
330
1F
100
AcDbEntity
  8
0-1
  6
CONTINUOUS
 62
     7
100
AcDbLine
 10
515.8019
 20
15.0
 30
0.0
 11
515.8019
 21
14.134615
 31
0.0
  0
LINE
  5
2CB
330
1F
100
AcDbEntity
  8
0-1
  6
CONTINUOUS
 62
     7
100
AcDbLine
 10
515.8019
 20
14.134615
 30
0.0
 11
516.246131
 21
14.134615
 31
0.0
  0
LINE
  5
2CC
330
1F
100
AcDbEntity
  8
0-1
  6
CONTINUOUS
 62
     7
100
AcDbLine
 10
516.246131
 20
14.134615
 30
0.0
 11
515.8019
 21
13.690385
 31
0.0
  0
LINE
  5
2CD
330
1F
100
AcDbEntity
  8
0-1
  6
CONTINUOUS
 62
     7
100
AcDbLine
 10
515.8019
 20
13.690385
 30
0.0
 11
514.578823
 21
14.913462
 31
0.0
  0
LINE
  5
2CE
330
1F
100
AcDbEntity
  8
0-1
  6
CONTINUOUS
 62
     7
100
AcDbLine
 10
514.578823
 20
14.913462
 30
0.0
 11
515.8019
 21
16.136538
 31
0.0
  0
LINE
  5
2CF
330
1F
100
AcDbEntity
  8
0-1
  6
CONTINUOUS
 62
     7
100
AcDbLine
 10
515.8019
 20
16.136538
 30
0.0
 11
516.592284
 21
15.346154
 31
0.0
  0
LINE
  5
2D0
330
1F
100
AcDbEntity
  8
0-1
  6
CONTINUOUS
 62
     7
100
AcDbLine
 10
516.592284
 20
15.346154
 30
0.0
 11
518.224977
 21
15.346154
 31
0.0
  0
LINE
  5
2D1
330
1F
100
AcDbEntity
  8
GR1-1
  6
CONTINUOUS
 62
     7
100
AcDbLine
 10
513.72238
 20
11.913462
 30
0.0
 11
514.834255
 21
13.025337
 31
0.0
  0
LINE
  5
2D2
330
1F
100
AcDbEntity
  8
GR1-1
  6
CONTINUOUS
 62
     7
100
AcDbLine
 10
515.650601
 20
13.841683
 30
0.0
 11
515.943534
 21
14.134615
 31
0.0
  0
LINE
  5
2D3
330
1F
100
AcDbEntity
  8
GR1-1
  6
CONTINUOUS
 62
     7
100
AcDbLine
 10
516.808918
 20
15.0
 30
0.0
 11
517.155072
 21
15.346154
 31
0.0
  0
LINE
  5
2D4
330
1F
100
AcDbEntity
  8
GR1-1
  6
CONTINUOUS
 62
     7
100
AcDbLine
 10
517.690024
 20
15.881106
 30
0.0
 11
518.8019
 21
16.992981
 31
0.0
  0
LINE
  5
2D5
330
1F
100
AcDbEntity
  8
GR1-1
  6
CONTINUOUS
 62
     7
100
AcDbLine
 10
513.651669
 20
11.913462
 30
0.0
 11
514.7989
 21
13.060692
 31
0.0
  0
LINE
  5
2D6
330
1F
100
AcDbEntity
  8
GR1-1
  6
CONTINUOUS
 62
     7
100
AcDbLine
 10
515.615246
 20
13.877038
 30
0.0
 11
515.872823
 21
14.134615
 31
0.0
  0
LINE
  5
2D7
330
1F
100
AcDbEntity
  8
GR1-1
  6
CONTINUOUS
 62
     7
100
AcDbLine
 10
516.738208
 20
15.0
 30
0.0
 11
517.084362
 21
15.346154
 31
0.0
  0
LINE
  5
2D8
330
1F
100
AcDbEntity
  8
GR1-1
  6
CONTINUOUS
 62
     7
100
AcDbLine
 10
517.654669
 20
15.916461
 30
0.0
 11
518.8019
 21
17.063692
 31
0.0
  0
LINE
  5
2D9
330
1F
100
AcDbEntity
  8
GR1-1
  6
CONTINUOUS
 62
     7
100
AcDbLine
 10
513.580959
 20
11.913462
 30
0.0
 11
514.763545
 21
13.096047
 31
0.0
  0
LINE
  5
2DA
330
1F
100
AcDbEntity
  8
GR1-1
  6
CONTINUOUS
 62
     7
100
AcDbLine
 10
515.579891
 20
13.912394
 30
0.0
 11
515.802112
 21
14.134615
 31
0.0
  0
LINE
  5
2DB
330
1F
100
AcDbEntity
  8
GR1-1
  6
CONTINUOUS
 62
     7
100
AcDbLine
 10
516.667497
 20
15.0
 30
0.0
 11
517.013651
 21
15.346154
 31
0.0
  0
LINE
  5
2DC
330
1F
100
AcDbEntity
  8
GR1-1
  6
CONTINUOUS
 62
     7
100
AcDbLine
 10
517.619314
 20
15.951817
 30
0.0
 11
518.8019
 21
17.134403
 31
0.0
  0
LINE
  5
2DD
330
1F
100
AcDbEntity
  8
GR1-1
  6
CONTINUOUS
 62
     7
100
AcDbLine
 10
513.510248
 20
11.913462
 30
0.0
 11
514.728189
 21
13.131403
 31
0.0
  0
LINE
  5
2DE
330
1F
100
AcDbEntity
  8
GR1-1
  6
CONTINUOUS
 62
     7
100
AcDbLine
 10
515.544535
 20
13.947749
 30
0.0
 11
515.8019
 21
14.205113
 31
0.0
  0
LINE
  5
2DF
330
1F
100
AcDbEntity
  8
GR1-1
  6
CONTINUOUS
 62
     7
100
AcDbLine
 10
516.596786
 20
15.0
 30
0.0
 11
516.94294
 21
15.346154
 31
0.0
  0
LINE
  5
2E0
330
1F
100
AcDbEntity
  8
GR1-1
  6
CONTINUOUS
 62
     7
100
AcDbLine
 10
517.583958
 20
15.987172
 30
0.0
 11
518.8019
 21
17.205113
 31
0.0
  0
LINE
  5
2E1
330
1F
100
AcDbEntity
  8
GR1-1
  6
CONTINUOUS
 62
     7
100
AcDbLine
 10
513.439537
 20
11.913462
 30
0.0
 11
514.692834
 21
13.166758
 31
0.0
  0
LINE
  5
2E2
330
1F
100
AcDbEntity
  8
GR1-1
  6
CONTINUOUS
 62
     7
100
AcDbLine
 10
515.50918
 20
13.983104
 30
0.0
 11
515.8019
 21
14.275824
 31
0.0
  0
LINE
  5
2E3
330
1F
100
AcDbEntity
  8
GR1-1
  6
CONTINUOUS
 62
     7
100
AcDbLine
 10
516.526076
 20
15.0
 30
0.0
 11
516.87223
 21
15.346154
 31
0.0
  0
LINE
  5
2E4
330
1F
100
AcDbEntity
  8
GR1-1
  6
CONTINUOUS
 62
     7
100
AcDbLine
 10
517.548603
 20
16.022527
 30
0.0
 11
518.8019
 21
17.275824
 31
0.0
  0
LINE
  5
2E5
330
1F
100
AcDbEntity
  8
GR1-1
  6
CONTINUOUS
 62
     7
100
AcDbLine
 10
513.368827
 20
11.913462
 30
0.0
 11
514.657479
 21
13.202114
 31
0.0
  0
LINE
  5
2E6
330
1F
100
AcDbEntity
  8
GR1-1
  6
CONTINUOUS
 62
     7
100
AcDbLine
 10
515.473825
 20
14.01846
 30
0.0
 11
515.8019
 21
14.346535
 31
0.0
  0
LINE
  5
2E7
330
1F
100
AcDbEntity
  8
GR1-1
  6
CONTINUOUS
 62
     7
100
AcDbLine
 10
516.455365
 20
15.0
 30
0.0
 11
516.801519
 21
15.346154
 31
0.0
  0
LINE
  5
2E8
330
1F
100
AcDbEntity
  8
GR1-1
  6
CONTINUOUS
 62
     7
100
AcDbLine
 10
517.513248
 20
16.057883
 30
0.0
 11
518.8019
 21
17.346535
 31
0.0
  0
LINE
  5
2E9
330
1F
100
AcDbEntity
  8
GR1-1
  6
CONTINUOUS
 62
     7
100
AcDbLine
 10
513.298116
 20
11.913462
 30
0.0
 11
514.622123
 21
13.237469
 31
0.0
  0
LINE
  5
2EA
330
1F
100
AcDbEntity
  8
GR1-1
  6
CONTINUOUS
 62
     7
100
AcDbLine
 10
515.438469
 20
14.053815
 30
0.0
 11
515.8019
 21
14.417245
 31
0.0
  0
LINE
  5
2EB
330
1F
100
AcDbEntity
  8
GR1-1
  6
CONTINUOUS
 62
     7
100
AcDbLine
 10
516.384654
 20
15.0
 30
0.0
 11
516.730808
 21
15.346154
 31
0.0
  0
LINE
  5
2EC
330
1F
100
AcDbEntity
  8
GR1-1
  6
CONTINUOUS
 62
     7
100
AcDbLine
 10
517.477892
 20
16.093238
 30
0.0
 11
518.8019
 21
17.417245
 31
0.0
  0
LINE
  5
2ED
330
1F
100
AcDbEntity
  8
GR1-1
  6
CONTINUOUS
 62
     7
100
AcDbLine
 10
513.227405
 20
11.913462
 30
0.0
 11
514.586768
 21
13.272824
 31
0.0
  0
LINE
  5
2EE
330
1F
100
AcDbEntity
  8
GR1-1
  6
CONTINUOUS
 62
     7
100
AcDbLine
 10
515.403114
 20
14.08917
 30
0.0
 11
515.8019
 21
14.487956
 31
0.0
  0
LINE
  5
2EF
330
1F
100
AcDbEntity
  8
GR1-1
  6
CONTINUOUS
 62
     7
100
AcDbLine
 10
516.313944
 20
15.0
 30
0.0
 11
516.660097
 21
15.346154
 31
0.0
  0
LINE
  5
2F0
330
1F
100
AcDbEntity
  8
GR1-1
  6
CONTINUOUS
 62
     7
100
AcDbLine
 10
517.442537
 20
16.128593
 30
0.0
 11
518.8019
 21
17.487956
 31
0.0
  0
LINE
  5
2F1
330
1F
100
AcDbEntity
  8
GR1-1
  6
CONTINUOUS
 62
     7
100
AcDbLine
 10
513.156695
 20
11.913462
 30
0.0
 11
514.551413
 21
13.30818
 31
0.0
  0
LINE
  5
2F2
330
1F
100
AcDbEntity
  8
GR1-1
  6
CONTINUOUS
 62
     7
100
AcDbLine
 10
515.367759
 20
14.124526
 30
0.0
 11
515.8019
 21
14.558667
 31
0.0
  0
LINE
  5
2F3
330
1F
100
AcDbEntity
  8
GR1-1
  6
CONTINUOUS
 62
     7
100
AcDbLine
 10
516.243233
 20
15.0
 30
0.0
 11
516.590836
 21
15.347603
 31
0.0
  0
LINE
  5
2F4
330
1F
100
AcDbEntity
  8
GR1-1
  6
CONTINUOUS
 62
     7
100
AcDbLine
 10
517.407182
 20
16.163949
 30
0.0
 11
518.8019
 21
17.558667
 31
0.0
  0
LINE
  5
2F5
330
1F
100
AcDbEntity
  8
GR1-1
  6
CONTINUOUS
 62
     7
100
AcDbLine
 10
513.085984
 20
11.913462
 30
0.0
 11
514.516057
 21
13.343535
 31
0.0
  0
LINE
  5
2F6
330
1F
100
AcDbEntity
  8
GR1-1
  6
CONTINUOUS
 62
     7
100
AcDbLine
 10
515.332403
 20
14.159881
 30
0.0
 11
515.8019
 21
14.629377
 31
0.0
  0
LINE
  5
2F7
330
1F
100
AcDbEntity
  8
GR1-1
  6
CONTINUOUS
 62
     7
100
AcDbLine
 10
516.172522
 20
15.0
 30
0.0
 11
516.55548
 21
15.382958
 31
0.0
  0
LINE
  5
2F8
330
1F
100
AcDbEntity
  8
GR1-1
  6
CONTINUOUS
 62
     7
100
AcDbLine
 10
517.371826
 20
16.199304
 30
0.0
 11
518.8019
 21
17.629377
 31
0.0
  0
LINE
  5
2F9
330
1F
100
AcDbEntity
  8
GR1-1
  6
CONTINUOUS
 62
     7
100
AcDbLine
 10
513.015273
 20
11.913462
 30
0.0
 11
514.480702
 21
13.37889
 31
0.0
  0
LINE
  5
2FA
330
1F
100
AcDbEntity
  8
GR1-1
  6
CONTINUOUS
 62
     7
100
AcDbLine
 10
515.297048
 20
14.195236
 30
0.0
 11
515.8019
 21
14.700088
 31
0.0
  0
LINE
  5
2FB
330
1F
100
AcDbEntity
  8
GR1-1
  6
CONTINUOUS
 62
     7
100
AcDbLine
 10
516.101812
 20
15.0
 30
0.0
 11
516.520125
 21
15.418313
 31
0.0
  0
LINE
  5
2FC
330
1F
100
AcDbEntity
  8
GR1-1
  6
CONTINUOUS
 62
     7
100
AcDbLine
 10
517.336471
 20
16.234659
 30
0.0
 11
518.8019
 21
17.700088
 31
0.0
  0
LINE
  5
2FD
330
1F
100
AcDbEntity
  8
GR1-1
  6
CONTINUOUS
 62
     7
100
AcDbLine
 10
512.944563
 20
11.913462
 30
0.0
 11
514.445347
 21
13.414246
 31
0.0
  0
LINE
  5
2FE
330
1F
100
AcDbEntity
  8
GR1-1
  6
CONTINUOUS
 62
     7
100
AcDbLine
 10
515.261693
 20
14.230592
 30
0.0
 11
515.8019
 21
14.770799
 31
0.0
  0
LINE
  5
2FF
330
1F
100
AcDbEntity
  8
GR1-1
  6
CONTINUOUS
 62
     7
100
AcDbLine
 10
516.031101
 20
15.0
 30
0.0
 11
516.48477
 21
15.453669
 31
0.0
  0
LINE
  5
300
330
1F
100
AcDbEntity
  8
GR1-1
  6
CONTINUOUS
 62
     7
100
AcDbLine
 10
517.301116
 20
16.270015
 30
0.0
 11
518.8019
 21
17.770799
 31
0.0
  0
LINE
  5
301
330
1F
100
AcDbEntity
  8
GR1-1
  6
CONTINUOUS
 62
     7
100
AcDbLine
 10
512.873852
 20
11.913462
 30
0.0
 11
514.409991
 21
13.449601
 31
0.0
  0
LINE
  5
302
330
1F
100
AcDbEntity
  8
GR1-1
  6
CONTINUOUS
 62
     7
100
AcDbLine
 10
515.226337
 20
14.265947
 30
0.0
 11
515.8019
 21
14.841509
 31
0.0
  0
LINE
  5
303
330
1F
100
AcDbEntity
  8
GR1-1
  6
CONTINUOUS
 62
     7
100
AcDbLine
 10
515.96039
 20
15.0
 30
0.0
 11
516.449414
 21
15.489024
 31
0.0
  0
LINE
  5
304
330
1F
100
AcDbEntity
  8
GR1-1
  6
CONTINUOUS
 62
     7
100
AcDbLine
 10
517.26576
 20
16.30537
 30
0.0
 11
518.8019
 21
17.841509
 31
0.0
  0
LINE
  5
305
330
1F
100
AcDbEntity
  8
GR1-1
  6
CONTINUOUS
 62
     7
100
AcDbLine
 10
512.803141
 20
11.913462
 30
0.0
 11
514.374636
 21
13.484956
 31
0.0
  0
LINE
  5
306
330
1F
100
AcDbEntity
  8
GR1-1
  6
CONTINUOUS
 62
     7
100
AcDbLine
 10
515.190982
 20
14.301302
 30
0.0
 11
515.8019
 21
14.91222
 31
0.0
  0
LINE
  5
307
330
1F
100
AcDbEntity
  8
GR1-1
  6
CONTINUOUS
 62
     7
100
AcDbLine
 10
515.88968
 20
15.0
 30
0.0
 11
516.414059
 21
15.524379
 31
0.0
  0
LINE
  5
308
330
1F
100
AcDbEntity
  8
GR1-1
  6
CONTINUOUS
 62
     7
100
AcDbLine
 10
517.230405
 20
16.340725
 30
0.0
 11
518.8019
 21
17.91222
 31
0.0
  0
LINE
  5
309
330
1F
100
AcDbEntity
  8
GR1-1
  6
CONTINUOUS
 62
     7
100
AcDbLine
 10
512.8019
 20
11.982931
 30
0.0
 11
514.339281
 21
13.520312
 31
0.0
  0
LINE
  5
30A
330
1F
100
AcDbEntity
  8
GR1-1
  6
CONTINUOUS
 62
     7
100
AcDbLine
 10
515.155627
 20
14.336658
 30
0.0
 11
515.8019
 21
14.982931
 31
0.0
  0
LINE
  5
30B
330
1F
100
AcDbEntity
  8
GR1-1
  6
CONTINUOUS
 62
     7
100
AcDbLine
 10
515.818969
 20
15.0
 30
0.0
 11
516.378704
 21
15.559735
 31
0.0
  0
LINE
  5
30C
330
1F
100
AcDbEntity
  8
GR1-1
  6
CONTINUOUS
 62
     7
100
AcDbLine
 10
517.19505
 20
16.376081
 30
0.0
 11
518.73243
 21
17.913462
 31
0.0
  0
LINE
  5
30D
330
1F
100
AcDbEntity
  8
GR1-1
  6
CONTINUOUS
 62
     7
100
AcDbLine
 10
512.8019
 20
12.053642
 30
0.0
 11
514.303925
 21
13.555667
 31
0.0
  0
LINE
  5
30E
330
1F
100
AcDbEntity
  8
GR1-1
  6
CONTINUOUS
 62
     7
100
AcDbLine
 10
515.120271
 20
14.372013
 30
0.0
 11
516.343348
 21
15.59509
 31
0.0
  0
LINE
  5
30F
330
1F
100
AcDbEntity
  8
GR1-1
  6
CONTINUOUS
 62
     7
100
AcDbLine
 10
517.159694
 20
16.411436
 30
0.0
 11
518.66172
 21
17.913462
 31
0.0
  0
LINE
  5
310
330
1F
100
AcDbEntity
  8
GR1-1
  6
CONTINUOUS
 62
     7
100
AcDbLine
 10
512.8019
 20
12.124352
 30
0.0
 11
514.26857
 21
13.591022
 31
0.0
  0
LINE
  5
311
330
1F
100
AcDbEntity
  8
GR1-1
  6
CONTINUOUS
 62
     7
100
AcDbLine
 10
515.084916
 20
14.407368
 30
0.0
 11
516.307993
 21
15.630445
 31
0.0
  0
LINE
  5
312
330
1F
100
AcDbEntity
  8
GR1-1
  6
CONTINUOUS
 62
     7
100
AcDbLine
 10
517.124339
 20
16.446791
 30
0.0
 11
518.591009
 21
17.913462
 31
0.0
  0
LINE
  5
313
330
1F
100
AcDbEntity
  8
GR1-1
  6
CONTINUOUS
 62
     7
100
AcDbLine
 10
512.8019
 20
12.195063
 30
0.0
 11
514.233214
 21
13.626378
 31
0.0
  0
LINE
  5
314
330
1F
100
AcDbEntity
  8
GR1-1
  6
CONTINUOUS
 62
     7
100
AcDbLine
 10
515.049561
 20
14.442724
 30
0.0
 11
516.272638
 21
15.665801
 31
0.0
  0
LINE
  5
315
330
1F
100
AcDbEntity
  8
GR1-1
  6
CONTINUOUS
 62
     7
100
AcDbLine
 10
517.088984
 20
16.482147
 30
0.0
 11
518.520298
 21
17.913462
 31
0.0
  0
LINE
  5
316
330
1F
100
AcDbEntity
  8
GR1-1
  6
CONTINUOUS
 62
     7
100
AcDbLine
 10
512.8019
 20
12.265774
 30
0.0
 11
514.197859
 21
13.661733
 31
0.0
  0
LINE
  5
317
330
1F
100
AcDbEntity
  8
GR1-1
  6
CONTINUOUS
 62
     7
100
AcDbLine
 10
515.014205
 20
14.478079
 30
0.0
 11
516.237282
 21
15.701156
 31
0.0
  0
LINE
  5
318
330
1F
100
AcDbEntity
  8
GR1-1
  6
CONTINUOUS
 62
     7
100
AcDbLine
 10
517.053628
 20
16.517502
 30
0.0
 11
518.449588
 21
17.913462
 31
0.0
  0
LINE
  5
319
330
1F
100
AcDbEntity
  8
GR1-1
  6
CONTINUOUS
 62
     7
100
AcDbLine
 10
512.8019
 20
12.336484
 30
0.0
 11
514.162504
 21
13.697088
 31
0.0
  0
LINE
  5
31A
330
1F
100
AcDbEntity
  8
GR1-1
  6
CONTINUOUS
 62
     7
100
AcDbLine
 10
514.97885
 20
14.513434
 30
0.0
 11
516.201927
 21
15.736511
 31
0.0
  0
LINE
  5
31B
330
1F
100
AcDbEntity
  8
GR1-1
  6
CONTINUOUS
 62
     7
100
AcDbLine
 10
517.018273
 20
16.552857
 30
0.0
 11
518.378877
 21
17.913462
 31
0.0
  0
LINE
  5
31C
330
1F
100
AcDbEntity
  8
GR1-1
  6
CONTINUOUS
 62
     7
100
AcDbLine
 10
512.8019
 20
12.407195
 30
0.0
 11
514.127148
 21
13.732444
 31
0.0
  0
LINE
  5
31D
330
1F
100
AcDbEntity
  8
GR1-1
  6
CONTINUOUS
 62
     7
100
AcDbLine
 10
514.943495
 20
14.54879
 30
0.0
 11
516.166572
 21
15.771867
 31
0.0
  0
LINE
  5
31E
330
1F
100
AcDbEntity
  8
GR1-1
  6
CONTINUOUS
 62
     7
100
AcDbLine
 10
516.982918
 20
16.588213
 30
0.0
 11
518.308166
 21
17.913462
 31
0.0
  0
LINE
  5
31F
330
1F
100
AcDbEntity
  8
GR1-1
  6
CONTINUOUS
 62
     7
100
AcDbLine
 10
512.8019
 20
12.477906
 30
0.0
 11
514.091793
 21
13.767799
 31
0.0
  0
LINE
  5
320
330
1F
100
AcDbEntity
  8
GR1-1
  6
CONTINUOUS
 62
     7
100
AcDbLine
 10
514.908139
 20
14.584145
 30
0.0
 11
516.131216
 21
15.807222
 31
0.0
  0
LINE
  5
321
330
1F
100
AcDbEntity
  8
GR1-1
  6
CONTINUOUS
 62
     7
100
AcDbLine
 10
516.947562
 20
16.623568
 30
0.0
 11
518.237456
 21
17.913462
 31
0.0
  0
LINE
  5
322
330
1F
100
AcDbEntity
  8
GR1-1
  6
CONTINUOUS
 62
     7
100
AcDbLine
 10
512.8019
 20
12.548616
 30
0.0
 11
514.056438
 21
13.803154
 31
0.0
  0
LINE
  5
323
330
1F
100
AcDbEntity
  8
GR1-1
  6
CONTINUOUS
 62
     7
100
AcDbLine
 10
514.872784
 20
14.6195
 30
0.0
 11
516.095861
 21
15.842577
 31
0.0
  0
LINE
  5
324
330
1F
100
AcDbEntity
  8
GR1-1
  6
CONTINUOUS
 62
     7
100
AcDbLine
 10
516.912207
 20
16.658923
 30
0.0
 11
518.166745
 21
17.913462
 31
0.0
  0
LINE
  5
325
330
1F
100
AcDbEntity
  8
GR1-1
  6
CONTINUOUS
 62
     7
100
AcDbLine
 10
512.8019
 20
12.619327
 30
0.0
 11
514.021082
 21
13.83851
 31
0.0
  0
LINE
  5
326
330
1F
100
AcDbEntity
  8
GR1-1
  6
CONTINUOUS
 62
     7
100
AcDbLine
 10
514.837429
 20
14.654856
 30
0.0
 11
516.060506
 21
15.877933
 31
0.0
  0
LINE
  5
327
330
1F
100
AcDbEntity
  8
GR1-1
  6
CONTINUOUS
 62
     7
100
AcDbLine
 10
516.876852
 20
16.694279
 30
0.0
 11
518.096034
 21
17.913462
 31
0.0
  0
LINE
  5
328
330
1F
100
AcDbEntity
  8
GR1-1
  6
CONTINUOUS
 62
     7
100
AcDbLine
 10
512.8019
 20
12.690038
 30
0.0
 11
513.985727
 21
13.873865
 31
0.0
  0
LINE
  5
329
330
1F
100
AcDbEntity
  8
GR1-1
  6
CONTINUOUS
 62
     7
100
AcDbLine
 10
514.802073
 20
14.690211
 30
0.0
 11
516.02515
 21
15.913288
 31
0.0
  0
LINE
  5
32A
330
1F
100
AcDbEntity
  8
GR1-1
  6
CONTINUOUS
 62
     7
100
AcDbLine
 10
516.841496
 20
16.729634
 30
0.0
 11
518.025324
 21
17.913462
 31
0.0
  0
LINE
  5
32B
330
1F
100
AcDbEntity
  8
GR1-1
  6
CONTINUOUS
 62
     7
100
AcDbLine
 10
512.8019
 20
12.760748
 30
0.0
 11
513.950372
 21
13.90922
 31
0.0
  0
LINE
  5
32C
330
1F
100
AcDbEntity
  8
GR1-1
  6
CONTINUOUS
 62
     7
100
AcDbLine
 10
514.766718
 20
14.725566
 30
0.0
 11
515.989795
 21
15.948643
 31
0.0
  0
LINE
  5
32D
330
1F
100
AcDbEntity
  8
GR1-1
  6
CONTINUOUS
 62
     7
100
AcDbLine
 10
516.806141
 20
16.76499
 30
0.0
 11
517.954613
 21
17.913462
 31
0.0
  0
LINE
  5
32E
330
1F
100
AcDbEntity
  8
GR1-1
  6
CONTINUOUS
 62
     7
100
AcDbLine
 10
512.8019
 20
12.831459
 30
0.0
 11
513.915016
 21
13.944576
 31
0.0
  0
LINE
  5
32F
330
1F
100
AcDbEntity
  8
GR1-1
  6
CONTINUOUS
 62
     7
100
AcDbLine
 10
514.731363
 20
14.760922
 30
0.0
 11
515.95444
 21
15.983999
 31
0.0
  0
LINE
  5
330
330
1F
100
AcDbEntity
  8
GR1-1
  6
CONTINUOUS
 62
     7
100
AcDbLine
 10
516.770786
 20
16.800345
 30
0.0
 11
517.883902
 21
17.913462
 31
0.0
  0
LINE
  5
331
330
1F
100
AcDbEntity
  8
GR1-1
  6
CONTINUOUS
 62
     7
100
AcDbLine
 10
512.8019
 20
12.90217
 30
0.0
 11
513.879661
 21
13.979931
 31
0.0
  0
LINE
  5
332
330
1F
100
AcDbEntity
  8
GR1-1
  6
CONTINUOUS
 62
     7
100
AcDbLine
 10
514.696007
 20
14.796277
 30
0.0
 11
515.919084
 21
16.019354
 31
0.0
  0
LINE
  5
333
330
1F
100
AcDbEntity
  8
GR1-1
  6
CONTINUOUS
 62
     7
100
AcDbLine
 10
516.73543
 20
16.8357
 30
0.0
 11
517.813192
 21
17.913462
 31
0.0
  0
LINE
  5
334
330
1F
100
AcDbEntity
  8
GR1-1
  6
CONTINUOUS
 62
     7
100
AcDbLine
 10
512.8019
 20
12.97288
 30
0.0
 11
513.844306
 21
14.015286
 31
0.0
  0
LINE
  5
335
330
1F
100
AcDbEntity
  8
GR1-1
  6
CONTINUOUS
 62
     7
100
AcDbLine
 10
514.660652
 20
14.831632
 30
0.0
 11
515.883729
 21
16.054709
 31
0.0
  0
LINE
  5
336
330
1F
100
AcDbEntity
  8
GR1-1
  6
CONTINUOUS
 62
     7
100
AcDbLine
 10
516.700075
 20
16.871056
 30
0.0
 11
517.742481
 21
17.913462
 31
0.0
  0
LINE
  5
337
330
1F
100
AcDbEntity
  8
GR1-1
  6
CONTINUOUS
 62
     7
100
AcDbLine
 10
512.8019
 20
13.043591
 30
0.0
 11
513.80895
 21
14.050642
 31
0.0
  0
LINE
  5
338
330
1F
100
AcDbEntity
  8
GR1-1
  6
CONTINUOUS
 62
     7
100
AcDbLine
 10
514.625297
 20
14.866988
 30
0.0
 11
515.848373
 21
16.090065
 31
0.0
  0
LINE
  5
339
330
1F
100
AcDbEntity
  8
GR1-1
  6
CONTINUOUS
 62
     7
100
AcDbLine
 10
516.66472
 20
16.906411
 30
0.0
 11
517.67177
 21
17.913462
 31
0.0
  0
LINE
  5
33A
330
1F
100
AcDbEntity
  8
GR1-1
  6
CONTINUOUS
 62
     7
100
AcDbLine
 10
512.8019
 20
13.114302
 30
0.0
 11
513.773595
 21
14.085997
 31
0.0
  0
LINE
  5
33B
330
1F
100
AcDbEntity
  8
GR1-1
  6
CONTINUOUS
 62
     7
100
AcDbLine
 10
514.589941
 20
14.902343
 30
0.0
 11
515.813018
 21
16.12542
 31
0.0
  0
LINE
  5
33C
330
1F
100
AcDbEntity
  8
GR1-1
  6
CONTINUOUS
 62
     7
100
AcDbLine
 10
516.629364
 20
16.941766
 30
0.0
 11
517.60106
 21
17.913462
 31
0.0
  0
LINE
  5
33D
330
1F
100
AcDbEntity
  8
GR1-1
  6
CONTINUOUS
 62
     7
100
AcDbLine
 10
512.8019
 20
13.185012
 30
0.0
 11
513.73824
 21
14.121352
 31
0.0
  0
LINE
  5
33E
330
1F
100
AcDbEntity
  8
GR1-1
  6
CONTINUOUS
 62
     7
100
AcDbLine
 10
516.594009
 20
16.977122
 30
0.0
 11
517.530349
 21
17.913462
 31
0.0
  0
LINE
  5
33F
330
1F
100
AcDbEntity
  8
GR1-1
  6
CONTINUOUS
 62
     7
100
AcDbLine
 10
512.8019
 20
13.255723
 30
0.0
 11
513.702884
 21
14.156708
 31
0.0
  0
LINE
  5
340
330
1F
100
AcDbEntity
  8
GR1-1
  6
CONTINUOUS
 62
     7
100
AcDbLine
 10
516.558654
 20
17.012477
 30
0.0
 11
517.459638
 21
17.913462
 31
0.0
  0
LINE
  5
341
330
1F
100
AcDbEntity
  8
GR1-1
  6
CONTINUOUS
 62
     7
100
AcDbLine
 10
512.8019
 20
13.326434
 30
0.0
 11
513.667529
 21
14.192063
 31
0.0
  0
LINE
  5
342
330
1F
100
AcDbEntity
  8
GR1-1
  6
CONTINUOUS
 62
     7
100
AcDbLine
 10
516.523298
 20
17.047832
 30
0.0
 11
517.388928
 21
17.913462
 31
0.0
  0
LINE
  5
343
330
1F
100
AcDbEntity
  8
GR1-1
  6
CONTINUOUS
 62
     7
100
AcDbLine
 10
512.8019
 20
13.397144
 30
0.0
 11
513.632174
 21
14.227418
 31
0.0
  0
LINE
  5
344
330
1F
100
AcDbEntity
  8
GR1-1
  6
CONTINUOUS
 62
     7
100
AcDbLine
 10
516.487943
 20
17.083188
 30
0.0
 11
517.318217
 21
17.913462
 31
0.0
  0
LINE
  5
345
330
1F
100
AcDbEntity
  8
GR1-1
  6
CONTINUOUS
 62
     7
100
AcDbLine
 10
512.8019
 20
13.467855
 30
0.0
 11
513.596818
 21
14.262774
 31
0.0
  0
LINE
  5
346
330
1F
100
AcDbEntity
  8
GR1-1
  6
CONTINUOUS
 62
     7
100
AcDbLine
 10
516.452588
 20
17.118543
 30
0.0
 11
517.247506
 21
17.913462
 31
0.0
  0
LINE
  5
347
330
1F
100
AcDbEntity
  8
GR1-1
  6
CONTINUOUS
 62
     7
100
AcDbLine
 10
512.8019
 20
13.538566
 30
0.0
 11
513.561463
 21
14.298129
 31
0.0
  0
LINE
  5
348
330
1F
100
AcDbEntity
  8
GR1-1
  6
CONTINUOUS
 62
     7
100
AcDbLine
 10
516.417232
 20
17.153898
 30
0.0
 11
517.176796
 21
17.913462
 31
0.0
  0
LINE
  5
349
330
1F
100
AcDbEntity
  8
GR1-1
  6
CONTINUOUS
 62
     7
100
AcDbLine
 10
512.8019
 20
13.609276
 30
0.0
 11
513.526108
 21
14.333484
 31
0.0
  0
LINE
  5
34A
330
1F
100
AcDbEntity
  8
GR1-1
  6
CONTINUOUS
 62
     7
100
AcDbLine
 10
516.381877
 20
17.189254
 30
0.0
 11
517.106085
 21
17.913462
 31
0.0
  0
LINE
  5
34B
330
1F
100
AcDbEntity
  8
GR1-1
  6
CONTINUOUS
 62
     7
100
AcDbLine
 10
512.8019
 20
13.679987
 30
0.0
 11
513.490752
 21
14.36884
 31
0.0
  0
LINE
  5
34C
330
1F
100
AcDbEntity
  8
GR1-1
  6
CONTINUOUS
 62
     7
100
AcDbLine
 10
516.346522
 20
17.224609
 30
0.0
 11
517.035374
 21
17.913462
 31
0.0
  0
LINE
  5
34D
330
1F
100
AcDbEntity
  8
GR1-1
  6
CONTINUOUS
 62
     7
100
AcDbLine
 10
512.8019
 20
13.750698
 30
0.0
 11
513.455397
 21
14.404195
 31
0.0
  0
LINE
  5
34E
330
1F
100
AcDbEntity
  8
GR1-1
  6
CONTINUOUS
 62
     7
100
AcDbLine
 10
516.311166
 20
17.259964
 30
0.0
 11
516.964664
 21
17.913462
 31
0.0
  0
LINE
  5
34F
330
1F
100
AcDbEntity
  8
GR1-1
  6
CONTINUOUS
 62
     7
100
AcDbLine
 10
512.8019
 20
13.821408
 30
0.0
 11
513.420042
 21
14.43955
 31
0.0
  0
LINE
  5
350
330
1F
100
AcDbEntity
  8
GR1-1
  6
CONTINUOUS
 62
     7
100
AcDbLine
 10
516.275811
 20
17.29532
 30
0.0
 11
516.893953
 21
17.913462
 31
0.0
  0
LINE
  5
351
330
1F
100
AcDbEntity
  8
GR1-1
  6
CONTINUOUS
 62
     7
100
AcDbLine
 10
512.8019
 20
13.892119
 30
0.0
 11
513.384686
 21
14.474906
 31
0.0
  0
LINE
  5
352
330
1F
100
AcDbEntity
  8
GR1-1
  6
CONTINUOUS
 62
     7
100
AcDbLine
 10
516.240456
 20
17.330675
 30
0.0
 11
516.823242
 21
17.913462
 31
0.0
  0
LINE
  5
353
330
1F
100
AcDbEntity
  8
GR1-1
  6
CONTINUOUS
 62
     7
100
AcDbLine
 10
512.8019
 20
13.96283
 30
0.0
 11
513.349331
 21
14.510261
 31
0.0
  0
LINE
  5
354
330
1F
100
AcDbEntity
  8
GR1-1
  6
CONTINUOUS
 62
     7
100
AcDbLine
 10
516.2051
 20
17.36603
 30
0.0
 11
516.752531
 21
17.913462
 31
0.0
  0
LINE
  5
355
330
1F
100
AcDbEntity
  8
GR1-1
  6
CONTINUOUS
 62
     7
100
AcDbLine
 10
512.8019
 20
14.033541
 30
0.0
 11
513.313976
 21
14.545616
 31
0.0
  0
LINE
  5
356
330
1F
100
AcDbEntity
  8
GR1-1
  6
CONTINUOUS
 62
     7
100
AcDbLine
 10
516.169745
 20
17.401386
 30
0.0
 11
516.681821
 21
17.913462
 31
0.0
  0
LINE
  5
357
330
1F
100
AcDbEntity
  8
GR1-1
  6
CONTINUOUS
 62
     7
100
AcDbLine
 10
512.8019
 20
14.104251
 30
0.0
 11
513.27862
 21
14.580972
 31
0.0
  0
LINE
  5
358
330
1F
100
AcDbEntity
  8
GR1-1
  6
CONTINUOUS
 62
     7
100
AcDbLine
 10
516.13439
 20
17.436741
 30
0.0
 11
516.61111
 21
17.913462
 31
0.0
  0
LINE
  5
359
330
1F
100
AcDbEntity
  8
GR1-1
  6
CONTINUOUS
 62
     7
100
AcDbLine
 10
512.8019
 20
14.174962
 30
0.0
 11
513.243265
 21
14.616327
 31
0.0
  0
LINE
  5
35A
330
1F
100
AcDbEntity
  8
GR1-1
  6
CONTINUOUS
 62
     7
100
AcDbLine
 10
516.099034
 20
17.472096
 30
0.0
 11
516.540399
 21
17.913462
 31
0.0
  0
LINE
  5
35B
330
1F
100
AcDbEntity
  8
GR1-1
  6
CONTINUOUS
 62
     7
100
AcDbLine
 10
512.8019
 20
14.245673
 30
0.0
 11
513.20791
 21
14.651682
 31
0.0
  0
LINE
  5
35C
330
1F
100
AcDbEntity
  8
GR1-1
  6
CONTINUOUS
 62
     7
100
AcDbLine
 10
516.063679
 20
17.507452
 30
0.0
 11
516.469689
 21
17.913462
 31
0.0
  0
LINE
  5
35D
330
1F
100
AcDbEntity
  8
GR1-1
  6
CONTINUOUS
 62
     7
100
AcDbLine
 10
512.8019
 20
14.316383
 30
0.0
 11
513.172554
 21
14.687038
 31
0.0
  0
LINE
  5
35E
330
1F
100
AcDbEntity
  8
GR1-1
  6
CONTINUOUS
 62
     7
100
AcDbLine
 10
516.028324
 20
17.542807
 30
0.0
 11
516.398978
 21
17.913462
 31
0.0
  0
LINE
  5
35F
330
1F
100
AcDbEntity
  8
GR1-1
  6
CONTINUOUS
 62
     7
100
AcDbLine
 10
512.8019
 20
14.387094
 30
0.0
 11
513.137199
 21
14.722393
 31
0.0
  0
LINE
  5
360
330
1F
100
AcDbEntity
  8
GR1-1
  6
CONTINUOUS
 62
     7
100
AcDbLine
 10
515.992968
 20
17.578162
 30
0.0
 11
516.328267
 21
17.913462
 31
0.0
  0
LINE
  5
361
330
1F
100
AcDbEntity
  8
GR1-1
  6
CONTINUOUS
 62
     7
100
AcDbLine
 10
512.8019
 20
14.457805
 30
0.0
 11
513.101844
 21
14.757748
 31
0.0
  0
LINE
  5
362
330
1F
100
AcDbEntity
  8
GR1-1
  6
CONTINUOUS
 62
     7
100
AcDbLine
 10
515.957613
 20
17.613518
 30
0.0
 11
516.257557
 21
17.913462
 31
0.0
  0
LINE
  5
363
330
1F
100
AcDbEntity
  8
GR1-1
  6
CONTINUOUS
 62
     7
100
AcDbLine
 10
512.8019
 20
14.528515
 30
0.0
 11
513.066488
 21
14.793104
 31
0.0
  0
LINE
  5
364
330
1F
100
AcDbEntity
  8
GR1-1
  6
CONTINUOUS
 62
     7
100
AcDbLine
 10
515.922258
 20
17.648873
 30
0.0
 11
516.186846
 21
17.913462
 31
0.0
  0
LINE
  5
365
330
1F
100
AcDbEntity
  8
GR1-1
  6
CONTINUOUS
 62
     7
100
AcDbLine
 10
512.8019
 20
14.599226
 30
0.0
 11
513.031133
 21
14.828459
 31
0.0
  0
LINE
  5
366
330
1F
100
AcDbEntity
  8
GR1-1
  6
CONTINUOUS
 62
     7
100
AcDbLine
 10
515.886902
 20
17.684228
 30
0.0
 11
516.116135
 21
17.913462
 31
0.0
  0
LINE
  5
367
330
1F
100
AcDbEntity
  8
GR1-1
  6
CONTINUOUS
 62
     7
100
AcDbLine
 10
512.8019
 20
14.669937
 30
0.0
 11
512.995778
 21
14.863814
 31
0.0
  0
LINE
  5
368
330
1F
100
AcDbEntity
  8
GR1-1
  6
CONTINUOUS
 62
     7
100
AcDbLine
 10
515.851547
 20
17.719584
 30
0.0
 11
516.045425
 21
17.913462
 31
0.0
  0
LINE
  5
369
330
1F
100
AcDbEntity
  8
GR1-1
  6
CONTINUOUS
 62
     7
100
AcDbLine
 10
512.8019
 20
14.740647
 30
0.0
 11
512.960422
 21
14.89917
 31
0.0
  0
LINE
  5
36A
330
1F
100
AcDbEntity
  8
GR1-1
  6
CONTINUOUS
 62
     7
100
AcDbLine
 10
515.816192
 20
17.754939
 30
0.0
 11
515.974714
 21
17.913462
 31
0.0
  0
LINE
  5
36B
330
1F
100
AcDbEntity
  8
GR1-1
  6
CONTINUOUS
 62
     7
100
AcDbLine
 10
512.8019
 20
14.811358
 30
0.0
 11
515.904003
 21
17.913462
 31
0.0
  0
LINE
  5
36C
330
1F
100
AcDbEntity
  8
GR1-1
  6
CONTINUOUS
 62
     7
100
AcDbLine
 10
512.8019
 20
14.882069
 30
0.0
 11
515.833293
 21
17.913462
 31
0.0
  0
LINE
  5
36D
330
1F
100
AcDbEntity
  8
GR1-1
  6
CONTINUOUS
 62
     7
100
AcDbLine
 10
512.8019
 20
14.952779
 30
0.0
 11
515.762582
 21
17.913462
 31
0.0
  0
LINE
  5
36E
330
1F
100
AcDbEntity
  8
GR1-1
  6
CONTINUOUS
 62
     7
100
AcDbLine
 10
512.8019
 20
15.02349
 30
0.0
 11
515.691871
 21
17.913462
 31
0.0
  0
LINE
  5
36F
330
1F
100
AcDbEntity
  8
GR1-1
  6
CONTINUOUS
 62
     7
100
AcDbLine
 10
512.8019
 20
15.094201
 30
0.0
 11
515.621161
 21
17.913462
 31
0.0
  0
LINE
  5
370
330
1F
100
AcDbEntity
  8
GR1-1
  6
CONTINUOUS
 62
     7
100
AcDbLine
 10
512.8019
 20
15.164911
 30
0.0
 11
515.55045
 21
17.913462
 31
0.0
  0
LINE
  5
371
330
1F
100
AcDbEntity
  8
GR1-1
  6
CONTINUOUS
 62
     7
100
AcDbLine
 10
512.8019
 20
15.235622
 30
0.0
 11
515.479739
 21
17.913462
 31
0.0
  0
LINE
  5
372
330
1F
100
AcDbEntity
  8
GR1-1
  6
CONTINUOUS
 62
     7
100
AcDbLine
 10
512.8019
 20
15.306333
 30
0.0
 11
515.409029
 21
17.913462
 31
0.0
  0
LINE
  5
373
330
1F
100
AcDbEntity
  8
GR1-1
  6
CONTINUOUS
 62
     7
100
AcDbLine
 10
512.8019
 20
15.377043
 30
0.0
 11
515.338318
 21
17.913462
 31
0.0
  0
LINE
  5
374
330
1F
100
AcDbEntity
  8
GR1-1
  6
CONTINUOUS
 62
     7
100
AcDbLine
 10
512.8019
 20
15.447754
 30
0.0
 11
515.267607
 21
17.913462
 31
0.0
  0
LINE
  5
375
330
1F
100
AcDbEntity
  8
GR1-1
  6
CONTINUOUS
 62
     7
100
AcDbLine
 10
512.8019
 20
15.518465
 30
0.0
 11
515.196897
 21
17.913462
 31
0.0
  0
LINE
  5
376
330
1F
100
AcDbEntity
  8
GR1-1
  6
CONTINUOUS
 62
     7
100
AcDbLine
 10
512.8019
 20
15.589175
 30
0.0
 11
515.126186
 21
17.913462
 31
0.0
  0
LINE
  5
377
330
1F
100
AcDbEntity
  8
GR1-1
  6
CONTINUOUS
 62
     7
100
AcDbLine
 10
512.8019
 20
15.659886
 30
0.0
 11
515.055475
 21
17.913462
 31
0.0
  0
LINE
  5
378
330
1F
100
AcDbEntity
  8
GR1-1
  6
CONTINUOUS
 62
     7
100
AcDbLine
 10
512.8019
 20
15.730597
 30
0.0
 11
514.984765
 21
17.913462
 31
0.0
  0
LINE
  5
379
330
1F
100
AcDbEntity
  8
GR1-1
  6
CONTINUOUS
 62
     7
100
AcDbLine
 10
512.8019
 20
15.801307
 30
0.0
 11
514.914054
 21
17.913462
 31
0.0
  0
LINE
  5
37A
330
1F
100
AcDbEntity
  8
GR1-1
  6
CONTINUOUS
 62
     7
100
AcDbLine
 10
512.8019
 20
15.872018
 30
0.0
 11
514.843343
 21
17.913462
 31
0.0
  0
LINE
  5
37B
330
1F
100
AcDbEntity
  8
GR1-1
  6
CONTINUOUS
 62
     7
100
AcDbLine
 10
512.8019
 20
15.942729
 30
0.0
 11
514.772632
 21
17.913462
 31
0.0
  0
LINE
  5
37C
330
1F
100
AcDbEntity
  8
GR1-1
  6
CONTINUOUS
 62
     7
100
AcDbLine
 10
512.8019
 20
16.013439
 30
0.0
 11
514.701922
 21
17.913462
 31
0.0
  0
LINE
  5
37D
330
1F
100
AcDbEntity
  8
GR1-1
  6
CONTINUOUS
 62
     7
100
AcDbLine
 10
512.8019
 20
16.08415
 30
0.0
 11
514.631211
 21
17.913462
 31
0.0
  0
LINE
  5
37E
330
1F
100
AcDbEntity
  8
GR1-1
  6
CONTINUOUS
 62
     7
100
AcDbLine
 10
512.8019
 20
16.154861
 30
0.0
 11
514.5605
 21
17.913462
 31
0.0
  0
LINE
  5
37F
330
1F
100
AcDbEntity
  8
GR1-1
  6
CONTINUOUS
 62
     7
100
AcDbLine
 10
512.8019
 20
16.225572
 30
0.0
 11
514.48979
 21
17.913462
 31
0.0
  0
LINE
  5
380
330
1F
100
AcDbEntity
  8
GR1-1
  6
CONTINUOUS
 62
     7
100
AcDbLine
 10
512.8019
 20
16.296282
 30
0.0
 11
514.419079
 21
17.913462
 31
0.0
  0
LINE
  5
381
330
1F
100
AcDbEntity
  8
GR1-1
  6
CONTINUOUS
 62
     7
100
AcDbLine
 10
512.8019
 20
16.366993
 30
0.0
 11
514.348368
 21
17.913462
 31
0.0
  0
LINE
  5
382
330
1F
100
AcDbEntity
  8
GR1-1
  6
CONTINUOUS
 62
     7
100
AcDbLine
 10
512.8019
 20
16.437704
 30
0.0
 11
514.277658
 21
17.913462
 31
0.0
  0
LINE
  5
383
330
1F
100
AcDbEntity
  8
GR1-1
  6
CONTINUOUS
 62
     7
100
AcDbLine
 10
512.8019
 20
16.508414
 30
0.0
 11
514.206947
 21
17.913462
 31
0.0
  0
LINE
  5
384
330
1F
100
AcDbEntity
  8
GR1-1
  6
CONTINUOUS
 62
     7
100
AcDbLine
 10
512.8019
 20
16.579125
 30
0.0
 11
514.136236
 21
17.913462
 31
0.0
  0
LINE
  5
385
330
1F
100
AcDbEntity
  8
GR1-1
  6
CONTINUOUS
 62
     7
100
AcDbLine
 10
512.8019
 20
16.649836
 30
0.0
 11
514.065526
 21
17.913462
 31
0.0
  0
LINE
  5
386
330
1F
100
AcDbEntity
  8
GR1-1
  6
CONTINUOUS
 62
     7
100
AcDbLine
 10
512.8019
 20
16.720546
 30
0.0
 11
513.994815
 21
17.913462
 31
0.0
  0
LINE
  5
387
330
1F
100
AcDbEntity
  8
GR1-1
  6
CONTINUOUS
 62
     7
100
AcDbLine
 10
512.8019
 20
16.791257
 30
0.0
 11
513.924104
 21
17.913462
 31
0.0
  0
LINE
  5
388
330
1F
100
AcDbEntity
  8
GR1-1
  6
CONTINUOUS
 62
     7
100
AcDbLine
 10
512.8019
 20
16.861968
 30
0.0
 11
513.853394
 21
17.913462
 31
0.0
  0
LINE
  5
389
330
1F
100
AcDbEntity
  8
GR1-1
  6
CONTINUOUS
 62
     7
100
AcDbLine
 10
512.8019
 20
16.932678
 30
0.0
 11
513.782683
 21
17.913462
 31
0.0
  0
LINE
  5
38A
330
1F
100
AcDbEntity
  8
GR1-1
  6
CONTINUOUS
 62
     7
100
AcDbLine
 10
512.8019
 20
17.003389
 30
0.0
 11
513.711972
 21
17.913462
 31
0.0
  0
LINE
  5
38B
330
1F
100
AcDbEntity
  8
GR1-1
  6
CONTINUOUS
 62
     7
100
AcDbLine
 10
512.8019
 20
17.0741
 30
0.0
 11
513.641262
 21
17.913462
 31
0.0
  0
LINE
  5
38C
330
1F
100
AcDbEntity
  8
GR1-1
  6
CONTINUOUS
 62
     7
100
AcDbLine
 10
512.8019
 20
17.14481
 30
0.0
 11
513.570551
 21
17.913462
 31
0.0
  0
LINE
  5
38D
330
1F
100
AcDbEntity
  8
GR1-1
  6
CONTINUOUS
 62
     7
100
AcDbLine
 10
512.8019
 20
17.215521
 30
0.0
 11
513.49984
 21
17.913462
 31
0.0
  0
LINE
  5
38E
330
1F
100
AcDbEntity
  8
GR1-1
  6
CONTINUOUS
 62
     7
100
AcDbLine
 10
512.8019
 20
17.286232
 30
0.0
 11
513.42913
 21
17.913462
 31
0.0
  0
LINE
  5
38F
330
1F
100
AcDbEntity
  8
GR1-1
  6
CONTINUOUS
 62
     7
100
AcDbLine
 10
512.8019
 20
17.356942
 30
0.0
 11
513.358419
 21
17.913462
 31
0.0
  0
LINE
  5
390
330
1F
100
AcDbEntity
  8
GR1-1
  6
CONTINUOUS
 62
     7
100
AcDbLine
 10
512.8019
 20
17.427653
 30
0.0
 11
513.287708
 21
17.913462
 31
0.0
  0
LINE
  5
391
330
1F
100
AcDbEntity
  8
GR1-1
  6
CONTINUOUS
 62
     7
100
AcDbLine
 10
512.8019
 20
17.498364
 30
0.0
 11
513.216998
 21
17.913462
 31
0.0
  0
LINE
  5
392
330
1F
100
AcDbEntity
  8
GR1-1
  6
CONTINUOUS
 62
     7
100
AcDbLine
 10
512.8019
 20
17.569074
 30
0.0
 11
513.146287
 21
17.913462
 31
0.0
  0
LINE
  5
393
330
1F
100
AcDbEntity
  8
GR1-1
  6
CONTINUOUS
 62
     7
100
AcDbLine
 10
512.8019
 20
17.639785
 30
0.0
 11
513.075576
 21
17.913462
 31
0.0
  0
LINE
  5
394
330
1F
100
AcDbEntity
  8
GR1-1
  6
CONTINUOUS
 62
     7
100
AcDbLine
 10
512.8019
 20
17.710496
 30
0.0
 11
513.004866
 21
17.913462
 31
0.0
  0
LINE
  5
395
330
1F
100
AcDbEntity
  8
GR1-1
  6
CONTINUOUS
 62
     7
100
AcDbLine
 10
512.8019
 20
17.781206
 30
0.0
 11
512.934155
 21
17.913462
 31
0.0
  0
LINE
  5
396
330
1F
100
AcDbEntity
  8
GR1-1
  6
CONTINUOUS
 62
     7
100
AcDbLine
 10
512.8019
 20
17.851917
 30
0.0
 11
512.863444
 21
17.913462
 31
0.0
  0
LINE
  5
397
330
1F
100
AcDbEntity
  8
GR1-1
  6
CONTINUOUS
 62
     7
100
AcDbLine
 10
513.793091
 20
11.913462
 30
0.0
 11
514.869611
 21
12.989981
 31
0.0
  0
LINE
  5
398
330
1F
100
AcDbEntity
  8
GR1-1
  6
CONTINUOUS
 62
     7
100
AcDbLine
 10
515.685957
 20
13.806328
 30
0.0
 11
516.014245
 21
14.134615
 31
0.0
  0
LINE
  5
399
330
1F
100
AcDbEntity
  8
GR1-1
  6
CONTINUOUS
 62
     7
100
AcDbLine
 10
516.879629
 20
15.0
 30
0.0
 11
517.225783
 21
15.346154
 31
0.0
  0
LINE
  5
39A
330
1F
100
AcDbEntity
  8
GR1-1
  6
CONTINUOUS
 62
     7
100
AcDbLine
 10
517.72538
 20
15.845751
 30
0.0
 11
518.8019
 21
16.922271
 31
0.0
  0
LINE
  5
39B
330
1F
100
AcDbEntity
  8
GR1-1
  6
CONTINUOUS
 62
     7
100
AcDbLine
 10
513.863801
 20
11.913462
 30
0.0
 11
514.904966
 21
12.954626
 31
0.0
  0
LINE
  5
39C
330
1F
100
AcDbEntity
  8
GR1-1
  6
CONTINUOUS
 62
     7
100
AcDbLine
 10
515.721312
 20
13.770972
 30
0.0
 11
516.084955
 21
14.134615
 31
0.0
  0
LINE
  5
39D
330
1F
100
AcDbEntity
  8
GR1-1
  6
CONTINUOUS
 62
     7
100
AcDbLine
 10
516.95034
 20
15.0
 30
0.0
 11
517.296494
 21
15.346154
 31
0.0
  0
LINE
  5
39E
330
1F
100
AcDbEntity
  8
GR1-1
  6
CONTINUOUS
 62
     7
100
AcDbLine
 10
517.760735
 20
15.810395
 30
0.0
 11
518.8019
 21
16.85156
 31
0.0
  0
LINE
  5
39F
330
1F
100
AcDbEntity
  8
GR1-1
  6
CONTINUOUS
 62
     7
100
AcDbLine
 10
513.934512
 20
11.913462
 30
0.0
 11
514.940321
 21
12.919271
 31
0.0
  0
LINE
  5
3A0
330
1F
100
AcDbEntity
  8
GR1-1
  6
CONTINUOUS
 62
     7
100
AcDbLine
 10
515.756667
 20
13.735617
 30
0.0
 11
516.155666
 21
14.134615
 31
0.0
  0
LINE
  5
3A1
330
1F
100
AcDbEntity
  8
GR1-1
  6
CONTINUOUS
 62
     7
100
AcDbLine
 10
517.02105
 20
15.0
 30
0.0
 11
517.367204
 21
15.346154
 31
0.0
  0
LINE
  5
3A2
330
1F
100
AcDbEntity
  8
GR1-1
  6
CONTINUOUS
 62
     7
100
AcDbLine
 10
517.79609
 20
15.77504
 30
0.0
 11
518.8019
 21
16.780849
 31
0.0
  0
LINE
  5
3A3
330
1F
100
AcDbEntity
  8
GR1-1
  6
CONTINUOUS
 62
     7
100
AcDbLine
 10
514.005223
 20
11.913462
 30
0.0
 11
514.975677
 21
12.883915
 31
0.0
  0
LINE
  5
3A4
330
1F
100
AcDbEntity
  8
GR1-1
  6
CONTINUOUS
 62
     7
100
AcDbLine
 10
515.792023
 20
13.700262
 30
0.0
 11
516.226377
 21
14.134615
 31
0.0
  0
LINE
  5
3A5
330
1F
100
AcDbEntity
  8
GR1-1
  6
CONTINUOUS
 62
     7
100
AcDbLine
 10
517.091761
 20
15.0
 30
0.0
 11
517.437915
 21
15.346154
 31
0.0
  0
LINE
  5
3A6
330
1F
100
AcDbEntity
  8
GR1-1
  6
CONTINUOUS
 62
     7
100
AcDbLine
 10
517.831446
 20
15.739685
 30
0.0
 11
518.8019
 21
16.710139
 31
0.0
  0
LINE
  5
3A7
330
1F
100
AcDbEntity
  8
GR1-1
  6
CONTINUOUS
 62
     7
100
AcDbLine
 10
514.075933
 20
11.913462
 30
0.0
 11
515.011032
 21
12.84856
 31
0.0
  0
LINE
  5
3A8
330
1F
100
AcDbEntity
  8
GR1-1
  6
CONTINUOUS
 62
     7
100
AcDbLine
 10
517.162472
 20
15.0
 30
0.0
 11
517.508626
 21
15.346154
 31
0.0
  0
LINE
  5
3A9
330
1F
100
AcDbEntity
  8
GR1-1
  6
CONTINUOUS
 62
     7
100
AcDbLine
 10
517.866801
 20
15.704329
 30
0.0
 11
518.8019
 21
16.639428
 31
0.0
  0
LINE
  5
3AA
330
1F
100
AcDbEntity
  8
GR1-1
  6
CONTINUOUS
 62
     7
100
AcDbLine
 10
514.146644
 20
11.913462
 30
0.0
 11
515.046387
 21
12.813205
 31
0.0
  0
LINE
  5
3AB
330
1F
100
AcDbEntity
  8
GR1-1
  6
CONTINUOUS
 62
     7
100
AcDbLine
 10
517.233183
 20
15.0
 30
0.0
 11
517.579336
 21
15.346154
 31
0.0
  0
LINE
  5
3AC
330
1F
100
AcDbEntity
  8
GR1-1
  6
CONTINUOUS
 62
     7
100
AcDbLine
 10
517.902157
 20
15.668974
 30
0.0
 11
518.8019
 21
16.568717
 31
0.0
  0
LINE
  5
3AD
330
1F
100
AcDbEntity
  8
GR1-1
  6
CONTINUOUS
 62
     7
100
AcDbLine
 10
514.217355
 20
11.913462
 30
0.0
 11
515.081743
 21
12.777849
 31
0.0
  0
LINE
  5
3AE
330
1F
100
AcDbEntity
  8
GR1-1
  6
CONTINUOUS
 62
     7
100
AcDbLine
 10
517.303893
 20
15.0
 30
0.0
 11
517.650047
 21
15.346154
 31
0.0
  0
LINE
  5
3AF
330
1F
100
AcDbEntity
  8
GR1-1
  6
CONTINUOUS
 62
     7
100
AcDbLine
 10
517.937512
 20
15.633619
 30
0.0
 11
518.8019
 21
16.498007
 31
0.0
  0
LINE
  5
3B0
330
1F
100
AcDbEntity
  8
GR1-1
  6
CONTINUOUS
 62
     7
100
AcDbLine
 10
514.288065
 20
11.913462
 30
0.0
 11
515.117098
 21
12.742494
 31
0.0
  0
LINE
  5
3B1
330
1F
100
AcDbEntity
  8
GR1-1
  6
CONTINUOUS
 62
     7
100
AcDbLine
 10
517.374604
 20
15.0
 30
0.0
 11
517.720758
 21
15.346154
 31
0.0
  0
LINE
  5
3B2
330
1F
100
AcDbEntity
  8
GR1-1
  6
CONTINUOUS
 62
     7
100
AcDbLine
 10
517.972867
 20
15.598263
 30
0.0
 11
518.8019
 21
16.427296
 31
0.0
  0
LINE
  5
3B3
330
1F
100
AcDbEntity
  8
GR1-1
  6
CONTINUOUS
 62
     7
100
AcDbLine
 10
514.358776
 20
11.913462
 30
0.0
 11
515.152453
 21
12.707139
 31
0.0
  0
LINE
  5
3B4
330
1F
100
AcDbEntity
  8
GR1-1
  6
CONTINUOUS
 62
     7
100
AcDbLine
 10
517.445315
 20
15.0
 30
0.0
 11
517.791468
 21
15.346154
 31
0.0
  0
LINE
  5
3B5
330
1F
100
AcDbEntity
  8
GR1-1
  6
CONTINUOUS
 62
     7
100
AcDbLine
 10
518.008223
 20
15.562908
 30
0.0
 11
518.8019
 21
16.356585
 31
0.0
  0
LINE
  5
3B6
330
1F
100
AcDbEntity
  8
GR1-1
  6
CONTINUOUS
 62
     7
100
AcDbLine
 10
514.429487
 20
11.913462
 30
0.0
 11
515.187809
 21
12.671783
 31
0.0
  0
LINE
  5
3B7
330
1F
100
AcDbEntity
  8
GR1-1
  6
CONTINUOUS
 62
     7
100
AcDbLine
 10
517.516025
 20
15.0
 30
0.0
 11
517.862179
 21
15.346154
 31
0.0
  0
LINE
  5
3B8
330
1F
100
AcDbEntity
  8
GR1-1
  6
CONTINUOUS
 62
     7
100
AcDbLine
 10
518.043578
 20
15.527553
 30
0.0
 11
518.8019
 21
16.285875
 31
0.0
  0
LINE
  5
3B9
330
1F
100
AcDbEntity
  8
GR1-1
  6
CONTINUOUS
 62
     7
100
AcDbLine
 10
514.500197
 20
11.913462
 30
0.0
 11
515.223164
 21
12.636428
 31
0.0
  0
LINE
  5
3BA
330
1F
100
AcDbEntity
  8
GR1-1
  6
CONTINUOUS
 62
     7
100
AcDbLine
 10
517.586736
 20
15.0
 30
0.0
 11
517.93289
 21
15.346154
 31
0.0
  0
LINE
  5
3BB
330
1F
100
AcDbEntity
  8
GR1-1
  6
CONTINUOUS
 62
     7
100
AcDbLine
 10
518.078933
 20
15.492197
 30
0.0
 11
518.8019
 21
16.215164
 31
0.0
  0
LINE
  5
3BC
330
1F
100
AcDbEntity
  8
GR1-1
  6
CONTINUOUS
 62
     7
100
AcDbLine
 10
514.570908
 20
11.913462
 30
0.0
 11
515.258519
 21
12.601073
 31
0.0
  0
LINE
  5
3BD
330
1F
100
AcDbEntity
  8
GR1-1
  6
CONTINUOUS
 62
     7
100
AcDbLine
 10
517.657447
 20
15.0
 30
0.0
 11
518.0036
 21
15.346154
 31
0.0
  0
LINE
  5
3BE
330
1F
100
AcDbEntity
  8
GR1-1
  6
CONTINUOUS
 62
     7
100
AcDbLine
 10
518.114289
 20
15.456842
 30
0.0
 11
518.8019
 21
16.144453
 31
0.0
  0
LINE
  5
3BF
330
1F
100
AcDbEntity
  8
GR1-1
  6
CONTINUOUS
 62
     7
100
AcDbLine
 10
514.641619
 20
11.913462
 30
0.0
 11
515.293875
 21
12.565717
 31
0.0
  0
LINE
  5
3C0
330
1F
100
AcDbEntity
  8
GR1-1
  6
CONTINUOUS
 62
     7
100
AcDbLine
 10
517.728157
 20
15.0
 30
0.0
 11
518.074311
 21
15.346154
 31
0.0
  0
LINE
  5
3C1
330
1F
100
AcDbEntity
  8
GR1-1
  6
CONTINUOUS
 62
     7
100
AcDbLine
 10
518.149644
 20
15.421487
 30
0.0
 11
518.8019
 21
16.073743
 31
0.0
  0
LINE
  5
3C2
330
1F
100
AcDbEntity
  8
GR1-1
  6
CONTINUOUS
 62
     7
100
AcDbLine
 10
514.712329
 20
11.913462
 30
0.0
 11
515.32923
 21
12.530362
 31
0.0
  0
LINE
  5
3C3
330
1F
100
AcDbEntity
  8
GR1-1
  6
CONTINUOUS
 62
     7
100
AcDbLine
 10
517.798868
 20
15.0
 30
0.0
 11
518.145022
 21
15.346154
 31
0.0
  0
LINE
  5
3C4
330
1F
100
AcDbEntity
  8
GR1-1
  6
CONTINUOUS
 62
     7
100
AcDbLine
 10
518.184999
 20
15.386131
 30
0.0
 11
518.8019
 21
16.003032
 31
0.0
  0
LINE
  5
3C5
330
1F
100
AcDbEntity
  8
GR1-1
  6
CONTINUOUS
 62
     7
100
AcDbLine
 10
514.78304
 20
11.913462
 30
0.0
 11
515.364585
 21
12.495007
 31
0.0
  0
LINE
  5
3C6
330
1F
100
AcDbEntity
  8
GR1-1
  6
CONTINUOUS
 62
     7
100
AcDbLine
 10
517.869579
 20
15.0
 30
0.0
 11
518.215732
 21
15.346154
 31
0.0
  0
LINE
  5
3C7
330
1F
100
AcDbEntity
  8
GR1-1
  6
CONTINUOUS
 62
     7
100
AcDbLine
 10
518.220355
 20
15.350776
 30
0.0
 11
518.8019
 21
15.932321
 31
0.0
  0
LINE
  5
3C8
330
1F
100
AcDbEntity
  8
GR1-1
  6
CONTINUOUS
 62
     7
100
AcDbLine
 10
514.853751
 20
11.913462
 30
0.0
 11
515.399941
 21
12.459651
 31
0.0
  0
LINE
  5
3C9
330
1F
100
AcDbEntity
  8
GR1-1
  6
CONTINUOUS
 62
     7
100
AcDbLine
 10
517.940289
 20
15.0
 30
0.0
 11
518.8019
 21
15.86161
 31
0.0
  0
LINE
  5
3CA
330
1F
100
AcDbEntity
  8
GR1-1
  6
CONTINUOUS
 62
     7
100
AcDbLine
 10
514.924461
 20
11.913462
 30
0.0
 11
515.435296
 21
12.424296
 31
0.0
  0
LINE
  5
3CB
330
1F
100
AcDbEntity
  8
GR1-1
  6
CONTINUOUS
 62
     7
100
AcDbLine
 10
518.011
 20
15.0
 30
0.0
 11
518.8019
 21
15.7909
 31
0.0
  0
LINE
  5
3CC
330
1F
100
AcDbEntity
  8
GR1-1
  6
CONTINUOUS
 62
     7
100
AcDbLine
 10
514.995172
 20
11.913462
 30
0.0
 11
515.470651
 21
12.388941
 31
0.0
  0
LINE
  5
3CD
330
1F
100
AcDbEntity
  8
GR1-1
  6
CONTINUOUS
 62
     7
100
AcDbLine
 10
518.081711
 20
15.0
 30
0.0
 11
518.8019
 21
15.720189
 31
0.0
  0
LINE
  5
3CE
330
1F
100
AcDbEntity
  8
GR1-1
  6
CONTINUOUS
 62
     7
100
AcDbLine
 10
515.065883
 20
11.913462
 30
0.0
 11
515.506007
 21
12.353585
 31
0.0
  0
LINE
  5
3CF
330
1F
100
AcDbEntity
  8
GR1-1
  6
CONTINUOUS
 62
     7
100
AcDbLine
 10
518.152421
 20
15.0
 30
0.0
 11
518.8019
 21
15.649478
 31
0.0
  0
LINE
  5
3D0
330
1F
100
AcDbEntity
  8
GR1-1
  6
CONTINUOUS
 62
     7
100
AcDbLine
 10
515.136594
 20
11.913462
 30
0.0
 11
515.541362
 21
12.31823
 31
0.0
  0
LINE
  5
3D1
330
1F
100
AcDbEntity
  8
GR1-1
  6
CONTINUOUS
 62
     7
100
AcDbLine
 10
518.223132
 20
15.0
 30
0.0
 11
518.8019
 21
15.578768
 31
0.0
  0
LINE
  5
3D2
330
1F
100
AcDbEntity
  8
GR1-1
  6
CONTINUOUS
 62
     7
100
AcDbLine
 10
515.207304
 20
11.913462
 30
0.0
 11
515.576717
 21
12.282875
 31
0.0
  0
LINE
  5
3D3
330
1F
100
AcDbEntity
  8
GR1-1
  6
CONTINUOUS
 62
     7
100
AcDbLine
 10
518.224977
 20
14.931134
 30
0.0
 11
518.8019
 21
15.508057
 31
0.0
  0
LINE
  5
3D4
330
1F
100
AcDbEntity
  8
GR1-1
  6
CONTINUOUS
 62
     7
100
AcDbLine
 10
515.278015
 20
11.913462
 30
0.0
 11
515.612073
 21
12.247519
 31
0.0
  0
LINE
  5
3D5
330
1F
100
AcDbEntity
  8
GR1-1
  6
CONTINUOUS
 62
     7
100
AcDbLine
 10
518.224977
 20
14.860423
 30
0.0
 11
518.8019
 21
15.437346
 31
0.0
  0
LINE
  5
3D6
330
1F
100
AcDbEntity
  8
GR1-1
  6
CONTINUOUS
 62
     7
100
AcDbLine
 10
515.348726
 20
11.913462
 30
0.0
 11
515.647428
 21
12.212164
 31
0.0
  0
LINE
  5
3D7
330
1F
100
AcDbEntity
  8
GR1-1
  6
CONTINUOUS
 62
     7
100
AcDbLine
 10
518.224977
 20
14.789713
 30
0.0
 11
518.8019
 21
15.366636
 31
0.0
  0
LINE
  5
3D8
330
1F
100
AcDbEntity
  8
GR1-1
  6
CONTINUOUS
 62
     7
100
AcDbLine
 10
515.419436
 20
11.913462
 30
0.0
 11
515.682783
 21
12.176809
 31
0.0
  0
LINE
  5
3D9
330
1F
100
AcDbEntity
  8
GR1-1
  6
CONTINUOUS
 62
     7
100
AcDbLine
 10
518.224977
 20
14.719002
 30
0.0
 11
518.8019
 21
15.295925
 31
0.0
  0
LINE
  5
3DA
330
1F
100
AcDbEntity
  8
GR1-1
  6
CONTINUOUS
 62
     7
100
AcDbLine
 10
515.490147
 20
11.913462
 30
0.0
 11
515.718139
 21
12.141453
 31
0.0
  0
LINE
  5
3DB
330
1F
100
AcDbEntity
  8
GR1-1
  6
CONTINUOUS
 62
     7
100
AcDbLine
 10
518.224977
 20
14.648291
 30
0.0
 11
518.8019
 21
15.225214
 31
0.0
  0
LINE
  5
3DC
330
1F
100
AcDbEntity
  8
GR1-1
  6
CONTINUOUS
 62
     7
100
AcDbLine
 10
515.560858
 20
11.913462
 30
0.0
 11
515.753494
 21
12.106098
 31
0.0
  0
LINE
  5
3DD
330
1F
100
AcDbEntity
  8
GR1-1
  6
CONTINUOUS
 62
     7
100
AcDbLine
 10
518.224977
 20
14.577581
 30
0.0
 11
518.8019
 21
15.154504
 31
0.0
  0
LINE
  5
3DE
330
1F
100
AcDbEntity
  8
GR1-1
  6
CONTINUOUS
 62
     7
100
AcDbLine
 10
515.631568
 20
11.913462
 30
0.0
 11
515.788849
 21
12.070743
 31
0.0
  0
LINE
  5
3DF
330
1F
100
AcDbEntity
  8
GR1-1
  6
CONTINUOUS
 62
     7
100
AcDbLine
 10
518.224977
 20
14.50687
 30
0.0
 11
518.8019
 21
15.083793
 31
0.0
  0
LINE
  5
3E0
330
1F
100
AcDbEntity
  8
GR1-1
  6
CONTINUOUS
 62
     7
100
AcDbLine
 10
515.702279
 20
11.913462
 30
0.0
 11
517.359592
 21
13.570775
 31
0.0
  0
LINE
  5
3E1
330
1F
100
AcDbEntity
  8
GR1-1
  6
CONTINUOUS
 62
     7
100
AcDbLine
 10
518.224977
 20
14.436159
 30
0.0
 11
518.8019
 21
15.013082
 31
0.0
  0
LINE
  5
3E2
330
1F
100
AcDbEntity
  8
GR1-1
  6
CONTINUOUS
 62
     7
100
AcDbLine
 10
515.77299
 20
11.913462
 30
0.0
 11
517.359592
 21
13.500064
 31
0.0
  0
LINE
  5
3E3
330
1F
100
AcDbEntity
  8
GR1-1
  6
CONTINUOUS
 62
     7
100
AcDbLine
 10
518.224977
 20
14.365449
 30
0.0
 11
518.8019
 21
14.942372
 31
0.0
  0
LINE
  5
3E4
330
1F
100
AcDbEntity
  8
GR1-1
  6
CONTINUOUS
 62
     7
100
AcDbLine
 10
515.8437
 20
11.913462
 30
0.0
 11
517.359592
 21
13.429353
 31
0.0
  0
LINE
  5
3E5
330
1F
100
AcDbEntity
  8
GR1-1
  6
CONTINUOUS
 62
     7
100
AcDbLine
 10
518.224977
 20
14.294738
 30
0.0
 11
518.8019
 21
14.871661
 31
0.0
  0
LINE
  5
3E6
330
1F
100
AcDbEntity
  8
GR1-1
  6
CONTINUOUS
 62
     7
100
AcDbLine
 10
515.914411
 20
11.913462
 30
0.0
 11
517.359592
 21
13.358643
 31
0.0
  0
LINE
  5
3E7
330
1F
100
AcDbEntity
  8
GR1-1
  6
CONTINUOUS
 62
     7
100
AcDbLine
 10
518.224977
 20
14.224027
 30
0.0
 11
518.8019
 21
14.80095
 31
0.0
  0
LINE
  5
3E8
330
1F
100
AcDbEntity
  8
GR1-1
  6
CONTINUOUS
 62
     7
100
AcDbLine
 10
515.985122
 20
11.913462
 30
0.0
 11
517.359592
 21
13.287932
 31
0.0
  0
LINE
  5
3E9
330
1F
100
AcDbEntity
  8
GR1-1
  6
CONTINUOUS
 62
     7
100
AcDbLine
 10
518.224977
 20
14.153317
 30
0.0
 11
518.8019
 21
14.73024
 31
0.0
  0
LINE
  5
3EA
330
1F
100
AcDbEntity
  8
GR1-1
  6
CONTINUOUS
 62
     7
100
AcDbLine
 10
516.055832
 20
11.913462
 30
0.0
 11
517.359592
 21
13.217221
 31
0.0
  0
LINE
  5
3EB
330
1F
100
AcDbEntity
  8
GR1-1
  6
CONTINUOUS
 62
     7
100
AcDbLine
 10
518.224977
 20
14.082606
 30
0.0
 11
518.8019
 21
14.659529
 31
0.0
  0
LINE
  5
3EC
330
1F
100
AcDbEntity
  8
GR1-1
  6
CONTINUOUS
 62
     7
100
AcDbLine
 10
516.126543
 20
11.913462
 30
0.0
 11
517.359592
 21
13.146511
 31
0.0
  0
LINE
  5
3ED
330
1F
100
AcDbEntity
  8
GR1-1
  6
CONTINUOUS
 62
     7
100
AcDbLine
 10
518.224977
 20
14.011895
 30
0.0
 11
518.8019
 21
14.588818
 31
0.0
  0
LINE
  5
3EE
330
1F
100
AcDbEntity
  8
GR1-1
  6
CONTINUOUS
 62
     7
100
AcDbLine
 10
516.197254
 20
11.913462
 30
0.0
 11
517.359592
 21
13.0758
 31
0.0
  0
LINE
  5
3EF
330
1F
100
AcDbEntity
  8
GR1-1
  6
CONTINUOUS
 62
     7
100
AcDbLine
 10
518.224977
 20
13.941185
 30
0.0
 11
518.8019
 21
14.518108
 31
0.0
  0
LINE
  5
3F0
330
1F
100
AcDbEntity
  8
GR1-1
  6
CONTINUOUS
 62
     7
100
AcDbLine
 10
516.267964
 20
11.913462
 30
0.0
 11
517.359592
 21
13.005089
 31
0.0
  0
LINE
  5
3F1
330
1F
100
AcDbEntity
  8
GR1-1
  6
CONTINUOUS
 62
     7
100
AcDbLine
 10
518.224977
 20
13.870474
 30
0.0
 11
518.8019
 21
14.447397
 31
0.0
  0
LINE
  5
3F2
330
1F
100
AcDbEntity
  8
GR1-1
  6
CONTINUOUS
 62
     7
100
AcDbLine
 10
516.338675
 20
11.913462
 30
0.0
 11
517.405983
 21
12.980769
 31
0.0
  0
LINE
  5
3F3
330
1F
100
AcDbEntity
  8
GR1-1
  6
CONTINUOUS
 62
     7
100
AcDbLine
 10
518.224977
 20
13.799763
 30
0.0
 11
518.8019
 21
14.376686
 31
0.0
  0
LINE
  5
3F4
330
1F
100
AcDbEntity
  8
GR1-1
  6
CONTINUOUS
 62
     7
100
AcDbLine
 10
516.409386
 20
11.913462
 30
0.0
 11
517.476693
 21
12.980769
 31
0.0
  0
LINE
  5
3F5
330
1F
100
AcDbEntity
  8
GR1-1
  6
CONTINUOUS
 62
     7
100
AcDbLine
 10
518.224977
 20
13.729052
 30
0.0
 11
518.8019
 21
14.305976
 31
0.0
  0
LINE
  5
3F6
330
1F
100
AcDbEntity
  8
GR1-1
  6
CONTINUOUS
 62
     7
100
AcDbLine
 10
516.480096
 20
11.913462
 30
0.0
 11
517.547404
 21
12.980769
 31
0.0
  0
LINE
  5
3F7
330
1F
100
AcDbEntity
  8
GR1-1
  6
CONTINUOUS
 62
     7
100
AcDbLine
 10
518.224977
 20
13.658342
 30
0.0
 11
518.8019
 21
14.235265
 31
0.0
  0
LINE
  5
3F8
330
1F
100
AcDbEntity
  8
GR1-1
  6
CONTINUOUS
 62
     7
100
AcDbLine
 10
516.550807
 20
11.913462
 30
0.0
 11
517.618115
 21
12.980769
 31
0.0
  0
LINE
  5
3F9
330
1F
100
AcDbEntity
  8
GR1-1
  6
CONTINUOUS
 62
     7
100
AcDbLine
 10
518.224977
 20
13.587631
 30
0.0
 11
518.8019
 21
14.164554
 31
0.0
  0
LINE
  5
3FA
330
1F
100
AcDbEntity
  8
GR1-1
  6
CONTINUOUS
 62
     7
100
AcDbLine
 10
516.621518
 20
11.913462
 30
0.0
 11
517.688825
 21
12.980769
 31
0.0
  0
LINE
  5
3FB
330
1F
100
AcDbEntity
  8
GR1-1
  6
CONTINUOUS
 62
     7
100
AcDbLine
 10
518.224977
 20
13.51692
 30
0.0
 11
518.8019
 21
14.093844
 31
0.0
  0
LINE
  5
3FC
330
1F
100
AcDbEntity
  8
GR1-1
  6
CONTINUOUS
 62
     7
100
AcDbLine
 10
516.692228
 20
11.913462
 30
0.0
 11
517.759536
 21
12.980769
 31
0.0
  0
LINE
  5
3FD
330
1F
100
AcDbEntity
  8
GR1-1
  6
CONTINUOUS
 62
     7
100
AcDbLine
 10
518.224977
 20
13.44621
 30
0.0
 11
518.8019
 21
14.023133
 31
0.0
  0
LINE
  5
3FE
330
1F
100
AcDbEntity
  8
GR1-1
  6
CONTINUOUS
 62
     7
100
AcDbLine
 10
516.762939
 20
11.913462
 30
0.0
 11
517.830247
 21
12.980769
 31
0.0
  0
LINE
  5
3FF
330
1F
100
AcDbEntity
  8
GR1-1
  6
CONTINUOUS
 62
     7
100
AcDbLine
 10
518.224977
 20
13.375499
 30
0.0
 11
518.8019
 21
13.952422
 31
0.0
  0
LINE
  5
400
330
1F
100
AcDbEntity
  8
GR1-1
  6
CONTINUOUS
 62
     7
100
AcDbLine
 10
516.83365
 20
11.913462
 30
0.0
 11
517.900958
 21
12.980769
 31
0.0
  0
LINE
  5
401
330
1F
100
AcDbEntity
  8
GR1-1
  6
CONTINUOUS
 62
     7
100
AcDbLine
 10
518.224977
 20
13.304788
 30
0.0
 11
518.8019
 21
13.881712
 31
0.0
  0
LINE
  5
402
330
1F
100
AcDbEntity
  8
GR1-1
  6
CONTINUOUS
 62
     7
100
AcDbLine
 10
516.90436
 20
11.913462
 30
0.0
 11
517.971668
 21
12.980769
 31
0.0
  0
LINE
  5
403
330
1F
100
AcDbEntity
  8
GR1-1
  6
CONTINUOUS
 62
     7
100
AcDbLine
 10
518.224977
 20
13.234078
 30
0.0
 11
518.8019
 21
13.811001
 31
0.0
  0
LINE
  5
404
330
1F
100
AcDbEntity
  8
GR1-1
  6
CONTINUOUS
 62
     7
100
AcDbLine
 10
516.975071
 20
11.913462
 30
0.0
 11
518.042379
 21
12.980769
 31
0.0
  0
LINE
  5
405
330
1F
100
AcDbEntity
  8
GR1-1
  6
CONTINUOUS
 62
     7
100
AcDbLine
 10
518.224977
 20
13.163367
 30
0.0
 11
518.8019
 21
13.74029
 31
0.0
  0
LINE
  5
406
330
1F
100
AcDbEntity
  8
GR1-1
  6
CONTINUOUS
 62
     7
100
AcDbLine
 10
517.045782
 20
11.913462
 30
0.0
 11
518.11309
 21
12.980769
 31
0.0
  0
LINE
  5
407
330
1F
100
AcDbEntity
  8
GR1-1
  6
CONTINUOUS
 62
     7
100
AcDbLine
 10
518.224977
 20
13.092656
 30
0.0
 11
518.8019
 21
13.669579
 31
0.0
  0
LINE
  5
408
330
1F
100
AcDbEntity
  8
GR1-1
  6
CONTINUOUS
 62
     7
100
AcDbLine
 10
517.116493
 20
11.913462
 30
0.0
 11
518.1838
 21
12.980769
 31
0.0
  0
LINE
  5
409
330
1F
100
AcDbEntity
  8
GR1-1
  6
CONTINUOUS
 62
     7
100
AcDbLine
 10
518.224977
 20
13.021946
 30
0.0
 11
518.8019
 21
13.598869
 31
0.0
  0
LINE
  5
40A
330
1F
100
AcDbEntity
  8
GR1-1
  6
CONTINUOUS
 62
     7
100
AcDbLine
 10
517.187203
 20
11.913462
 30
0.0
 11
518.8019
 21
13.528158
 31
0.0
  0
LINE
  5
40B
330
1F
100
AcDbEntity
  8
GR1-1
  6
CONTINUOUS
 62
     7
100
AcDbLine
 10
517.257914
 20
11.913462
 30
0.0
 11
518.8019
 21
13.457447
 31
0.0
  0
LINE
  5
40C
330
1F
100
AcDbEntity
  8
GR1-1
  6
CONTINUOUS
 62
     7
100
AcDbLine
 10
517.328625
 20
11.913462
 30
0.0
 11
518.8019
 21
13.386737
 31
0.0
  0
LINE
  5
40D
330
1F
100
AcDbEntity
  8
GR1-1
  6
CONTINUOUS
 62
     7
100
AcDbLine
 10
517.399335
 20
11.913462
 30
0.0
 11
518.8019
 21
13.316026
 31
0.0
  0
LINE
  5
40E
330
1F
100
AcDbEntity
  8
GR1-1
  6
CONTINUOUS
 62
     7
100
AcDbLine
 10
517.470046
 20
11.913462
 30
0.0
 11
518.8019
 21
13.245315
 31
0.0
  0
LINE
  5
40F
330
1F
100
AcDbEntity
  8
GR1-1
  6
CONTINUOUS
 62
     7
100
AcDbLine
 10
517.540757
 20
11.913462
 30
0.0
 11
518.8019
 21
13.174605
 31
0.0
  0
LINE
  5
410
330
1F
100
AcDbEntity
  8
GR1-1
  6
CONTINUOUS
 62
     7
100
AcDbLine
 10
517.611467
 20
11.913462
 30
0.0
 11
518.8019
 21
13.103894
 31
0.0
  0
LINE
  5
411
330
1F
100
AcDbEntity
  8
GR1-1
  6
CONTINUOUS
 62
     7
100
AcDbLine
 10
517.682178
 20
11.913462
 30
0.0
 11
518.8019
 21
13.033183
 31
0.0
  0
LINE
  5
412
330
1F
100
AcDbEntity
  8
GR1-1
  6
CONTINUOUS
 62
     7
100
AcDbLine
 10
517.752889
 20
11.913462
 30
0.0
 11
518.8019
 21
12.962473
 31
0.0
  0
LINE
  5
413
330
1F
100
AcDbEntity
  8
GR1-1
  6
CONTINUOUS
 62
     7
100
AcDbLine
 10
517.823599
 20
11.913462
 30
0.0
 11
518.8019
 21
12.891762
 31
0.0
  0
LINE
  5
414
330
1F
100
AcDbEntity
  8
GR1-1
  6
CONTINUOUS
 62
     7
100
AcDbLine
 10
517.89431
 20
11.913462
 30
0.0
 11
518.8019
 21
12.821051
 31
0.0
  0
LINE
  5
415
330
1F
100
AcDbEntity
  8
GR1-1
  6
CONTINUOUS
 62
     7
100
AcDbLine
 10
517.965021
 20
11.913462
 30
0.0
 11
518.8019
 21
12.750341
 31
0.0
  0
LINE
  5
416
330
1F
100
AcDbEntity
  8
GR1-1
  6
CONTINUOUS
 62
     7
100
AcDbLine
 10
518.035731
 20
11.913462
 30
0.0
 11
518.8019
 21
12.67963
 31
0.0
  0
LINE
  5
417
330
1F
100
AcDbEntity
  8
GR1-1
  6
CONTINUOUS
 62
     7
100
AcDbLine
 10
518.106442
 20
11.913462
 30
0.0
 11
518.8019
 21
12.608919
 31
0.0
  0
LINE
  5
418
330
1F
100
AcDbEntity
  8
GR1-1
  6
CONTINUOUS
 62
     7
100
AcDbLine
 10
518.177153
 20
11.913462
 30
0.0
 11
518.8019
 21
12.538209
 31
0.0
  0
LINE
  5
419
330
1F
100
AcDbEntity
  8
GR1-1
  6
CONTINUOUS
 62
     7
100
AcDbLine
 10
518.247863
 20
11.913462
 30
0.0
 11
518.8019
 21
12.467498
 31
0.0
  0
LINE
  5
41A
330
1F
100
AcDbEntity
  8
GR1-1
  6
CONTINUOUS
 62
     7
100
AcDbLine
 10
518.318574
 20
11.913462
 30
0.0
 11
518.8019
 21
12.396787
 31
0.0
  0
LINE
  5
41B
330
1F
100
AcDbEntity
  8
GR1-1
  6
CONTINUOUS
 62
     7
100
AcDbLine
 10
518.389285
 20
11.913462
 30
0.0
 11
518.8019
 21
12.326077
 31
0.0
  0
LINE
  5
41C
330
1F
100
AcDbEntity
  8
GR1-1
  6
CONTINUOUS
 62
     7
100
AcDbLine
 10
518.459995
 20
11.913462
 30
0.0
 11
518.8019
 21
12.255366
 31
0.0
  0
LINE
  5
41D
330
1F
100
AcDbEntity
  8
GR1-1
  6
CONTINUOUS
 62
     7
100
AcDbLine
 10
518.530706
 20
11.913462
 30
0.0
 11
518.8019
 21
12.184655
 31
0.0
  0
LINE
  5
41E
330
1F
100
AcDbEntity
  8
GR1-1
  6
CONTINUOUS
 62
     7
100
AcDbLine
 10
518.601417
 20
11.913462
 30
0.0
 11
518.8019
 21
12.113945
 31
0.0
  0
LINE
  5
41F
330
1F
100
AcDbEntity
  8
GR1-1
  6
CONTINUOUS
 62
     7
100
AcDbLine
 10
518.672127
 20
11.913462
 30
0.0
 11
518.8019
 21
12.043234
 31
0.0
  0
LINE
  5
420
330
1F
100
AcDbEntity
  8
GR1-1
  6
CONTINUOUS
 62
     7
100
AcDbLine
 10
518.742838
 20
11.913462
 30
0.0
 11
518.8019
 21
11.972523
 31
0.0
  0
LINE
  5
421
330
1F
100
AcDbEntity
  8
GR1-1
  6
CONTINUOUS
 62
     3
100
AcDbLine
 10
288.49945
 20
193.95
 30
0.0
 11
285.560372
 21
193.95
 31
0.0
  0
LINE
  5
422
330
1F
100
AcDbEntity
  8
GR1-1
  6
CONTINUOUS
 62
     3
100
AcDbLine
 10
282.361441
 20
357.7
 30
0.0
 11
284.561441
 21
357.7
 31
0.0
  0
LINE
  5
423
330
1F
100
AcDbEntity
  8
GR1-1
  6
CONTINUOUS
 62
     3
100
AcDbLine
 10
282.361441
 20
302.3
 30
0.0
 11
284.561441
 21
302.3
 31
0.0
  0
LINE
  5
424
330
1F
100
AcDbEntity
  8
GR1-1
  6
CONTINUOUS
 62
     3
100
AcDbLine
 10
157.760372
 20
193.95
 30
0.0
 11
103.360372
 21
193.95
 31
0.0
  0
LINE
  5
425
330
1F
100
AcDbEntity
  8
GR1-1
  6
CONTINUOUS
 62
     3
100
AcDbLine
 10
158.260372
 20
193.45
 30
0.0
 11
158.260372
 21
98.95
 31
0.0
  0
ARC
  5
426
330
1F
100
AcDbEntity
  8
LAYERGROUP-1
  6
CONTINUOUS
 62
     3
100
AcDbCircle
 10
157.760372
 20
193.45
 30
0.0
 40
0.5
100
AcDbArc
 50
0.0
 51
90.0
  0
LINE
  5
427
330
1F
100
AcDbEntity
  8
GR1-1
  6
CONTINUOUS
 62
     3
100
AcDbLine
 10
102.860372
 20
193.45
 30
0.0
 11
102.860372
 21
98.95
 31
0.0
  0
ARC
  5
428
330
1F
100
AcDbEntity
  8
LAYERGROUP-1
  6
CONTINUOUS
 62
     3
100
AcDbCircle
 10
103.360372
 20
193.45
 30
0.0
 40
0.5
100
AcDbArc
 50
90.0
 51
180.0
  0
ENDSEC
  0
SECTION
  2
OBJECTS
  0
DICTIONARY
  5
C
330
0
100
AcDbDictionary
  3
ACAD_GROUP
350
D
  3
ACAD_LAYOUT
350
1A
  3
ACAD_MLINESTYLE
350
17
  3
ACAD_PLOTSETTINGS
350
19
  3
ACDBHEADERROUNDTRIPXREC
350
429
  0
DICTIONARY
  5
D
102
{ACAD_REACTORS
330
C
102
}
330
C
100
AcDbDictionary
  0
DICTIONARY
  5
1A
102
{ACAD_REACTORS
330
C
102
}
330
C
100
AcDbDictionary
  0
DICTIONARY
  5
17
102
{ACAD_REACTORS
330
C
102
}
330
C
100
AcDbDictionary
  3
STANDARD
350
18
  0
DICTIONARY
  5
19
102
{ACAD_REACTORS
330
C
102
}
330
C
100
AcDbDictionary
  0
DICTIONARY
  5
429
102
{ACAD_REACTORS
330
C
102
}
330
C
100
AcDbDictionary
  3
CEPSNTYPE
350
432
  3
DIMSTYLEDATA
350
448
  3
FINGERPRINTGUID
350
433
  3
HYPERLINKBASE
350
42C
  3
INSUNITS
350
431
  3
LAYOUTDICT
350
42E
  3
LWETCUNION
350
430
  3
PLOTSETDICT
350
42F
  3
PSVPSCALE
350
435
  3
PUCSBASE
350
438
  3
PUCSORGBACK
350
43E
  3
PUCSORGBOTTOM
350
43A
  3
PUCSORGFRONT
350
43D
  3
PUCSORGLEFT
350
43B
  3
PUCSORGRIGHT
350
43C
  3
PUCSORGTOP
350
439
  3
PUCSORTHOREF
350
436
  3
PUCSORTHOVIEW
350
437
  3
STYLESHEET
350
42D
  3
TSTACKALIGN
350
42A
  3
TSTACKSIZE
350
42B
  3
UCSBASE
350
441
  3
UCSORGBACK
350
447
  3
UCSORGBOTTOM
350
443
  3
UCSORGFRONT
350
446
  3
UCSORGLEFT
350
444
  3
UCSORGRIGHT
350
445
  3
UCSORGTOP
350
442
  3
UCSORTHOREF
350
43F
  3
UCSORTHOVIEW
350
440
  3
VERSIONGUID
350
434
  0
MLINESTYLE
  5
18
102
{ACAD_REACTORS
330
17
102
}
330
17
100
AcDbMlineStyle
  2
Standard
 70
     0
  3

 62
   256
 51
90.0
 52
90.0
 71
     2
 49
0.5
 62
   256
  6
BYLAYER
 49
-0.5
 62
   256
  6
BYLAYER
  0
XRECORD
  5
432
102
{ACAD_REACTORS
330
429
102
}
330
429
100
AcDbXrecord
 90
        0
  0
XRECORD
  5
448
102
{ACAD_REACTORS
330
429
102
}
330
429
100
AcDbXrecord
1000
DSTYLE
1002
{
1070
   179
 70
     2
1070
   171
 70
     3
1070
   143
 40
0.03937
1070
   274
 70
     3
1070
    41
 40
4.0
1070
   344
340
47
1070
   141
 40
2.5
1070
   176
 70
     7
1070
   177
 70
     7
1070
   178
 70
     7
1070
   271
 70
     2
1070
    46
 40
6.0
1070
    43
 40
10.0
1070
    44
 40
1.0
1070
    42
 40
1.0
1070
   147
 40
1.0
1070
   173
 70
     1
1070
    77
 70
     1
1070
   272
 70
     2
1070
    73
 70
     0
1070
   172
 70
     1
1070
    74
 70
     0
1070
   283
 70
     0
1070
   340
340
3F
1070
   140
 40
4.0
1070
   284
 70
     8
1070
    78
 70
     8
1002
}
  0
XRECORD
  5
433
102
{ACAD_REACTORS
330
429
102
}
330
429
100
AcDbXrecord
  1
{1CAFB993-1DDF-47D9-9545-FC2A85E52E94}
  0
XRECORD
  5
42C
102
{ACAD_REACTORS
330
429
102
}
330
429
100
AcDbXrecord
  1

  0
XRECORD
  5
431
102
{ACAD_REACTORS
330
429
102
}
330
429
100
AcDbXrecord
 90
        1
  0
XRECORD
  5
42E
102
{ACAD_REACTORS
330
429
102
}
330
429
100
AcDbXrecord
340
1A
  0
XRECORD
  5
430
102
{ACAD_REACTORS
330
429
102
}
330
429
100
AcDbXrecord
 90
    10781
  0
XRECORD
  5
42F
102
{ACAD_REACTORS
330
429
102
}
330
429
100
AcDbXrecord
340
19
  0
XRECORD
  5
435
102
{ACAD_REACTORS
330
429
102
}
330
429
100
AcDbXrecord
 40
0.0
  0
XRECORD
  5
438
102
{ACAD_REACTORS
330
429
102
}
330
429
100
AcDbXrecord
340
0
  0
XRECORD
  5
43E
102
{ACAD_REACTORS
330
429
102
}
330
429
100
AcDbXrecord
 10
0.0
 20
0.0
 30
0.0
  0
XRECORD
  5
43A
102
{ACAD_REACTORS
330
429
102
}
330
429
100
AcDbXrecord
 10
0.0
 20
0.0
 30
0.0
  0
XRECORD
  5
43D
102
{ACAD_REACTORS
330
429
102
}
330
429
100
AcDbXrecord
 10
0.0
 20
0.0
 30
0.0
  0
XRECORD
  5
43B
102
{ACAD_REACTORS
330
429
102
}
330
429
100
AcDbXrecord
 10
0.0
 20
0.0
 30
0.0
  0
XRECORD
  5
43C
102
{ACAD_REACTORS
330
429
102
}
330
429
100
AcDbXrecord
 10
0.0
 20
0.0
 30
0.0
  0
XRECORD
  5
439
102
{ACAD_REACTORS
330
429
102
}
330
429
100
AcDbXrecord
 10
0.0
 20
0.0
 30
0.0
  0
XRECORD
  5
436
102
{ACAD_REACTORS
330
429
102
}
330
429
100
AcDbXrecord
340
0
  0
XRECORD
  5
437
102
{ACAD_REACTORS
330
429
102
}
330
429
100
AcDbXrecord
 70
     0
  0
XRECORD
  5
42D
102
{ACAD_REACTORS
330
429
102
}
330
429
100
AcDbXrecord
  1

  0
XRECORD
  5
42A
102
{ACAD_REACTORS
330
429
102
}
330
429
100
AcDbXrecord
 90
        1
  0
XRECORD
  5
42B
102
{ACAD_REACTORS
330
429
102
}
330
429
100
AcDbXrecord
 90
       70
  0
XRECORD
  5
441
102
{ACAD_REACTORS
330
429
102
}
330
429
100
AcDbXrecord
340
0
  0
XRECORD
  5
447
102
{ACAD_REACTORS
330
429
102
}
330
429
100
AcDbXrecord
 10
0.0
 20
0.0
 30
0.0
  0
XRECORD
  5
443
102
{ACAD_REACTORS
330
429
102
}
330
429
100
AcDbXrecord
 10
0.0
 20
0.0
 30
0.0
  0
XRECORD
  5
446
102
{ACAD_REACTORS
330
429
102
}
330
429
100
AcDbXrecord
 10
0.0
 20
0.0
 30
0.0
  0
XRECORD
  5
444
102
{ACAD_REACTORS
330
429
102
}
330
429
100
AcDbXrecord
 10
0.0
 20
0.0
 30
0.0
  0
XRECORD
  5
445
102
{ACAD_REACTORS
330
429
102
}
330
429
100
AcDbXrecord
 10
0.0
 20
0.0
 30
0.0
  0
XRECORD
  5
442
102
{ACAD_REACTORS
330
429
102
}
330
429
100
AcDbXrecord
 10
0.0
 20
0.0
 30
0.0
  0
XRECORD
  5
43F
102
{ACAD_REACTORS
330
429
102
}
330
429
100
AcDbXrecord
340
0
  0
XRECORD
  5
440
102
{ACAD_REACTORS
330
429
102
}
330
429
100
AcDbXrecord
 70
     0
  0
XRECORD
  5
434
102
{ACAD_REACTORS
330
429
102
}
330
429
100
AcDbXrecord
  1
{FAEB1C32-E019-11D5-929B-00C0DF256EC4}
  0
ENDSEC
  0
EOF
