  0
SECTION
  2
HEADER
  9
$ACADVER
  1
AC1015
  9
$ACADMAINTVER
 70
     6
  9
$DWGCODEPAGE
  3
ANSI_932
  9
$INSBASE
 10
0.0
 20
0.0
 30
0.0
  9
$EXTMIN
 10
0.0
 20
0.0
 30
0.0
  9
$EXTMAX
 10
420.0
 20
297.0
 30
0.0
  9
$LIMMIN
 10
0.0
 20
0.0
  9
$LIMMAX
 10
420.0
 20
297.0
  9
$ORTHOMODE
 70
     0
  9
$REGENMODE
 70
     1
  9
$FILLMODE
 70
     1
  9
$QTEXTMODE
 70
     0
  9
$MIRRTEXT
 70
     1
  9
$LTSCALE
 40
1.0
  9
$ATTMODE
 70
     1
  9
$TEXTSIZE
 40
2.5
  9
$TRACEWID
 40
1.0
  9
$TEXTSTYLE
  7
FX_VECTOR
  9
$CLAYER
  8
0
  9
$CELTYPE
  6
ByLayer
  9
$CECOLOR
 62
   256
  9
$CELTSCALE
 40
1.0
  9
$DISPSILH
 70
     0
  9
$DIMSCALE
 40
1.0
  9
$DIMASZ
 40
4.0
  9
$DIMEXO
 40
1.0
  9
$DIMDLI
 40
10.0
  9
$DIMRND
 40
0.0
  9
$DIMDLE
 40
6.0
  9
$DIMEXE
 40
1.0
  9
$DIMTP
 40
0.0
  9
$DIMTM
 40
0.0
  9
$DIMTXT
 40
4.0
  9
$DIMCEN
 40
2.5
  9
$DIMTSZ
 40
0.0
  9
$DIMTOL
 70
     0
  9
$DIMLIM
 70
     0
  9
$DIMTIH
 70
     0
  9
$DIMTOH
 70
     0
  9
$DIMSE1
 70
     0
  9
$DIMSE2
 70
     0
  9
$DIMTAD
 70
     1
  9
$DIMZIN
 70
     8
  9
$DIMBLK
  1

  9
$DIMASO
 70
     1
  9
$DIMSHO
 70
     1
  9
$DIMPOST
  1

  9
$DIMAPOST
  1

  9
$DIMALT
 70
     0
  9
$DIMALTD
 70
     3
  9
$DIMALTF
 40
0.03937
  9
$DIMLFAC
 40
1.0
  9
$DIMTOFL
 70
     1
  9
$DIMTVP
 40
0.0
  9
$DIMTIX
 70
     0
  9
$DIMSOXD
 70
     0
  9
$DIMSAH
 70
     1
  9
$DIMBLK1
  1
FXTIP_ARROW_S
  9
$DIMBLK2
  1
FXTIP_ARROW_E
  9
$DIMSTYLE
  2
FXDIMINFO
  9
$DIMCLRD
 70
     7
  9
$DIMCLRE
 70
     7
  9
$DIMCLRT
 70
     7
  9
$DIMTFAC
 40
1.0
  9
$DIMGAP
 40
1.0
  9
$DIMJUST
 70
     0
  9
$DIMSD1
 70
     0
  9
$DIMSD2
 70
     0
  9
$DIMTOLJ
 70
     1
  9
$DIMTZIN
 70
     8
  9
$DIMALTZ
 70
     0
  9
$DIMALTTZ
 70
     0
  9
$DIMUPT
 70
     0
  9
$DIMDEC
 70
     2
  9
$DIMTDEC
 70
     2
  9
$DIMALTU
 70
     2
  9
$DIMALTTD
 70
     3
  9
$DIMTXSTY
  7
FX_VECTOR
  9
$DIMAUNIT
 70
     0
  9
$DIMADEC
 70
     2
  9
$DIMALTRND
 40
0.0
  9
$DIMAZIN
 70
     2
  9
$DIMDSEP
 70
    46
  9
$DIMATFIT
 70
     3
  9
$DIMFRAC
 70
     0
  9
$DIMLDRBLK
  1
FXTIP_ARROW_S
  9
$DIMLUNIT
 70
     2
  9
$DIMLWD
 70
    -2
  9
$DIMLWE
 70
    -2
  9
$DIMTMOVE
 70
     0
  9
$LUNITS
 70
     2
  9
$LUPREC
 70
     4
  9
$SKETCHINC
 40
1.0
  9
$FILLETRAD
 40
10.0
  9
$AUNITS
 70
     0
  9
$AUPREC
 70
     0
  9
$MENU
  1
.
  9
$ELEVATION
 40
0.0
  9
$PELEVATION
 40
0.0
  9
$THICKNESS
 40
0.0
  9
$LIMCHECK
 70
     0
  9
$CHAMFERA
 40
10.0
  9
$CHAMFERB
 40
10.0
  9
$CHAMFERC
 40
20.0
  9
$CHAMFERD
 40
0.0
  9
$SKPOLY
 70
     0
  9
$TDCREATE
 40
2455751.55722544
  9
$TDUCREATE
 40
2455751.18222544
  9
$TDUPDATE
 40
2455751.557225451
  9
$TDUUPDATE
 40
2455751.182225451
  9
$TDINDWG
 40
0.0000000116
  9
$TDUSRTIMER
 40
0.0000000116
  9
$USRTIMER
 70
     1
  9
$ANGBASE
 50
0.0
  9
$ANGDIR
 70
     0
  9
$PDMODE
 70
     0
  9
$PDSIZE
 40
0.0
  9
$PLINEWID
 40
0.0
  9
$SPLFRAME
 70
     0
  9
$SPLINETYPE
 70
     6
  9
$SPLINESEGS
 70
     8
  9
$HANDSEED
  5
44E
  9
$SURFTAB1
 70
     6
  9
$SURFTAB2
 70
     6
  9
$SURFTYPE
 70
     6
  9
$SURFU
 70
     6
  9
$SURFV
 70
     6
  9
$UCSBASE
  2

  9
$UCSNAME
  2

  9
$UCSORG
 10
0.0
 20
0.0
 30
0.0
  9
$UCSXDIR
 10
1.0
 20
0.0
 30
0.0
  9
$UCSYDIR
 10
0.0
 20
1.0
 30
0.0
  9
$UCSORTHOREF
  2

  9
$UCSORTHOVIEW
 70
     0
  9
$UCSORGTOP
 10
0.0
 20
0.0
 30
0.0
  9
$UCSORGBOTTOM
 10
0.0
 20
0.0
 30
0.0
  9
$UCSORGLEFT
 10
0.0
 20
0.0
 30
0.0
  9
$UCSORGRIGHT
 10
0.0
 20
0.0
 30
0.0
  9
$UCSORGFRONT
 10
0.0
 20
0.0
 30
0.0
  9
$UCSORGBACK
 10
0.0
 20
0.0
 30
0.0
  9
$PUCSBASE
  2

  9
$PUCSNAME
  2

  9
$PUCSORG
 10
0.0
 20
0.0
 30
0.0
  9
$PUCSXDIR
 10
1.0
 20
0.0
 30
0.0
  9
$PUCSYDIR
 10
0.0
 20
1.0
 30
0.0
  9
$PUCSORTHOREF
  2

  9
$PUCSORTHOVIEW
 70
     0
  9
$PUCSORGTOP
 10
0.0
 20
0.0
 30
0.0
  9
$PUCSORGBOTTOM
 10
0.0
 20
0.0
 30
0.0
  9
$PUCSORGLEFT
 10
0.0
 20
0.0
 30
0.0
  9
$PUCSORGRIGHT
 10
0.0
 20
0.0
 30
0.0
  9
$PUCSORGFRONT
 10
0.0
 20
0.0
 30
0.0
  9
$PUCSORGBACK
 10
0.0
 20
0.0
 30
0.0
  9
$USERI1
 70
     0
  9
$USERI2
 70
     0
  9
$USERI3
 70
     0
  9
$USERI4
 70
     0
  9
$USERI5
 70
     0
  9
$USERR1
 40
0.0
  9
$USERR2
 40
0.0
  9
$USERR3
 40
0.0
  9
$USERR4
 40
0.0
  9
$USERR5
 40
0.0
  9
$WORLDVIEW
 70
     1
  9
$SHADEDGE
 70
     3
  9
$SHADEDIF
 70
    70
  9
$TILEMODE
 70
     1
  9
$MAXACTVP
 70
    64
  9
$PINSBASE
 10
0.0
 20
0.0
 30
0.0
  9
$PLIMCHECK
 70
     0
  9
$PEXTMIN
 10
1.000000000000000E+20
 20
1.000000000000000E+20
 30
1.000000000000000E+20
  9
$PEXTMAX
 10
-1.000000000000000E+20
 20
-1.000000000000000E+20
 30
-1.000000000000000E+20
  9
$PLIMMIN
 10
0.0
 20
0.0
  9
$PLIMMAX
 10
420.0
 20
297.0
  9
$UNITMODE
 70
     0
  9
$VISRETAIN
 70
     1
  9
$PLINEGEN
 70
     0
  9
$PSLTSCALE
 70
     1
  9
$TREEDEPTH
 70
  3020
  9
$CMLSTYLE
  2
Standard
  9
$CMLJUST
 70
     0
  9
$CMLSCALE
 40
20.0
  9
$PROXYGRAPHICS
 70
     1
  9
$MEASUREMENT
 70
     1
  9
$CELWEIGHT
370
    -1
  9
$ENDCAPS
280
     0
  9
$JOINSTYLE
280
     0
  9
$LWDISPLAY
290
     0
  9
$INSUNITS
 70
     4
  9
$HYPERLINKBASE
  1

  9
$STYLESHEET
  1

  9
$XEDIT
290
     1
  9
$CEPSNTYPE
380
     0
  9
$PSTYLEMODE
290
     1
  9
$FINGERPRINTGUID
  2
{9CF9A422-465C-4AE0-B06B-B1C23C07FC1E}
  9
$VERSIONGUID
  2
{FAEB1C32-E019-11D5-929B-00C0DF256EC4}
  9
$EXTNAMES
290
     1
  9
$PSVPSCALE
 40
0.0
  9
$OLESTARTUP
290
     0
  0
ENDSEC
  0
SECTION
  2
CLASSES
  0
CLASS
  1
ACDBDICTIONARYWDFLT
  2
AcDbDictionaryWithDefault
  3
ObjectDBX Classes
 90
        0
280
     0
281
     0
  0
CLASS
  1
VISUALSTYLE
  2
AcDbVisualStyle
  3
ObjectDBX Classes
 90
     4095
280
     0
281
     0
  0
CLASS
  1
MATERIAL
  2
AcDbMaterial
  3
ObjectDBX Classes
 90
     1153
280
     0
281
     0
  0
CLASS
  1
DICTIONARYVAR
  2
AcDbDictionaryVar
  3
ObjectDBX Classes
 90
        0
280
     0
281
     0
  0
CLASS
  1
ACDBPLACEHOLDER
  2
AcDbPlaceHolder
  3
ObjectDBX Classes
 90
        0
280
     0
281
     0
  0
CLASS
  1
LAYOUT
  2
AcDbLayout
  3
ObjectDBX Classes
 90
        0
280
     0
281
     0
  0
ENDSEC
  0
SECTION
  2
TABLES
  0
TABLE
  2
VPORT
  5
8
330
0
100
AcDbSymbolTable
 70
     1
  0
VPORT
  5
29
330
8
100
AcDbSymbolTableRecord
100
AcDbViewportTableRecord
  2
*Active
 70
     0
 10
0.0
 20
0.0
 11
1.0
 21
1.0
 12
210.0
 22
148.5
 13
0.0
 23
0.0
 14
10.0
 24
10.0
 15
10.0
 25
10.0
 16
0.0
 26
0.0
 36
1.0
 17
0.0
 27
0.0
 37
0.0
 40
297.0
 41
1.414141414141414
 42
50.0
 43
0.0
 44
0.0
 50
0.0
 51
0.0
 71
     0
 72
   100
 73
     1
 74
     3
 75
     0
 76
     0
 77
     0
 78
     0
281
     0
 65
     1
110
0.0
120
0.0
130
0.0
111
1.0
121
0.0
131
0.0
112
0.0
122
1.0
132
0.0
 79
     0
146
0.0
  0
ENDTAB
  0
TABLE
  2
LTYPE
  5
5
330
0
100
AcDbSymbolTable
 70
     5
  0
LTYPE
  5
14
330
5
100
AcDbSymbolTableRecord
100
AcDbLinetypeTableRecord
  2
ByBlock
 70
     0
  3

 72
    65
 73
     0
 40
0.0
  0
LTYPE
  5
15
330
5
100
AcDbSymbolTableRecord
100
AcDbLinetypeTableRecord
  2
ByLayer
 70
     0
  3

 72
    65
 73
     0
 40
0.0
  0
LTYPE
  5
16
330
5
100
AcDbSymbolTableRecord
100
AcDbLinetypeTableRecord
  2
Continuous
 70
     0
  3
Continuous
 72
    65
 73
     0
 40
0.0
  0
LTYPE
  5
3F
330
5
100
AcDbSymbolTableRecord
100
AcDbLinetypeTableRecord
  2
DASHDOT
 70
     0
  3
Dash dot __ . __ . __ . __ . __ . __ . __ . __
 72
    65
 73
     4
 40
13.0
 49
10.0
 74
     0
 49
-1.0
 74
     0
 49
1.0
 74
     0
 49
-1.0
 74
     0
  0
ENDTAB
  0
TABLE
  2
LAYER
  5
2
330
0
100
AcDbSymbolTable
 70
     8
  0
LAYER
  5
10
330
2
100
AcDbSymbolTableRecord
100
AcDbLayerTableRecord
  2
0
 70
     0
 62
     7
  6
Continuous
370
    -3
390
F
  0
LAYER
  5
AD
330
2
100
AcDbSymbolTableRecord
100
AcDbLayerTableRecord
  2
Defpoints
 70
     0
 62
     7
  6
Continuous
290
     0
370
    -3
390
F
  0
LAYER
  5
AE
330
2
100
AcDbSymbolTableRecord
100
AcDbLayerTableRecord
  2
図面枠ﾚｲﾔ_01
 70
     0
 62
     7
  6
Continuous
370
    -3
390
F
  0
LAYER
  5
BC
330
2
100
AcDbSymbolTableRecord
100
AcDbLayerTableRecord
  2
0_01
 70
     0
 62
     7
  6
Continuous
370
    -3
390
F
  0
LAYER
  5
D0
330
2
100
AcDbSymbolTableRecord
100
AcDbLayerTableRecord
  2
GR1_01
 70
     0
 62
     7
  6
Continuous
370
    -3
390
F
  0
LAYER
  5
27C
330
2
100
AcDbSymbolTableRecord
100
AcDbLayerTableRecord
  2
基準ﾚｲﾔｸﾞﾙｰﾌﾟ_01
 70
     0
 62
     7
  6
Continuous
370
    -3
390
F
  0
ENDTAB
  0
TABLE
  2
STYLE
  5
3
330
0
100
AcDbSymbolTable
 70
     2
  0
STYLE
  5
11
330
3
100
AcDbSymbolTableRecord
100
AcDbTextStyleTableRecord
  2
Standard
 70
     0
 40
0.0
 41
1.0
 50
0.0
 71
     0
 42
2.5
  3
txt
  4

  0
STYLE
  5
45
330
3
100
AcDbSymbolTableRecord
100
AcDbTextStyleTableRecord
  2
FX_VECTOR
 70
     0
 40
0.0
 41
1.0
 50
0.0
 71
     0
 42
0.2
  3
MONOTXT.SHX
  4
BigFont.shx
  0
ENDTAB
  0
TABLE
  2
VIEW
  5
6
330
0
100
AcDbSymbolTable
 70
     0
  0
ENDTAB
  0
TABLE
  2
UCS
  5
7
330
0
100
AcDbSymbolTable
 70
     0
  0
ENDTAB
  0
TABLE
  2
APPID
  5
9
330
0
100
AcDbSymbolTable
 70
     1
  0
APPID
  5
12
330
9
100
AcDbSymbolTableRecord
100
AcDbRegAppTableRecord
  2
ACAD
 70
     0
  0
ENDTAB
  0
TABLE
  2
DIMSTYLE
  5
A
330
0
100
AcDbSymbolTable
 70
     2
100
AcDbDimStyleTable
  0
DIMSTYLE
105
27
330
A
100
AcDbSymbolTableRecord
100
AcDbDimStyleTableRecord
  2
ISO-25
 70
     0
 41
2.5
 42
0.625
 43
3.75
 44
1.25
 73
     0
 74
     0
 77
     1
 78
     8
140
2.5
141
2.5
143
0.03937007874016
147
0.625
171
     3
172
     1
178
     0
271
     2
272
     2
274
     3
278
    44
283
     0
284
     8
340
11
  0
DIMSTYLE
105
AC
330
A
100
AcDbSymbolTableRecord
100
AcDbDimStyleTableRecord
  2
FXDIMINFO
 70
     0
 41
4.0
 42
1.0
 43
10.0
 44
1.0
 46
6.0
 73
     0
 74
     0
 77
     1
 78
     8
 79
     2
140
4.0
141
2.5
143
0.03937
147
1.0
171
     3
172
     1
173
     1
176
     7
177
     7
271
     2
178
     7
179
     2
271
     2
272
     2
274
     3
284
     8
340
45
341
46
343
46
344
4C
  0
ENDTAB
  0
TABLE
  2
BLOCK_RECORD
  5
1
330
0
100
AcDbSymbolTable
 70
    25
  0
BLOCK_RECORD
  5
1F
330
1
100
AcDbSymbolTableRecord
100
AcDbBlockTableRecord
  2
*Model_Space
340
22
  0
BLOCK_RECORD
  5
1B
330
1
100
AcDbSymbolTableRecord
100
AcDbBlockTableRecord
  2
*Paper_Space
340
1E
  0
BLOCK_RECORD
  5
23
330
1
100
AcDbSymbolTableRecord
100
AcDbBlockTableRecord
  2
*Paper_Space0
340
26
  0
BLOCK_RECORD
  5
46
330
1
100
AcDbSymbolTableRecord
100
AcDbBlockTableRecord
  2
FXTIP_ARROW_S
340
0
102
{BLKREFS
331
281
331
287
331
28D
331
292
331
372
331
375
331
37C
331
382
331
3D2
331
3F4
102
}
  0
BLOCK_RECORD
  5
4C
330
1
100
AcDbSymbolTableRecord
100
AcDbBlockTableRecord
  2
FXTIP_ARROW_E
340
0
102
{BLKREFS
331
282
331
288
331
28E
331
293
331
376
331
37D
331
383
331
3D3
331
3F5
102
}
  0
BLOCK_RECORD
  5
52
330
1
100
AcDbSymbolTableRecord
100
AcDbBlockTableRecord
  2
FXTIP_BLACKDOT_S
340
0
  0
BLOCK_RECORD
  5
58
330
1
100
AcDbSymbolTableRecord
100
AcDbBlockTableRecord
  2
FXTIP_BLACKDOT_E
340
0
  0
BLOCK_RECORD
  5
5E
330
1
100
AcDbSymbolTableRecord
100
AcDbBlockTableRecord
  2
FXTIP_TRIANGLE_S
340
0
  0
BLOCK_RECORD
  5
65
330
1
100
AcDbSymbolTableRecord
100
AcDbBlockTableRecord
  2
FXTIP_TRIANGLE_E
340
0
  0
BLOCK_RECORD
  5
6C
330
1
100
AcDbSymbolTableRecord
100
AcDbBlockTableRecord
  2
FXTIP_ARCHITECT_S
340
0
  0
BLOCK_RECORD
  5
72
330
1
100
AcDbSymbolTableRecord
100
AcDbBlockTableRecord
  2
FXTIP_ARCHITECT_E
340
0
  0
BLOCK_RECORD
  5
78
330
1
100
AcDbSymbolTableRecord
100
AcDbBlockTableRecord
  2
FXTIP_CIVIL_S
340
0
  0
BLOCK_RECORD
  5
7E
330
1
100
AcDbSymbolTableRecord
100
AcDbBlockTableRecord
  2
FXTIP_CIVIL_E
340
0
  0
BLOCK_RECORD
  5
84
330
1
100
AcDbSymbolTableRecord
100
AcDbBlockTableRecord
  2
FXTIP_WHITEDOT_S
340
0
  0
BLOCK_RECORD
  5
89
330
1
100
AcDbSymbolTableRecord
100
AcDbBlockTableRecord
  2
FXTIP_WHITEDOT_E
340
0
  0
BLOCK_RECORD
  5
8E
330
1
100
AcDbSymbolTableRecord
100
AcDbBlockTableRecord
  2
FXTIP_UPARROW_S
340
0
  0
BLOCK_RECORD
  5
93
330
1
100
AcDbSymbolTableRecord
100
AcDbBlockTableRecord
  2
FXTIP_UPARROW_E
340
0
  0
BLOCK_RECORD
  5
98
330
1
100
AcDbSymbolTableRecord
100
AcDbBlockTableRecord
  2
FXTIP_DOWNARROW_S
340
0
  0
BLOCK_RECORD
  5
9D
330
1
100
AcDbSymbolTableRecord
100
AcDbBlockTableRecord
  2
FXTIP_DOWNARROW_E
340
0
  0
BLOCK_RECORD
  5
A2
330
1
100
AcDbSymbolTableRecord
100
AcDbBlockTableRecord
  2
FXTIP_BLACKTRIANGLE_S
340
0
  0
BLOCK_RECORD
  5
A7
330
1
100
AcDbSymbolTableRecord
100
AcDbBlockTableRecord
  2
FXTIP_BLACKTRIANGLE_E
340
0
  0
BLOCK_RECORD
  5
2B2
330
1
100
AcDbSymbolTableRecord
100
AcDbBlockTableRecord
  2
BLKF022
340
0
102
{BLKREFS
331
2B5
102
}
  0
BLOCK_RECORD
  5
2FF
330
1
100
AcDbSymbolTableRecord
100
AcDbBlockTableRecord
  2
BLKF023
340
0
102
{BLKREFS
331
302
102
}
  0
BLOCK_RECORD
  5
388
330
1
100
AcDbSymbolTableRecord
100
AcDbBlockTableRecord
  2
BLKF024
340
0
102
{BLKREFS
331
38B
102
}
  0
BLOCK_RECORD
  5
3D6
330
1
100
AcDbSymbolTableRecord
100
AcDbBlockTableRecord
  2
BLKF025
340
0
102
{BLKREFS
331
3D9
102
}
  0
BLOCK_RECORD
  5
409
330
1
100
AcDbSymbolTableRecord
100
AcDbBlockTableRecord
  2
BLKF026
340
0
102
{BLKREFS
331
40C
102
}
  0
BLOCK_RECORD
  5
40D
330
1
100
AcDbSymbolTableRecord
100
AcDbBlockTableRecord
  2
BLKF027
340
0
102
{BLKREFS
331
410
102
}
  0
ENDTAB
  0
ENDSEC
  0
SECTION
  2
BLOCKS
  0
BLOCK
  5
20
330
1F
100
AcDbEntity
  8
0
100
AcDbBlockBegin
  2
*Model_Space
 70
     0
 10
0.0
 20
0.0
 30
0.0
  3
*Model_Space
  1

  0
ENDBLK
  5
21
330
1F
100
AcDbEntity
  8
0
100
AcDbBlockEnd
  0
BLOCK
  5
1C
330
1B
100
AcDbEntity
 67
     1
  8
0
100
AcDbBlockBegin
  2
*Paper_Space
 70
     0
 10
0.0
 20
0.0
 30
0.0
  3
*Paper_Space
  1

  0
ENDBLK
  5
1D
330
1B
100
AcDbEntity
 67
     1
  8
0
100
AcDbBlockEnd
  0
BLOCK
  5
24
330
23
100
AcDbEntity
  8
0
100
AcDbBlockBegin
  2
*Paper_Space0
 70
     0
 10
0.0
 20
0.0
 30
0.0
  3
*Paper_Space0
  1

  0
ENDBLK
  5
25
330
23
100
AcDbEntity
  8
0
100
AcDbBlockEnd
  0
BLOCK
  5
47
330
46
100
AcDbEntity
  8
0
100
AcDbBlockBegin
  2
FXTIP_ARROW_S
 70
     0
 10
0.0
 20
0.0
 30
0.0
  3
FXTIP_ARROW_S
  1

  0
LINE
  5
49
330
46
100
AcDbEntity
  8
0
  6
Continuous
 62
     0
370
    -2
100
AcDbLine
 10
0.0
 20
0.0
 30
0.0
 11
-1.0
 21
0.0000000000000001
 31
0.0
  0
LINE
  5
4A
330
46
100
AcDbEntity
  8
0
  6
Continuous
 62
     0
370
    -2
100
AcDbLine
 10
0.0
 20
0.0
 30
0.0
 11
-0.9659258262890683
 21
-0.2588190451025206
 31
0.0
  0
LINE
  5
4B
330
46
100
AcDbEntity
  8
0
  6
Continuous
 62
     0
370
    -2
100
AcDbLine
 10
0.0
 20
0.0
 30
0.0
 11
-0.9659258262890683
 21
0.2588190451025209
 31
0.0
  0
ENDBLK
  5
48
330
46
100
AcDbEntity
  8
0
100
AcDbBlockEnd
  0
BLOCK
  5
4D
330
4C
100
AcDbEntity
  8
0
100
AcDbBlockBegin
  2
FXTIP_ARROW_E
 70
     0
 10
0.0
 20
0.0
 30
0.0
  3
FXTIP_ARROW_E
  1

  0
LINE
  5
4F
330
4C
100
AcDbEntity
  8
0
  6
Continuous
 62
     0
370
    -2
100
AcDbLine
 10
0.0
 20
0.0
 30
0.0
 11
-1.0
 21
0.0
 31
0.0
  0
LINE
  5
50
330
4C
100
AcDbEntity
  8
0
  6
Continuous
 62
     0
370
    -2
100
AcDbLine
 10
0.0
 20
0.0
 30
0.0
 11
-0.9659258262890683
 21
0.2588190451025207
 31
0.0
  0
LINE
  5
51
330
4C
100
AcDbEntity
  8
0
  6
Continuous
 62
     0
370
    -2
100
AcDbLine
 10
0.0
 20
0.0
 30
0.0
 11
-0.9659258262890683
 21
-0.2588190451025207
 31
0.0
  0
ENDBLK
  5
4E
330
4C
100
AcDbEntity
  8
0
100
AcDbBlockEnd
  0
BLOCK
  5
53
330
52
100
AcDbEntity
  8
0
100
AcDbBlockBegin
  2
FXTIP_BLACKDOT_S
 70
     0
 10
0.0
 20
0.0
 30
0.0
  3
FXTIP_BLACKDOT_S
  1

  0
LINE
  5
55
330
52
100
AcDbEntity
  8
0
  6
Continuous
 62
     0
370
    -2
100
AcDbLine
 10
0.0
 20
0.0
 30
0.0
 11
-1.0
 21
0.0000000000000001
 31
0.0
  0
LWPOLYLINE
  5
56
330
52
100
AcDbEntity
  8
0
  6
Continuous
 62
     0
370
    -2
100
AcDbPolyline
 90
        2
 70
     1
 10
-0.25
 20
0.0
 40
0.5
 41
0.5
 42
1.0
 10
0.25
 20
0.0
 40
0.5
 41
0.5
 42
1.0
  0
CIRCLE
  5
57
330
52
100
AcDbEntity
  8
0
  6
Continuous
 62
     0
370
    -2
100
AcDbCircle
 10
0.0
 20
0.0
 30
0.0
 40
0.5
  0
ENDBLK
  5
54
330
52
100
AcDbEntity
  8
0
100
AcDbBlockEnd
  0
BLOCK
  5
59
330
58
100
AcDbEntity
  8
0
100
AcDbBlockBegin
  2
FXTIP_BLACKDOT_E
 70
     0
 10
0.0
 20
0.0
 30
0.0
  3
FXTIP_BLACKDOT_E
  1

  0
LINE
  5
5B
330
58
100
AcDbEntity
  8
0
  6
Continuous
 62
     0
370
    -2
100
AcDbLine
 10
0.0
 20
0.0
 30
0.0
 11
-1.0
 21
0.0
 31
0.0
  0
LWPOLYLINE
  5
5C
330
58
100
AcDbEntity
  8
0
  6
Continuous
 62
     0
370
    -2
100
AcDbPolyline
 90
        2
 70
     1
 10
-0.25
 20
0.0
 40
0.5
 41
0.5
 42
1.0
 10
0.25
 20
0.0
 40
0.5
 41
0.5
 42
1.0
  0
CIRCLE
  5
5D
330
58
100
AcDbEntity
  8
0
  6
Continuous
 62
     0
370
    -2
100
AcDbCircle
 10
0.0
 20
0.0
 30
0.0
 40
0.5
  0
ENDBLK
  5
5A
330
58
100
AcDbEntity
  8
0
100
AcDbBlockEnd
  0
BLOCK
  5
5F
330
5E
100
AcDbEntity
  8
0
100
AcDbBlockBegin
  2
FXTIP_TRIANGLE_S
 70
     0
 10
0.0
 20
0.0
 30
0.0
  3
FXTIP_TRIANGLE_S
  1

  0
LINE
  5
61
330
5E
100
AcDbEntity
  8
0
  6
Continuous
 62
     0
370
    -2
100
AcDbLine
 10
0.0
 20
0.0
 30
0.0
 11
-1.0
 21
0.0000000000000001
 31
0.0
  0
LINE
  5
62
330
5E
100
AcDbEntity
  8
0
  6
Continuous
 62
     0
370
    -2
100
AcDbLine
 10
0.0
 20
0.0
 30
0.0
 11
-0.9659258262890683
 21
-0.2588190451025206
 31
0.0
  0
LINE
  5
63
330
5E
100
AcDbEntity
  8
0
  6
Continuous
 62
     0
370
    -2
100
AcDbLine
 10
0.0
 20
0.0
 30
0.0
 11
-0.9659258262890683
 21
0.2588190451025209
 31
0.0
  0
LINE
  5
64
330
5E
100
AcDbEntity
  8
0
  6
Continuous
 62
     0
370
    -2
100
AcDbLine
 10
-0.9659258262890683
 20
-0.2588190451025206
 30
0.0
 11
-0.9659258262890683
 21
0.2588190451025209
 31
0.0
  0
ENDBLK
  5
60
330
5E
100
AcDbEntity
  8
0
100
AcDbBlockEnd
  0
BLOCK
  5
66
330
65
100
AcDbEntity
  8
0
100
AcDbBlockBegin
  2
FXTIP_TRIANGLE_E
 70
     0
 10
0.0
 20
0.0
 30
0.0
  3
FXTIP_TRIANGLE_E
  1

  0
LINE
  5
68
330
65
100
AcDbEntity
  8
0
  6
Continuous
 62
     0
370
    -2
100
AcDbLine
 10
0.0
 20
0.0
 30
0.0
 11
-1.0
 21
0.0
 31
0.0
  0
LINE
  5
69
330
65
100
AcDbEntity
  8
0
  6
Continuous
 62
     0
370
    -2
100
AcDbLine
 10
0.0
 20
0.0
 30
0.0
 11
-0.9659258262890683
 21
0.2588190451025207
 31
0.0
  0
LINE
  5
6A
330
65
100
AcDbEntity
  8
0
  6
Continuous
 62
     0
370
    -2
100
AcDbLine
 10
0.0
 20
0.0
 30
0.0
 11
-0.9659258262890683
 21
-0.2588190451025207
 31
0.0
  0
LINE
  5
6B
330
65
100
AcDbEntity
  8
0
  6
Continuous
 62
     0
370
    -2
100
AcDbLine
 10
-0.9659258262890683
 20
0.2588190451025207
 30
0.0
 11
-0.9659258262890683
 21
-0.2588190451025207
 31
0.0
  0
ENDBLK
  5
67
330
65
100
AcDbEntity
  8
0
100
AcDbBlockEnd
  0
BLOCK
  5
6D
330
6C
100
AcDbEntity
  8
0
100
AcDbBlockBegin
  2
FXTIP_ARCHITECT_S
 70
     0
 10
0.0
 20
0.0
 30
0.0
  3
FXTIP_ARCHITECT_S
  1

  0
LINE
  5
6F
330
6C
100
AcDbEntity
  8
0
  6
Continuous
 62
     0
370
    -2
100
AcDbLine
 10
0.0
 20
0.0
 30
0.0
 11
-1.0
 21
0.0000000000000001
 31
0.0
  0
LINE
  5
70
330
6C
100
AcDbEntity
  8
0
  6
Continuous
 62
     0
370
    -2
100
AcDbLine
 10
0.0
 20
0.0
 30
0.0
 11
-0.7071067811865476
 21
-0.7071067811865474
 31
0.0
  0
LINE
  5
71
330
6C
100
AcDbEntity
  8
0
  6
Continuous
 62
     0
370
    -2
100
AcDbLine
 10
0.0
 20
0.0
 30
0.0
 11
0.7071067811865476
 21
0.7071067811865474
 31
0.0
  0
ENDBLK
  5
6E
330
6C
100
AcDbEntity
  8
0
100
AcDbBlockEnd
  0
BLOCK
  5
73
330
72
100
AcDbEntity
  8
0
100
AcDbBlockBegin
  2
FXTIP_ARCHITECT_E
 70
     0
 10
0.0
 20
0.0
 30
0.0
  3
FXTIP_ARCHITECT_E
  1

  0
LINE
  5
75
330
72
100
AcDbEntity
  8
0
  6
Continuous
 62
     0
370
    -2
100
AcDbLine
 10
0.0
 20
0.0
 30
0.0
 11
-1.0
 21
0.0
 31
0.0
  0
LINE
  5
76
330
72
100
AcDbEntity
  8
0
  6
Continuous
 62
     0
370
    -2
100
AcDbLine
 10
0.0
 20
0.0
 30
0.0
 11
0.7071067811865475
 21
0.7071067811865475
 31
0.0
  0
LINE
  5
77
330
72
100
AcDbEntity
  8
0
  6
Continuous
 62
     0
370
    -2
100
AcDbLine
 10
0.0
 20
0.0
 30
0.0
 11
-0.7071067811865475
 21
-0.7071067811865475
 31
0.0
  0
ENDBLK
  5
74
330
72
100
AcDbEntity
  8
0
100
AcDbBlockEnd
  0
BLOCK
  5
79
330
78
100
AcDbEntity
  8
0
100
AcDbBlockBegin
  2
FXTIP_CIVIL_S
 70
     0
 10
0.0
 20
0.0
 30
0.0
  3
FXTIP_CIVIL_S
  1

  0
LINE
  5
7B
330
78
100
AcDbEntity
  8
0
  6
Continuous
 62
     0
370
    -2
100
AcDbLine
 10
0.0
 20
0.0
 30
0.0
 11
-1.0
 21
0.0000000000000001
 31
0.0
  0
LINE
  5
7C
330
78
100
AcDbEntity
  8
0
  6
Continuous
 62
     0
370
    -2
100
AcDbLine
 10
0.0
 20
-0.0625
 30
0.0
 11
-1.0
 21
-0.0624999999999999
 31
0.0
  0
LINE
  5
7D
330
78
100
AcDbEntity
  8
0
  6
Continuous
 62
     0
370
    -2
100
AcDbLine
 10
0.0
 20
-0.125
 30
0.0
 11
-1.0
 21
-0.1249999999999999
 31
0.0
  0
ENDBLK
  5
7A
330
78
100
AcDbEntity
  8
0
100
AcDbBlockEnd
  0
BLOCK
  5
7F
330
7E
100
AcDbEntity
  8
0
100
AcDbBlockBegin
  2
FXTIP_CIVIL_E
 70
     0
 10
0.0
 20
0.0
 30
0.0
  3
FXTIP_CIVIL_E
  1

  0
LINE
  5
81
330
7E
100
AcDbEntity
  8
0
  6
Continuous
 62
     0
370
    -2
100
AcDbLine
 10
0.0
 20
0.0
 30
0.0
 11
-1.0
 21
0.0
 31
0.0
  0
LINE
  5
82
330
7E
100
AcDbEntity
  8
0
  6
Continuous
 62
     0
370
    -2
100
AcDbLine
 10
0.0
 20
0.0625
 30
0.0
 11
-1.0
 21
0.0625
 31
0.0
  0
LINE
  5
83
330
7E
100
AcDbEntity
  8
0
  6
Continuous
 62
     0
370
    -2
100
AcDbLine
 10
0.0
 20
0.125
 30
0.0
 11
-1.0
 21
0.125
 31
0.0
  0
ENDBLK
  5
80
330
7E
100
AcDbEntity
  8
0
100
AcDbBlockEnd
  0
BLOCK
  5
85
330
84
100
AcDbEntity
  8
0
100
AcDbBlockBegin
  2
FXTIP_WHITEDOT_S
 70
     0
 10
0.0
 20
0.0
 30
0.0
  3
FXTIP_WHITEDOT_S
  1

  0
LINE
  5
87
330
84
100
AcDbEntity
  8
0
  6
Continuous
 62
     0
370
    -2
100
AcDbLine
 10
0.0
 20
0.0
 30
0.0
 11
-1.0
 21
0.0000000000000001
 31
0.0
  0
CIRCLE
  5
88
330
84
100
AcDbEntity
  8
0
  6
Continuous
 62
     0
370
    -2
100
AcDbCircle
 10
0.0
 20
0.0
 30
0.0
 40
0.5
  0
ENDBLK
  5
86
330
84
100
AcDbEntity
  8
0
100
AcDbBlockEnd
  0
BLOCK
  5
8A
330
89
100
AcDbEntity
  8
0
100
AcDbBlockBegin
  2
FXTIP_WHITEDOT_E
 70
     0
 10
0.0
 20
0.0
 30
0.0
  3
FXTIP_WHITEDOT_E
  1

  0
LINE
  5
8C
330
89
100
AcDbEntity
  8
0
  6
Continuous
 62
     0
370
    -2
100
AcDbLine
 10
0.0
 20
0.0
 30
0.0
 11
-1.0
 21
0.0
 31
0.0
  0
CIRCLE
  5
8D
330
89
100
AcDbEntity
  8
0
  6
Continuous
 62
     0
370
    -2
100
AcDbCircle
 10
0.0
 20
0.0
 30
0.0
 40
0.5
  0
ENDBLK
  5
8B
330
89
100
AcDbEntity
  8
0
100
AcDbBlockEnd
  0
BLOCK
  5
8F
330
8E
100
AcDbEntity
  8
0
100
AcDbBlockBegin
  2
FXTIP_UPARROW_S
 70
     0
 10
0.0
 20
0.0
 30
0.0
  3
FXTIP_UPARROW_S
  1

  0
LINE
  5
91
330
8E
100
AcDbEntity
  8
0
  6
Continuous
 62
     0
370
    -2
100
AcDbLine
 10
0.0
 20
0.0
 30
0.0
 11
-1.0
 21
0.0000000000000001
 31
0.0
  0
LINE
  5
92
330
8E
100
AcDbEntity
  8
0
  6
Continuous
 62
     0
370
    -2
100
AcDbLine
 10
0.0
 20
0.0
 30
0.0
 11
-0.9659258262890683
 21
-0.2588190451025206
 31
0.0
  0
ENDBLK
  5
90
330
8E
100
AcDbEntity
  8
0
100
AcDbBlockEnd
  0
BLOCK
  5
94
330
93
100
AcDbEntity
  8
0
100
AcDbBlockBegin
  2
FXTIP_UPARROW_E
 70
     0
 10
0.0
 20
0.0
 30
0.0
  3
FXTIP_UPARROW_E
  1

  0
LINE
  5
96
330
93
100
AcDbEntity
  8
0
  6
Continuous
 62
     0
370
    -2
100
AcDbLine
 10
0.0
 20
0.0
 30
0.0
 11
-1.0
 21
0.0
 31
0.0
  0
LINE
  5
97
330
93
100
AcDbEntity
  8
0
  6
Continuous
 62
     0
370
    -2
100
AcDbLine
 10
0.0
 20
0.0
 30
0.0
 11
-0.9659258262890683
 21
0.2588190451025207
 31
0.0
  0
ENDBLK
  5
95
330
93
100
AcDbEntity
  8
0
100
AcDbBlockEnd
  0
BLOCK
  5
99
330
98
100
AcDbEntity
  8
0
100
AcDbBlockBegin
  2
FXTIP_DOWNARROW_S
 70
     0
 10
0.0
 20
0.0
 30
0.0
  3
FXTIP_DOWNARROW_S
  1

  0
LINE
  5
9B
330
98
100
AcDbEntity
  8
0
  6
Continuous
 62
     0
370
    -2
100
AcDbLine
 10
0.0
 20
0.0
 30
0.0
 11
-1.0
 21
0.0000000000000001
 31
0.0
  0
LINE
  5
9C
330
98
100
AcDbEntity
  8
0
  6
Continuous
 62
     0
370
    -2
100
AcDbLine
 10
0.0
 20
0.0
 30
0.0
 11
-0.9659258262890683
 21
0.2588190451025209
 31
0.0
  0
ENDBLK
  5
9A
330
98
100
AcDbEntity
  8
0
100
AcDbBlockEnd
  0
BLOCK
  5
9E
330
9D
100
AcDbEntity
  8
0
100
AcDbBlockBegin
  2
FXTIP_DOWNARROW_E
 70
     0
 10
0.0
 20
0.0
 30
0.0
  3
FXTIP_DOWNARROW_E
  1

  0
LINE
  5
A0
330
9D
100
AcDbEntity
  8
0
  6
Continuous
 62
     0
370
    -2
100
AcDbLine
 10
0.0
 20
0.0
 30
0.0
 11
-1.0
 21
0.0
 31
0.0
  0
LINE
  5
A1
330
9D
100
AcDbEntity
  8
0
  6
Continuous
 62
     0
370
    -2
100
AcDbLine
 10
0.0
 20
0.0
 30
0.0
 11
-0.9659258262890683
 21
-0.2588190451025207
 31
0.0
  0
ENDBLK
  5
9F
330
9D
100
AcDbEntity
  8
0
100
AcDbBlockEnd
  0
BLOCK
  5
A3
330
A2
100
AcDbEntity
  8
0
100
AcDbBlockBegin
  2
FXTIP_BLACKTRIANGLE_S
 70
     0
 10
0.0
 20
0.0
 30
0.0
  3
FXTIP_BLACKTRIANGLE_S
  1

  0
LINE
  5
A5
330
A2
100
AcDbEntity
  8
0
  6
Continuous
 62
     0
370
    -2
100
AcDbLine
 10
0.0
 20
0.0
 30
0.0
 11
-1.0
 21
0.0000000000000001
 31
0.0
  0
SOLID
  5
A6
330
A2
100
AcDbEntity
  8
0
  6
Continuous
 62
     0
370
    -2
100
AcDbTrace
 10
0.0
 20
0.0
 30
0.0
 11
-0.9659258262890683
 21
-0.2588190451025206
 31
0.0
 12
-0.9659258262890683
 22
0.2588190451025209
 32
0.0
 13
-0.9659258262890683
 23
0.2588190451025209
 33
0.0
  0
ENDBLK
  5
A4
330
A2
100
AcDbEntity
  8
0
100
AcDbBlockEnd
  0
BLOCK
  5
A8
330
A7
100
AcDbEntity
  8
0
100
AcDbBlockBegin
  2
FXTIP_BLACKTRIANGLE_E
 70
     0
 10
0.0
 20
0.0
 30
0.0
  3
FXTIP_BLACKTRIANGLE_E
  1

  0
LINE
  5
AA
330
A7
100
AcDbEntity
  8
0
  6
Continuous
 62
     0
370
    -2
100
AcDbLine
 10
0.0
 20
0.0
 30
0.0
 11
-1.0
 21
0.0
 31
0.0
  0
SOLID
  5
AB
330
A7
100
AcDbEntity
  8
0
  6
Continuous
 62
     0
370
    -2
100
AcDbTrace
 10
0.0
 20
0.0
 30
0.0
 11
-0.9659258262890683
 21
0.2588190451025207
 31
0.0
 12
-0.9659258262890683
 22
-0.2588190451025207
 32
0.0
 13
-0.9659258262890683
 23
-0.2588190451025207
 33
0.0
  0
ENDBLK
  5
A9
330
A7
100
AcDbEntity
  8
0
100
AcDbBlockEnd
  0
BLOCK
  5
2B3
330
2B2
100
AcDbEntity
  8
0
100
AcDbBlockBegin
  2
BLKF022
 70
     0
 10
0.0
 20
0.0
 30
0.0
  3
BLKF022
  1

  0
LINE
  5
2B6
330
2B2
100
AcDbEntity
  8
GR1_01
  6
Continuous
 62
     3
370
    50
100
AcDbLine
 10
238.8622856025376
 20
227.6309900003558
 30
0.0
 11
217.8431034482759
 21
227.6309900003558
 31
0.0
  0
LINE
  5
2B7
330
2B2
100
AcDbEntity
  8
GR1_01
  6
Continuous
 62
     3
370
    50
100
AcDbLine
 10
235.2931034482758
 20
266.2309900003558
 30
0.0
 11
226.2931034482758
 21
266.2309900003558
 31
0.0
  0
ARC
  5
2B8
330
2B2
100
AcDbEntity
  8
GR1_01
  6
Continuous
 62
     3
370
    50
100
AcDbCircle
 10
226.7931034482758
 20
264.2944983272521
 30
0.0
 40
2.0
100
AcDbArc
 50
104.4775121859299
 51
180.0
  0
LINE
  5
2B9
330
2B2
100
AcDbEntity
  8
GR1_01
  6
Continuous
 62
     3
370
    50
100
AcDbLine
 10
224.7931034482758
 20
264.2944983272521
 30
0.0
 11
224.7931034482758
 21
263.7309900003558
 31
0.0
  0
LINE
  5
2BA
330
2B2
100
AcDbEntity
  8
GR1_01
  6
Continuous
 62
     3
370
    50
100
AcDbLine
 10
236.7931034482758
 20
264.2944983272521
 30
0.0
 11
236.7931034482758
 21
263.7309900003558
 31
0.0
  0
ARC
  5
2BB
330
2B2
100
AcDbEntity
  8
GR1_01
  6
Continuous
 62
     3
370
    50
100
AcDbCircle
 10
234.7931034482758
 20
264.2944983272521
 30
0.0
 40
2.0
100
AcDbArc
 50
0.0
 51
75.52248781407015
  0
LINE
  5
2BC
330
2B2
100
AcDbEntity
  8
GR1_01
  6
Continuous
 62
     3
370
    50
100
AcDbLine
 10
228.3431034482759
 20
227.6309900003557
 30
0.0
 11
228.3431034482759
 21
225.3309900003557
 31
0.0
  0
ARC
  5
2BD
330
2B2
100
AcDbEntity
  8
GR1_01
  6
Continuous
 62
     3
370
    50
100
AcDbCircle
 10
226.2566159824913
 20
226.1309900003557
 30
0.0
 40
1.5
100
AcDbArc
 50
90.0
 51
180.0
  0
LINE
  5
2BE
330
2B2
100
AcDbEntity
  8
GR1_01
  6
Continuous
 62
     3
370
    50
100
AcDbLine
 10
224.7566159824913
 20
226.1309900003557
 30
0.0
 11
224.7566159824913
 21
224.0309900003557
 31
0.0
  0
LINE
  5
2BF
330
2B2
100
AcDbEntity
  8
GR1_01
  6
Continuous
 62
     3
370
    50
100
AcDbLine
 10
224.4886667900602
 20
223.0309900003557
 30
0.0
 11
239.7337848824448
 21
223.0309900003557
 31
0.0
  0
LINE
  5
2C0
330
2B2
100
AcDbEntity
  8
GR1_01
  6
Continuous
 62
     3
370
    50
100
AcDbLine
 10
239.7401149332558
 20
223.0309900003558
 30
0.0
 11
243.7917568984035
 21
218.9223777883751
 31
0.0
  0
ARC
  5
2C1
330
2B2
100
AcDbEntity
  8
GR1_01
  6
Continuous
 62
     3
370
    50
100
AcDbCircle
 10
246.6398610823676
 20
221.7309900003557
 30
0.0
 40
4.0
100
AcDbArc
 50
224.5999999999995
 51
270.0
  0
LINE
  5
2C2
330
2B2
100
AcDbEntity
  8
GR1_01
  6
Continuous
 62
     3
370
    50
100
AcDbLine
 10
246.6398610823676
 20
217.7309900003557
 30
0.0
 11
247.2574518115875
 21
217.7309900003557
 31
0.0
  0
ARC
  5
2C3
330
2B2
100
AcDbEntity
  8
GR1_01
  6
Continuous
 62
     3
370
    50
100
AcDbCircle
 10
247.2574518115875
 20
216.7309900003557
 30
0.0
 40
1.0
100
AcDbArc
 50
0.0
 51
90.0
  0
LINE
  5
2C4
330
2B2
100
AcDbEntity
  8
GR1_01
  6
Continuous
 62
     3
370
    50
100
AcDbLine
 10
248.2574518115875
 20
216.7309900003557
 30
0.0
 11
248.2574518115875
 21
209.5309900003557
 31
0.0
  0
ARC
  5
2C5
330
2B2
100
AcDbEntity
  8
GR1_01
  6
Continuous
 62
     3
370
    50
100
AcDbCircle
 10
255.7574518115875
 20
209.5309900003557
 30
0.0
 40
7.5
100
AcDbArc
 50
180.0
 51
270.0
  0
LINE
  5
2C6
330
2B2
100
AcDbEntity
  8
GR1_01
  6
Continuous
 62
     3
370
    50
100
AcDbLine
 10
257.0492741600516
 20
202.0309900003557
 30
0.0
 11
259.9548524130998
 21
202.0309900003557
 31
0.0
  0
ARC
  5
2C7
330
2B2
100
AcDbEntity
  8
GR1_01
  6
Continuous
 62
     3
370
    50
100
AcDbCircle
 10
259.9548524130998
 20
209.5309900003557
 30
0.0
 40
7.5
100
AcDbArc
 50
270.0
 51
0.0
  0
ARC
  5
2C8
330
2B2
100
AcDbEntity
  8
GR1_01
  6
Continuous
 62
     3
370
    50
100
AcDbCircle
 10
249.4548524130999
 20
211.7847787491204
 30
0.0
 40
18.0
100
AcDbArc
 50
0.0
 51
27.26604445073281
  0
LINE
  5
2C9
330
2B2
100
AcDbEntity
  8
GR1_01
  6
Continuous
 62
     3
370
    50
100
AcDbLine
 10
265.4548524130998
 20
220.0309900003558
 30
0.0
 11
245.9287356779542
 21
220.0309900003558
 31
0.0
  0
LINE
  5
2CA
330
2B2
100
AcDbEntity
  8
GR1_01
  6
Continuous
 62
     3
370
    50
100
AcDbLine
 10
245.9287356779543
 20
220.0309900003556
 30
0.0
 11
242.1708106973777
 21
223.8417552653315
 31
0.0
  0
ARC
  5
2CB
330
2B2
100
AcDbEntity
  8
GR1_01
  6
Continuous
 62
     3
370
    50
100
AcDbCircle
 10
238.6106804674227
 20
220.3309900003557
 30
0.0
 40
5.0
100
AcDbArc
 50
44.5999999999996
 51
90.0
  0
LINE
  5
2CC
330
2B2
100
AcDbEntity
  8
GR1_01
  6
Continuous
 62
     3
370
    50
100
AcDbLine
 10
238.6106804674227
 20
225.3309900003557
 30
0.0
 11
224.7566159824914
 21
225.3309900003557
 31
0.0
  0
ARC
  5
2CD
330
2B2
100
AcDbEntity
  8
GR1_01
  6
Continuous
 62
     3
370
    50
100
AcDbCircle
 10
224.384094995975
 20
223.2309900003557
 30
0.0
 40
2.0
100
AcDbArc
 50
216.8698976458445
 51
281.8004784650084
  0
LINE
  5
2CE
330
2B2
100
AcDbEntity
  8
GR1_01
  6
Continuous
 62
     3
370
    50
100
AcDbLine
 10
222.7566159824913
 20
222.0309900003557
 30
0.0
 11
221.7122688703618
 21
222.0309900003557
 31
0.0
  0
ARC
  5
2CF
330
2B2
100
AcDbEntity
  8
GR1_01
  6
Continuous
 62
     3
370
    50
100
AcDbCircle
 10
222.7566159824913
 20
224.0309900003557
 30
0.0
 40
2.0
100
AcDbArc
 50
270.0
 51
0.0
  0
LINE
  5
2D0
330
2B2
100
AcDbEntity
  8
GR1_01
  6
Continuous
 62
     3
370
    50
100
AcDbLine
 10
219.9802180627929
 20
223.0309900003557
 30
0.0
 11
218.0343236950559
 21
223.0309900003557
 31
0.0
  0
LINE
  5
2D1
330
2B2
100
AcDbEntity
  8
GR1_01
  6
Continuous
 62
     3
370
    50
100
AcDbLine
 10
218.0343236950559
 20
223.8309900003558
 30
0.0
 11
218.0343236950559
 21
212.8309900003557
 31
0.0
  0
LINE
  5
2D2
330
2B2
100
AcDbEntity
  8
GR1_01
  6
Continuous
 62
     3
370
    50
100
AcDbLine
 10
234.7931034482758
 20
216.5309900003555
 30
0.0
 11
234.7931034482758
 21
214.7309900003558
 31
0.0
  0
LINE
  5
2D3
330
2B2
100
AcDbEntity
  8
GR1_01
  6
Continuous
 62
     3
370
    50
100
AcDbLine
 10
234.7931034482758
 20
214.7309900003558
 30
0.0
 11
234.2931034482758
 21
214.2309900003558
 31
0.0
  0
LINE
  5
2D4
330
2B2
100
AcDbEntity
  8
GR1_01
  6
Continuous
 62
     3
370
    50
100
AcDbLine
 10
234.2931034482758
 20
214.2309900003558
 30
0.0
 11
227.2931034482758
 21
214.2309900003558
 31
0.0
  0
LINE
  5
2D5
330
2B2
100
AcDbEntity
  8
GR1_01
  6
Continuous
 62
     3
370
    50
100
AcDbLine
 10
227.2931034482758
 20
214.2309900003558
 30
0.0
 11
226.7931034482758
 21
214.7309900003558
 31
0.0
  0
LINE
  5
2D6
330
2B2
100
AcDbEntity
  8
GR1_01
  6
Continuous
 62
     3
370
    50
100
AcDbLine
 10
226.7931034482758
 20
214.7309900003558
 30
0.0
 11
226.7931034482758
 21
216.5309900003555
 31
0.0
  0
ARC
  5
2D7
330
2B2
100
AcDbEntity
  8
GR1_01
  6
Continuous
 62
     3
370
    50
100
AcDbCircle
 10
221.7122688703618
 20
224.0309900003557
 30
0.0
 40
2.0
100
AcDbArc
 50
180.0
 51
270.0000000000007
  0
LINE
  5
2D8
330
2B2
100
AcDbEntity
  8
GR1_01
  6
Continuous
 62
     3
370
    50
100
AcDbLine
 10
219.7122688703618
 20
224.0309900003557
 30
0.0
 11
219.7122688703618
 21
227.6309900003557
 31
0.0
  0
LINE
  5
2D9
330
2B2
100
AcDbEntity
  8
GR1_01
  6
Continuous
 62
     3
370
    50
100
AcDbLine
 10
200.6526019459675
 20
225.3309900003558
 30
0.0
 11
219.7122688703618
 21
225.3309900003557
 31
0.0
  0
ARC
  5
2DA
330
2B2
100
AcDbEntity
  8
GR1_01
  6
Continuous
 62
     3
370
    50
100
AcDbCircle
 10
219.5343236950559
 20
223.8309900003558
 30
0.0
 40
1.5
100
AcDbArc
 50
90.0
 51
180.0
  0
LINE
  5
2DB
330
2B2
100
AcDbEntity
  8
GR1_01
  6
Continuous
 62
     3
370
    50
100
AcDbLine
 10
217.8431034482759
 20
225.3309900003557
 30
0.0
 11
217.8431034482759
 21
227.6309900003557
 31
0.0
  0
LINE
  5
2DC
330
2B2
100
AcDbEntity
  8
GR1_01
  6
Continuous
 62
     3
370
    50
100
AcDbLine
 10
238.3431034482759
 20
227.6309900003557
 30
0.0
 11
238.3431034482759
 21
225.3309900003557
 31
0.0
  0
ARC
  5
2DD
330
2B2
100
AcDbEntity
  8
GR1_01
  6
Continuous
 62
     3
370
    50
100
AcDbCircle
 10
215.6526019459675
 20
215.3811156292896
 30
0.0
 40
18.0
100
AcDbArc
 50
146.4426902380793
 51
180.0
  0
LINE
  5
2DE
330
2B2
100
AcDbEntity
  8
GR1_01
  6
Continuous
 62
     3
370
    50
100
AcDbLine
 10
197.6526019459675
 20
215.3811156292896
 30
0.0
 11
197.6526019459675
 21
212.8309900003557
 31
0.0
  0
ARC
  5
2DF
330
2B2
100
AcDbEntity
  8
GR1_01
  6
Continuous
 62
     3
370
    50
100
AcDbCircle
 10
205.1526019459675
 20
212.8309900003557
 30
0.0
 40
7.5
100
AcDbArc
 50
180.0
 51
270.0
  0
LINE
  5
2E0
330
2B2
100
AcDbEntity
  8
GR1_01
  6
Continuous
 62
     3
370
    50
100
AcDbLine
 10
205.1526019459675
 20
205.3309900003557
 30
0.0
 11
210.5343236950559
 21
205.3309900003557
 31
0.0
  0
ARC
  5
2E1
330
2B2
100
AcDbEntity
  8
GR1_01
  6
Continuous
 62
     3
370
    50
100
AcDbCircle
 10
210.5343236950559
 20
212.8309900003557
 30
0.0
 40
7.5
100
AcDbArc
 50
270.0
 51
0.0
  0
LINE
  5
2E2
330
2B2
100
AcDbEntity
  8
GR1_01
  6
Continuous
 62
     3
370
    50
100
AcDbLine
 10
198.4955547674334
 20
212.8309900003557
 30
0.0
 11
198.4955547674334
 21
215.3811156292896
 31
0.0
  0
ARC
  5
2E3
330
2B2
100
AcDbEntity
  8
GR1_01
  6
Continuous
 62
     3
370
    50
100
AcDbCircle
 10
205.9955547674334
 20
212.8309900003557
 30
0.0
 40
7.5
100
AcDbArc
 50
180.0
 51
270.0
  0
ARC
  5
2E4
330
2B2
100
AcDbEntity
  8
GR1_01
  6
Continuous
 62
     3
370
    50
100
AcDbCircle
 10
216.4955547674334
 20
215.3811156292896
 30
0.0
 40
18.0
100
AcDbArc
 50
146.4426902380793
 51
180.0
  0
LINE
  5
2E5
330
2B2
100
AcDbEntity
  8
GR1_01
  6
Continuous
 62
     3
370
    50
100
AcDbLine
 10
249.424790046397
 20
217.0309900003558
 30
0.0
 11
249.424790046397
 21
209.5309900003557
 31
0.0
  0
ARC
  5
2E6
330
2B2
100
AcDbEntity
  8
GR1_01
  6
Continuous
 62
     3
370
    50
100
AcDbCircle
 10
256.924790046397
 20
209.5309900003557
 30
0.0
 40
7.5
100
AcDbArc
 50
180.0
 51
270.0
  0
ARC
  5
2E7
330
2B2
100
AcDbEntity
  8
GR1_01
  6
Continuous
 62
     3
370
    50
100
AcDbCircle
 10
246.424790046397
 20
217.0309900003558
 30
0.0
 40
3.0
100
AcDbArc
 50
0.0
 51
89.99999999999947
  0
TEXT
  5
2E8
330
2B2
100
AcDbEntity
  8
GR1_01
  6
Continuous
 62
     6
370
    25
100
AcDbText
 10
254.0995941162109
 20
214.5309753417969
 30
0.0
 40
7.815197467803955
  1
開
 50
270.0
 41
1.540788705950344
  7
FX_VECTOR
 72
     5
 11
254.0995941162109
 21
205.9298553466797
 31
0.0
100
AcDbText
  0
LINE
  5
2E9
330
2B2
100
AcDbEntity
  8
GR1_01
  6
Continuous
 62
     6
370
    25
100
AcDbLine
 10
234.2319202696503
 20
225.3309900003557
 30
0.0
 11
234.2319202696503
 21
223.0309900003557
 31
0.0
  0
LINE
  5
2EA
330
2B2
100
AcDbEntity
  8
GR1_01
  6
Continuous
 62
     6
370
    25
100
AcDbLine
 10
234.1166034482758
 20
216.5309900003555
 30
0.0
 11
234.1166034482758
 21
214.2309900003558
 31
0.0
  0
LINE
  5
2EB
330
2B2
100
AcDbEntity
  8
GR1_01
  6
Continuous
 62
     6
370
    25
100
AcDbLine
 10
234.7931034482758
 20
214.7309900003558
 30
0.0
 11
226.7931034482758
 21
214.7309900003558
 31
0.0
  0
LINE
  5
2EC
330
2B2
100
AcDbEntity
  8
GR1_01
  6
Continuous
 62
     6
370
    25
100
AcDbLine
 10
227.4696034482758
 20
214.2309900003558
 30
0.0
 11
227.4696034482758
 21
216.5309900003555
 31
0.0
  0
LINE
  5
2ED
330
2B2
100
AcDbEntity
  8
GR1_01
  6
Continuous
 62
     6
370
    25
100
AcDbLine
 10
219.9411690855661
 20
222.2309900003557
 30
0.0
 11
218.0343236950559
 21
222.2309900003557
 31
0.0
  0
ARC
  5
2EE
330
2B2
100
AcDbEntity
  8
GR1_01
  6
Continuous
 62
     6
370
    25
100
AcDbCircle
 10
219.9411690855661
 20
226.2309900003557
 30
0.0
 40
4.0
100
AcDbArc
 50
270.0
 51
280.9816596697173
  0
LINE
  5
2EF
330
2B2
100
AcDbEntity
  8
GR1_01
  6
Continuous
 62
     6
370
    25
100
AcDbLine
 10
210.5909831511997
 20
215.3309900003557
 30
0.0
 11
205.0084777433075
 21
215.3309900003557
 31
0.0
  0
LINE
  5
2F0
330
2B2
100
AcDbEntity
  8
GR1_01
  6
Continuous
 62
     6
370
    25
100
AcDbLine
 10
205.0084777433075
 20
213.3309900003557
 30
0.0
 11
212.4518182871637
 21
213.3309900003557
 31
0.0
  0
LINE
  5
2F1
330
2B2
100
AcDbEntity
  8
GR1_01
  6
Continuous
 62
     6
370
    25
100
AcDbLine
 10
208.9442664254347
 20
213.3309900003557
 30
0.0
 11
208.9442664254348
 21
210.3309900003557
 31
0.0
  0
LINE
  5
2F2
330
2B2
100
AcDbEntity
  8
GR1_01
  6
Continuous
 62
     6
370
    25
100
AcDbLine
 10
205.0084777433075
 20
209.3309900003557
 30
0.0
 11
205.0084777433075
 21
217.3309900003557
 31
0.0
  0
LINE
  5
2F3
330
2B2
100
AcDbEntity
  8
GR1_01
  6
Continuous
 62
     3
370
    50
100
AcDbLine
 10
236.7931034482757
 20
219.0309900003556
 30
0.0
 11
236.7931034482757
 21
222.0309900003556
 31
0.0
  0
LINE
  5
2F4
330
2B2
100
AcDbEntity
  8
GR1_01
  6
Continuous
 62
     3
370
    50
100
AcDbLine
 10
224.7931034482758
 20
219.0309900003558
 30
0.0
 11
224.7931034482758
 21
222.0309900003554
 31
0.0
  0
ARC
  5
2F5
330
2B2
100
AcDbEntity
  8
GR1_01
  6
Continuous
 62
     3
370
    50
100
AcDbCircle
 10
226.5251542558447
 20
221.0309900003559
 30
0.0
 40
1.999999999999807
100
AcDbArc
 50
90.0
 51
150.0000000000099
  0
LINE
  5
2F6
330
2B2
100
AcDbEntity
  8
GR1_01
  6
Continuous
 62
     3
370
    50
100
AcDbLine
 10
226.0431034482758
 20
216.5309900003556
 30
0.0
 11
235.5431034482758
 21
216.5309900003556
 31
0.0
  0
ARC
  5
2F7
330
2B2
100
AcDbEntity
  8
基準ﾚｲﾔｸﾞﾙｰﾌﾟ_01
  6
Continuous
 62
     6
370
    25
100
AcDbCircle
 10
227.7931034482758
 20
223.0309900003553
 30
0.0
 40
4.999999999999773
100
AcDbArc
 50
233.130102354154
 51
306.869897645846
  0
ARC
  5
2F8
330
2B2
100
AcDbEntity
  8
基準ﾚｲﾔｸﾞﾙｰﾌﾟ_01
  6
Continuous
 62
     6
370
    25
100
AcDbCircle
 10
233.7931034482758
 20
223.0309900003553
 30
0.0
 40
4.999999999999773
100
AcDbArc
 50
233.130102354154
 51
306.869897645846
  0
ARC
  5
2F9
330
2B2
100
AcDbEntity
  8
GR1_01
  6
Continuous
 62
     3
370
    50
100
AcDbCircle
 10
229.0610526407068
 20
221.0309900003559
 30
0.0
 40
1.999999999999807
100
AcDbArc
 50
29.99999999999006
 51
90.0
  0
ARC
  5
2FA
330
2B2
100
AcDbEntity
  8
GR1_01
  6
Continuous
 62
     3
370
    50
100
AcDbCircle
 10
235.0610526407068
 20
221.0309900003559
 30
0.0
 40
1.999999999999807
100
AcDbArc
 50
29.99999999999006
 51
90.0
  0
ARC
  5
2FB
330
2B2
100
AcDbEntity
  8
GR1_01
  6
Continuous
 62
     3
370
    50
100
AcDbCircle
 10
232.5251542558447
 20
221.0309900003559
 30
0.0
 40
1.999999999999807
100
AcDbArc
 50
90.0
 51
150.0000000000099
  0
LINE
  5
2FC
330
2B2
100
AcDbEntity
  8
基準ﾚｲﾔｸﾞﾙｰﾌﾟ_01
  6
Continuous
 62
     3
370
    50
100
AcDbLine
 10
230.7931034482758
 20
219.0309900003557
 30
0.0
 11
230.7931034482758
 21
222.0309900003553
 31
0.0
  0
LINE
  5
2FD
330
2B2
100
AcDbEntity
  8
基準ﾚｲﾔｸﾞﾙｰﾌﾟ_01
  6
Continuous
 62
     3
370
    50
100
AcDbLine
 10
226.0431034482758
 20
216.5309900003555
 30
0.0
 11
224.7931034482758
 21
219.0309900003556
 31
0.0
  0
LINE
  5
2FE
330
2B2
100
AcDbEntity
  8
基準ﾚｲﾔｸﾞﾙｰﾌﾟ_01
  6
Continuous
 62
     3
370
    50
100
AcDbLine
 10
235.5431034482758
 20
216.5309900003555
 30
0.0
 11
236.7931034482759
 21
219.0309900003556
 31
0.0
  0
ENDBLK
  5
2B4
330
2B2
100
AcDbEntity
  8
0
100
AcDbBlockEnd
  0
BLOCK
  5
300
330
2FF
100
AcDbEntity
  8
0
100
AcDbBlockBegin
  2
BLKF023
 70
     0
 10
0.0
 20
0.0
 30
0.0
  3
BLKF023
  1

  0
LINE
  5
303
330
2FF
100
AcDbEntity
  8
GR1_01
  6
Continuous
 62
     3
370
    50
100
AcDbLine
 10
153.8841251201025
 20
100.2345470927644
 30
0.0
 11
153.8841251201025
 21
121.2816091954022
 31
0.0
  0
ARC
  5
304
330
2FF
100
AcDbEntity
  8
GR1_01
  6
Continuous
 62
     3
370
    50
100
AcDbCircle
 10
152.1269321968531
 20
99.92209647998368
 30
0.0
 40
47.92796886983788
100
AcDbArc
 50
183.4160942512308
 51
204.5569827601799
  0
LINE
  5
305
330
2FF
100
AcDbEntity
  8
GR1_01
  6
Continuous
 62
     3
370
    50
100
AcDbLine
 10
108.5341251201025
 20
82.13760919540232
 30
0.0
 11
108.5341251201025
 21
73.13760919540232
 31
0.0
  0
ARC
  5
306
330
2FF
100
AcDbEntity
  8
GR1_01
  6
Continuous
 62
     3
370
    50
100
AcDbCircle
 10
110.4706167932063
 20
73.63760919540232
 30
0.0
 40
2.0
100
AcDbArc
 50
194.47751218593
 51
270.0
  0
LINE
  5
307
330
2FF
100
AcDbEntity
  8
GR1_01
  6
Continuous
 62
     3
370
    50
100
AcDbLine
 10
110.4706167932063
 20
71.63760919540232
 30
0.0
 11
111.0341251201025
 21
71.63760919540232
 31
0.0
  0
LINE
  5
308
330
2FF
100
AcDbEntity
  8
GR1_01
  6
Continuous
 62
     3
370
    50
100
AcDbLine
 10
111.0341251201025
 20
83.63760919540232
 30
0.0
 11
110.4706167932063
 21
83.63760919540232
 31
0.0
  0
ARC
  5
309
330
2FF
100
AcDbEntity
  8
GR1_01
  6
Continuous
 62
     3
370
    50
100
AcDbCircle
 10
110.4706167932063
 20
81.63760919540232
 30
0.0
 40
2.0
100
AcDbArc
 50
90.0
 51
165.5224878140701
  0
LINE
  5
30A
330
2FF
100
AcDbEntity
  8
GR1_01
  6
Continuous
 62
     3
370
    50
100
AcDbLine
 10
152.0166058172223
 20
61.13237478495557
 30
0.0
 11
154.7341251201027
 21
60.7504523538089
 31
0.0
  0
LINE
  5
30B
330
2FF
100
AcDbEntity
  8
GR1_01
  6
Continuous
 62
     3
370
    50
100
AcDbLine
 10
154.7341251201025
 20
60.7504523538089
 30
0.0
 11
154.7341251201025
 21
60.42825819627785
 31
0.0
  0
LINE
  5
30C
330
2FF
100
AcDbEntity
  8
GR1_01
  6
Continuous
 62
     3
370
    50
100
AcDbLine
 10
154.7341251201025
 20
60.42825819627785
 30
0.0
 11
157.0341251201025
 21
60.42825819627785
 31
0.0
  0
LINE
  5
30D
330
2FF
100
AcDbEntity
  8
GR1_01
  6
Continuous
 62
     3
370
    50
100
AcDbLine
 10
157.0341251201025
 20
60.42720843399343
 30
0.0
 11
157.0341251201025
 21
71.81488423765609
 31
0.0
  0
LINE
  5
30E
330
2FF
100
AcDbEntity
  8
GR1_01
  6
Continuous
 62
     3
370
    50
100
AcDbLine
 10
149.4341251201025
 20
67.19079362605407
 30
0.0
 11
149.4341251201025
 21
97.73944146532142
 31
0.0
  0
ARC
  5
30F
330
2FF
100
AcDbEntity
  8
GR1_01
  6
Continuous
 62
     3
370
    50
100
AcDbCircle
 10
145.4341251201025
 20
97.73944146532142
 30
0.0
 40
4.0
100
AcDbArc
 50
0.0
 51
36.30000000000007
  0
LINE
  5
310
330
2FF
100
AcDbEntity
  8
GR1_01
  6
Continuous
 62
     3
370
    50
100
AcDbLine
 10
148.6578382490966
 20
100.1074941805183
 30
0.0
 11
147.1341251201025
 21
102.1817782482826
 31
0.0
  0
LINE
  5
311
330
2FF
100
AcDbEntity
  8
GR1_01
  6
Continuous
 62
     3
370
    50
100
AcDbLine
 10
144.8341251201025
 20
101.4439194152454
 30
0.0
 11
143.3104119911085
 21
103.5182034830096
 31
0.0
  0
LINE
  5
312
330
2FF
100
AcDbEntity
  8
GR1_01
  6
Continuous
 62
     3
370
    50
100
AcDbLine
 10
142.5341251201025
 20
105.8862561982065
 30
0.0
 11
142.5341251201025
 21
114.8861536071066
 31
0.0
  0
ARC
  5
313
330
2FF
100
AcDbEntity
  8
GR1_01
  6
Continuous
 62
     3
370
    50
100
AcDbCircle
 10
141.0341251201025
 20
114.8861536071066
 30
0.0
 40
1.5
100
AcDbArc
 50
0.0
 51
90.0
  0
LINE
  5
314
330
2FF
100
AcDbEntity
  8
GR1_01
  6
Continuous
 62
     3
370
    50
100
AcDbLine
 10
141.0341251201025
 20
116.3861536071066
 30
0.0
 11
120.1341251201025
 21
116.3861536071066
 31
0.0
  0
ARC
  5
315
330
2FF
100
AcDbEntity
  8
GR1_01
  6
Continuous
 62
     3
370
    50
100
AcDbCircle
 10
120.6341251201025
 20
116.1387869569594
 30
0.0
 40
1.0
100
AcDbArc
 50
180.0
 51
270.0
  0
LINE
  5
316
330
2FF
100
AcDbEntity
  8
GR1_01
  6
Continuous
 62
     3
370
    50
100
AcDbLine
 10
120.6341251201025
 20
115.1387869569594
 30
0.0
 11
140.9790941271885
 21
115.1387869569594
 31
0.0
  0
ARC
  5
317
330
2FF
100
AcDbEntity
  8
GR1_01
  6
Continuous
 62
     3
370
    50
100
AcDbCircle
 10
132.4258834268279
 20
105.4020044985083
 30
0.0
 40
12.96002877805311
100
AcDbArc
 50
38.74352727989947
 51
57.94515847625634
  0
ARC
  5
318
330
2FF
100
AcDbEntity
  8
GR1_01
  6
Continuous
 62
     3
370
    50
100
AcDbCircle
 10
140.8341251201025
 20
114.5861536071066
 30
0.0
 40
4.0
100
AcDbArc
 50
0.0
 51
51.80628885422875
  0
ARC
  5
319
330
2FF
100
AcDbEntity
  8
GR1_01
  6
Continuous
 62
     3
370
    50
100
AcDbCircle
 10
150.6341251201025
 20
67.46878437545195
 30
0.0
 40
3.5
100
AcDbArc
 50
180.0
 51
270.0000000000002
  0
LINE
  5
31A
330
2FF
100
AcDbEntity
  8
GR1_01
  6
Continuous
 62
     3
370
    50
100
AcDbLine
 10
150.6341251201025
 20
63.96878437545195
 30
0.0
 11
153.5341251201025
 21
63.96878437545195
 31
0.0
  0
LINE
  5
31B
330
2FF
100
AcDbEntity
  8
GR1_01
  6
Continuous
 62
     3
370
    50
100
AcDbLine
 10
153.5341251201025
 20
62.53771691012787
 30
0.0
 11
153.5341251201025
 21
66.19079362605407
 31
0.0
  0
LINE
  5
31C
330
2FF
100
AcDbEntity
  8
GR1_01
  6
Continuous
 62
     3
370
    50
100
AcDbLine
 10
153.5341251201025
 20
66.19079362605407
 30
0.0
 11
150.4341251201025
 21
66.19079362605407
 31
0.0
  0
LINE
  5
31D
330
2FF
100
AcDbEntity
  8
GR1_01
  6
Continuous
 62
     3
370
    50
100
AcDbLine
 10
151.7341251201025
 20
66.19079362605407
 30
0.0
 11
151.7341251201025
 21
97.5945866864057
 31
0.0
  0
ARC
  5
31E
330
2FF
100
AcDbEntity
  8
GR1_01
  6
Continuous
 62
     3
370
    50
100
AcDbCircle
 10
152.2341251201026
 20
97.5945866864057
 30
0.0
 40
0.5
100
AcDbArc
 50
90.0
 51
180.0
  0
LINE
  5
31F
330
2FF
100
AcDbEntity
  8
GR1_01
  6
Continuous
 62
     3
370
    50
100
AcDbLine
 10
152.2341251201026
 20
98.0945866864057
 30
0.0
 11
166.4341251201025
 21
98.0945866864057
 31
0.0
  0
LINE
  5
320
330
2FF
100
AcDbEntity
  8
GR1_01
  6
Continuous
 62
     3
370
    50
100
AcDbLine
 10
165.4341251201025
 20
100.2345470927644
 30
0.0
 11
152.4341251201026
 21
100.2345470927644
 31
0.0
  0
ARC
  5
321
330
2FF
100
AcDbEntity
  8
GR1_01
  6
Continuous
 62
     3
370
    50
100
AcDbCircle
 10
152.4341251201026
 20
97.23454709276439
 30
0.0
 40
3.0
100
AcDbArc
 50
90.0
 51
180.0
  0
ARC
  5
322
330
2FF
100
AcDbEntity
  8
GR1_01
  6
Continuous
 62
     3
370
    50
100
AcDbCircle
 10
150.6341251201025
 20
90.40903764555276
 30
0.0
 40
3.5
100
AcDbArc
 50
110.0510425665057
 51
180.0
  0
LINE
  5
323
330
2FF
100
AcDbEntity
  8
GR1_01
  6
Continuous
 62
     3
370
    50
100
AcDbLine
 10
152.4430530177699
 20
90.39806092519524
 30
0.0
 11
164.9341251201025
 21
90.39806092519524
 31
0.0
  0
ARC
  5
324
330
2FF
100
AcDbEntity
  8
GR1_01
  6
Continuous
 62
     3
370
    50
100
AcDbCircle
 10
164.9341251201025
 20
94.89806092519524
 30
0.0
 40
4.5
100
AcDbArc
 50
270.0
 51
0.0
  0
LINE
  5
325
330
2FF
100
AcDbEntity
  8
GR1_01
  6
Continuous
 62
     3
370
    50
100
AcDbLine
 10
169.4341251201025
 20
94.89806092519524
 30
0.0
 11
169.4341251201025
 21
96.23454709276439
 31
0.0
  0
ARC
  5
326
330
2FF
100
AcDbEntity
  8
GR1_01
  6
Continuous
 62
     3
370
    50
100
AcDbCircle
 10
165.4341251201025
 20
96.23454709276439
 30
0.0
 40
4.0
100
AcDbArc
 50
0.0
 51
90.0
  0
ARC
  5
327
330
2FF
100
AcDbEntity
  8
GR1_01
  6
Continuous
 62
     3
370
    50
100
AcDbCircle
 10
166.4341251201025
 20
95.0945866864057
 30
0.0
 40
3.0
100
AcDbArc
 50
0.0
 51
90.0
  0
LINE
  5
328
330
2FF
100
AcDbEntity
  8
GR1_01
  6
Continuous
 62
     3
370
    50
100
AcDbLine
 10
119.6341251201025
 20
117.7298526698936
 30
0.0
 11
119.6341251201025
 21
116.1387869569594
 31
0.0
  0
ARC
  5
329
330
2FF
100
AcDbEntity
  8
GR1_01
  6
Continuous
 62
     3
370
    50
100
AcDbCircle
 10
120.1341251201025
 20
116.8861536071066
 30
0.0
 40
0.5
100
AcDbArc
 50
180.0
 51
270.0
  0
ARC
  5
32A
330
2FF
100
AcDbEntity
  8
GR1_01
  6
Continuous
 62
     3
370
    50
100
AcDbCircle
 10
146.5341251201025
 20
105.8862561982065
 30
0.0
 40
4.0
100
AcDbArc
 50
180.0
 51
216.3000000000003
  0
ARC
  5
32B
330
2FF
100
AcDbEntity
  8
GR1_01
  6
Continuous
 62
     3
370
    50
100
AcDbCircle
 10
150.4341251201025
 20
67.19079362605407
 30
0.0
 40
1.0
100
AcDbArc
 50
180.0
 51
270.0
  0
ARC
  5
32C
330
2FF
100
AcDbEntity
  8
GR1_01
  6
Continuous
 62
     3
370
    50
100
AcDbCircle
 10
150.6341251201025
 20
66.03771691012787
 30
0.0
 40
3.5
100
AcDbArc
 50
180.0
 51
270.0000000000002
  0
LINE
  5
32D
330
2FF
100
AcDbEntity
  8
GR1_01
  6
Continuous
 62
     3
370
    50
100
AcDbLine
 10
150.6341251201025
 20
62.53771691012787
 30
0.0
 11
153.5341251201025
 21
62.53771691012787
 31
0.0
  0
LINE
  5
32E
330
2FF
100
AcDbEntity
  8
GR1_01
  6
Continuous
 62
     3
370
    50
100
AcDbLine
 10
152.8285378101949
 20
62.53771691012787
 30
0.0
 11
155.3124713220226
 21
62.18862282103032
 31
0.0
  0
ARC
  5
32F
330
2FF
100
AcDbEntity
  8
GR1_01
  6
Continuous
 62
     3
370
    50
100
AcDbCircle
 10
155.0341251201025
 20
60.20808668354721
 30
0.0
 40
2.0
100
AcDbArc
 50
6.320259069822592
 51
82.00000000000007
  0
LINE
  5
330
330
2FF
100
AcDbEntity
  8
GR1_01
  6
Continuous
 62
     3
370
    50
100
AcDbLine
 10
157.0341251201025
 20
65.86173110816071
 30
0.0
 11
167.7341251201025
 21
65.86173110816071
 31
0.0
  0
ARC
  5
331
330
2FF
100
AcDbEntity
  8
GR1_01
  6
Continuous
 62
     3
370
    50
100
AcDbCircle
 10
167.7341251201025
 20
70.86173110816071
 30
0.0
 40
5.0
100
AcDbArc
 50
270.0
 51
359.9999999999998
  0
LINE
  5
332
330
2FF
100
AcDbEntity
  8
GR1_01
  6
Continuous
 62
     3
370
    50
100
AcDbLine
 10
172.7341251201025
 20
70.86173110816071
 30
0.0
 11
172.7341251201025
 21
74.00178379935085
 31
0.0
  0
ARC
  5
333
330
2FF
100
AcDbEntity
  8
GR1_01
  6
Continuous
 62
     3
370
    50
100
AcDbCircle
 10
168.2341251201025
 20
74.00178379935085
 30
0.0
 40
4.5
100
AcDbArc
 50
0.0
 51
90.0
  0
LINE
  5
334
330
2FF
100
AcDbEntity
  8
GR1_01
  6
Continuous
 62
     3
370
    50
100
AcDbLine
 10
168.2341251201025
 20
78.50178379935085
 30
0.0
 11
160.5341251201025
 21
78.50178379935085
 31
0.0
  0
LINE
  5
335
330
2FF
100
AcDbEntity
  8
GR1_01
  6
Continuous
 62
     3
370
    50
100
AcDbLine
 10
160.5341251201025
 20
76.52003673033539
 30
0.0
 11
168.7341251201025
 21
76.52003673033539
 31
0.0
  0
ARC
  5
336
330
2FF
100
AcDbEntity
  8
GR1_01
  6
Continuous
 62
     3
370
    50
100
AcDbCircle
 10
168.7341251201025
 20
72.52003673033539
 30
0.0
 40
4.0
100
AcDbArc
 50
0.0
 51
90.0
  0
ARC
  5
337
330
2FF
100
AcDbEntity
  8
GR1_01
  6
Continuous
 62
     3
370
    50
100
AcDbCircle
 10
152.4341251201025
 20
64.10317899118024
 30
0.0
 40
3.0
100
AcDbArc
 50
209.3205920204558
 51
261.9999999999999
  0
LINE
  5
338
330
2FF
100
AcDbEntity
  8
GR1_01
  6
Continuous
 62
     6
370
    25
100
AcDbLine
 10
149.4341251201025
 20
74.06426127252587
 30
0.0
 11
151.7341251201025
 21
74.06426127252587
 31
0.0
  0
LINE
  5
339
330
2FF
100
AcDbEntity
  8
GR1_01
  6
Continuous
 62
     3
370
    50
100
AcDbLine
 10
158.2341251201025
 20
81.63760919540232
 30
0.0
 11
160.0341251201025
 21
81.63760919540232
 31
0.0
  0
LINE
  5
33A
330
2FF
100
AcDbEntity
  8
GR1_01
  6
Continuous
 62
     3
370
    50
100
AcDbLine
 10
160.0341251201025
 20
81.63760919540232
 30
0.0
 11
160.5341251201025
 21
81.13760919540232
 31
0.0
  0
LINE
  5
33B
330
2FF
100
AcDbEntity
  8
GR1_01
  6
Continuous
 62
     3
370
    50
100
AcDbLine
 10
160.5341251201025
 20
81.13760919540232
 30
0.0
 11
160.5341251201025
 21
74.13760919540232
 31
0.0
  0
LINE
  5
33C
330
2FF
100
AcDbEntity
  8
GR1_01
  6
Continuous
 62
     3
370
    50
100
AcDbLine
 10
160.5341251201025
 20
74.13760919540232
 30
0.0
 11
160.0341251201025
 21
73.63760919540232
 31
0.0
  0
LINE
  5
33D
330
2FF
100
AcDbEntity
  8
GR1_01
  6
Continuous
 62
     3
370
    50
100
AcDbLine
 10
160.0341251201025
 20
73.63760919540232
 30
0.0
 11
158.2341251201025
 21
73.63760919540232
 31
0.0
  0
LINE
  5
33E
330
2FF
100
AcDbEntity
  8
GR1_01
  6
Continuous
 62
     3
370
    50
100
AcDbLine
 10
152.5341251201025
 20
89.54936622694538
 30
0.0
 11
152.5341251201025
 21
82.76417010349905
 31
0.0
  0
ARC
  5
33F
330
2FF
100
AcDbEntity
  8
GR1_01
  6
Continuous
 62
     3
370
    50
100
AcDbCircle
 10
148.5341251201025
 20
82.76417010349905
 30
0.0
 40
4.0
100
AcDbArc
 50
323.1301023541563
 51
0.0
  0
LINE
  5
340
330
2FF
100
AcDbEntity
  8
GR1_01
  6
Continuous
 62
     6
370
    25
100
AcDbLine
 10
158.2341251201025
 20
80.96110919540229
 30
0.0
 11
160.5341251201025
 21
80.96110919540229
 31
0.0
  0
LINE
  5
341
330
2FF
100
AcDbEntity
  8
GR1_01
  6
Continuous
 62
     6
370
    25
100
AcDbLine
 10
160.0341251201025
 20
81.63760919540232
 30
0.0
 11
160.0341251201025
 21
73.63760919540232
 31
0.0
  0
LINE
  5
342
330
2FF
100
AcDbEntity
  8
GR1_01
  6
Continuous
 62
     6
370
    25
100
AcDbLine
 10
160.5341251201025
 20
74.31410919540235
 30
0.0
 11
158.2341251201025
 21
74.31410919540235
 31
0.0
  0
ARC
  5
343
330
2FF
100
AcDbEntity
  8
GR1_01
  6
Continuous
 62
     3
370
    50
100
AcDbCircle
 10
148.5341251201025
 20
89.54936622694538
 30
0.0
 40
4.0
100
AcDbArc
 50
0.0
 51
36.86989764584405
  0
ENDBLK
  5
301
330
2FF
100
AcDbEntity
  8
0
100
AcDbBlockEnd
  0
BLOCK
  5
389
330
388
100
AcDbEntity
  8
0
100
AcDbBlockBegin
  2
BLKF024
 70
     0
 10
0.0
 20
0.0
 30
0.0
  3
BLKF024
  1

  0
ARC
  5
38C
330
388
100
AcDbEntity
  8
GR1_01
  6
Continuous
 62
     3
370
    50
100
AcDbCircle
 10
647.3856784450886
 20
-179.6379360848015
 30
0.0
 40
477.0423264481964
100
AcDbArc
 50
144.1402602003419
 51
147.1860439855645
  0
LINE
  5
38D
330
388
100
AcDbEntity
  8
GR1_01
  6
Continuous
 62
     3
370
    50
100
AcDbLine
 10
222.0907532112925
 20
93.56858839594275
 30
0.0
 11
225.6509088471438
 21
120.6106552089022
 31
0.0
  0
ARC
  5
38E
330
388
100
AcDbEntity
  8
GR1_01
  6
Continuous
 62
     3
370
    50
100
AcDbCircle
 10
19.91668961987058
 20
283.9215032296885
 30
0.0
 40
303.1553801208015
100
AcDbArc
 50
322.6053881037939
 51
324.8251290664933
  0
LINE
  5
38F
330
388
100
AcDbEntity
  8
GR1_01
  6
Continuous
 62
     3
370
    50
100
AcDbLine
 10
198.4955547674334
 20
100.2345470927644
 30
0.0
 11
218.0343236950559
 21
92.53802133155392
 31
0.0
  0
LINE
  5
390
330
388
100
AcDbEntity
  8
GR1_01
  6
Continuous
 62
     3
370
    50
100
AcDbLine
 10
218.0343236950559
 20
92.53802133155392
 30
0.0
 11
217.19137087359
 21
90.3980609251953
 31
0.0
  0
LINE
  5
391
330
388
100
AcDbEntity
  8
GR1_01
  6
Continuous
 62
     3
370
    50
100
AcDbLine
 10
217.1913708735898
 20
90.3980609251953
 30
0.0
 11
197.6526019459675
 21
98.0945866864057
 31
0.0
  0
LINE
  5
392
330
388
100
AcDbEntity
  8
GR1_01
  6
Continuous
 62
     3
370
    50
100
AcDbLine
 10
197.6526019459675
 20
98.09458668640582
 30
0.0
 11
198.4955547674334
 21
100.2345470927644
 31
0.0
  0
ARC
  5
393
330
388
100
AcDbEntity
  8
GR1_01
  6
Continuous
 62
     3
370
    50
100
AcDbCircle
 10
223.9513464116311
 20
97.59422169791532
 30
0.0
 40
25.0
100
AcDbArc
 50
180.0257259304269
 51
250.2537987015967
  0
LINE
  5
394
330
388
100
AcDbEntity
  8
GR1_01
  6
Continuous
 62
     3
370
    50
100
AcDbLine
 10
215.5049884758336
 20
74.06426127252593
 30
0.0
 11
218.0811127509413
 21
68.89735532674615
 31
0.0
  0
ARC
  5
395
330
388
100
AcDbEntity
  8
GR1_01
  6
Continuous
 62
     3
370
    50
100
AcDbCircle
 10
221.6608501973495
 20
70.68214657918543
 30
0.0
 40
4.0
100
AcDbArc
 50
206.5000000000001
 51
266.5
  0
LINE
  5
396
330
388
100
AcDbEntity
  8
GR1_01
  6
Continuous
 62
     3
370
    50
100
AcDbLine
 10
221.41665603921
 20
66.68960738549794
 30
0.0
 11
233.0659256401704
 21
65.97710753386377
 31
0.0
  0
ARC
  5
397
330
388
100
AcDbEntity
  8
GR1_01
  6
Continuous
 62
     3
370
    50
100
AcDbCircle
 10
248.7891886688028
 20
85.4282289506948
 30
0.0
 40
25.0
100
AcDbArc
 50
231.0862679169042
 51
310.9690181827444
  0
LINE
  5
398
330
388
100
AcDbEntity
  8
GR1_01
  6
Continuous
 62
     3
370
    50
100
AcDbLine
 10
266.3516641808596
 20
65.86173110816077
 30
0.0
 11
248.2574518115875
 21
76.52003673033545
 31
0.0
  0
LINE
  5
399
330
388
100
AcDbEntity
  8
GR1_01
  6
Continuous
 62
     3
370
    50
100
AcDbLine
 10
248.2574518115875
 20
76.5200367303355
 30
0.0
 11
249.424790046397
 21
78.5017837993509
 31
0.0
  0
LINE
  5
39A
330
388
100
AcDbEntity
  8
GR1_01
  6
Continuous
 62
     3
370
    50
100
AcDbLine
 10
249.4247900463969
 20
78.50178379935096
 30
0.0
 11
267.5190024156691
 21
67.84347817717622
 31
0.0
  0
LINE
  5
39B
330
388
100
AcDbEntity
  8
GR1_01
  6
Continuous
 62
     3
370
    50
100
AcDbLine
 10
267.4548524130998
 20
67.88126541649308
 30
0.0
 11
266.3516641808596
 21
65.86173110816077
 31
0.0
  0
ARC
  5
39C
330
388
100
AcDbEntity
  8
GR1_01
  6
Continuous
 62
     3
370
    50
100
AcDbCircle
 10
248.2712159596226
 20
81.2711279141771
 30
0.0
 40
3.0
100
AcDbArc
 50
211.9212639682872
 51
292.6142359567339
  0
ARC
  5
39D
330
388
100
AcDbEntity
  8
GR1_01
  6
Continuous
 62
     3
370
    50
100
AcDbCircle
 10
235.5395832822457
 20
73.33982730404057
 30
0.0
 40
12.0
100
AcDbArc
 50
31.92126396828741
 51
96.25605453373113
  0
LINE
  5
39E
330
388
100
AcDbEntity
  8
GR1_01
  6
Continuous
 62
     3
370
    50
100
AcDbLine
 10
234.2319202696503
 20
85.26836524653334
 30
0.0
 11
227.5485134706503
 21
90.2138261263741
 31
0.0
  0
ARC
  5
39F
330
388
100
AcDbEntity
  8
GR1_01
  6
Continuous
 62
     3
370
    50
100
AcDbCircle
 10
225.169222323645
 20
86.99839868390524
 30
0.0
 40
4.0
100
AcDbArc
 50
53.49999999999994
 51
86.5
  0
LINE
  5
3A0
330
388
100
AcDbEntity
  8
GR1_01
  6
Continuous
 62
     3
370
    50
100
AcDbLine
 10
225.4134164817844
 20
90.99093787759267
 30
0.0
 11
217.612847284323
 21
91.46804112837458
 31
0.0
  0
LINE
  5
3A1
330
388
100
AcDbEntity
  8
GR1_01
  6
Continuous
 62
     3
370
    50
100
AcDbLine
 10
219.5866664663438
 20
91.34731717549892
 30
0.0
 11
219.7122688703611
 21
91.99348552750178
 31
0.0
  0
LINE
  5
3A2
330
388
100
AcDbEntity
  8
GR1_01
  6
Continuous
 62
     3
370
    50
100
AcDbLine
 10
219.7122688703618
 20
91.99348552750166
 30
0.0
 11
220.3392936569767
 21
93.90903764555281
 31
0.0
  0
LINE
  5
3A3
330
388
100
AcDbEntity
  8
GR1_01
  6
Continuous
 62
     3
370
    50
100
AcDbLine
 10
220.3392936569767
 20
93.90903764555287
 30
0.0
 11
224.7566159824912
 21
93.05039716635844
 31
0.0
  0
LINE
  5
3A4
330
388
100
AcDbEntity
  8
GR1_01
  6
Continuous
 62
     3
370
    50
100
AcDbLine
 10
224.7566159824912
 20
93.05039716635838
 30
0.0
 11
224.6204047876001
 21
91.03944055061896
 31
0.0
  0
LINE
  5
3A5
330
388
100
AcDbEntity
  8
GR1_01
  6
Continuous
 62
     3
370
    50
100
AcDbLine
 10
224.6204047876001
 20
91.03944055061896
 30
0.0
 11
219.7122688703618
 21
91.99348552750166
 31
0.0
  0
LINE
  5
3A6
330
388
100
AcDbEntity
  8
GR1_01
  6
Continuous
 62
     3
370
    50
100
AcDbLine
 10
238.3431034482758
 20
85.00774377094518
 30
0.0
 11
238.3431034482758
 21
109.6376091954023
 31
0.0
  0
LINE
  5
3A7
330
388
100
AcDbEntity
  8
GR1_01
  6
Continuous
 62
     3
370
    50
100
AcDbLine
 10
238.5931034482758
 20
109.6376091954023
 30
0.0
 11
228.0931034482758
 21
109.6376091954023
 31
0.0
  0
LINE
  5
3A8
330
388
100
AcDbEntity
  8
GR1_01
  6
Continuous
 62
     3
370
    50
100
AcDbLine
 10
228.0931034482758
 20
109.6376091954023
 30
0.0
 11
228.0931034482758
 21
93.63760919540232
 31
0.0
  0
LINE
  5
3A9
330
388
100
AcDbEntity
  8
GR1_01
  6
Continuous
 62
     3
370
    50
100
AcDbLine
 10
228.0931034482758
 20
93.63760919540232
 30
0.0
 11
228.3431034482758
 21
93.63760919540232
 31
0.0
  0
LINE
  5
3AA
330
388
100
AcDbEntity
  8
GR1_01
  6
Continuous
 62
     3
370
    50
100
AcDbLine
 10
228.3431034482758
 20
91.61284883176404
 30
0.0
 11
228.3431034482758
 21
109.6376091954023
 31
0.0
  0
LINE
  5
3AB
330
388
100
AcDbEntity
  8
GR1_01
  6
Continuous
 62
     3
370
    50
100
AcDbLine
 10
238.5931034482758
 20
109.6376091954023
 30
0.0
 11
238.5931034482758
 21
93.63760919540232
 31
0.0
  0
LINE
  5
3AC
330
388
100
AcDbEntity
  8
GR1_01
  6
Continuous
 62
     3
370
    50
100
AcDbLine
 10
238.5931034482758
 20
93.63760919540232
 30
0.0
 11
238.3431034482758
 21
93.63760919540232
 31
0.0
  0
ARC
  5
3AD
330
388
100
AcDbEntity
  8
GR1_01
  6
Continuous
 62
     3
370
    50
100
AcDbCircle
 10
226.3431034482758
 20
91.61284883176404
 30
0.0
 40
2.0
100
AcDbArc
 50
311.7404856397557
 51
0.0
  0
ARC
  5
3AE
330
388
100
AcDbEntity
  8
GR1_01
  6
Continuous
 62
     3
370
    50
100
AcDbCircle
 10
231.6174398340933
 20
65.61284883176404
 30
0.0
 40
1.0
100
AcDbArc
 50
149.6274611998723
 51
169.0000000000002
  0
LINE
  5
3AF
330
388
100
AcDbEntity
  8
GR1_01
  6
Continuous
 62
     3
370
    50
100
AcDbLine
 10
230.6358126506456
 20
65.80365782714057
 30
0.0
 11
230.4114854575227
 21
64.64959446486864
 31
0.0
  0
LINE
  5
3B0
330
388
100
AcDbEntity
  8
GR1_01
  6
Continuous
 62
     3
370
    50
100
AcDbLine
 10
230.4114854575227
 20
64.64959446486864
 30
0.0
 11
222.4827031234358
 21
66.19079362605413
 31
0.0
  0
ARC
  5
3B1
330
388
100
AcDbEntity
  8
GR1_01
  6
Continuous
 62
     3
370
    50
100
AcDbCircle
 10
221.5033338448491
 20
65.98871488852706
 30
0.0
 40
1.0
100
AcDbArc
 50
349.0000000000002
 51
40.47095596136195
  0
LINE
  5
3B2
330
388
100
AcDbEntity
  8
GR1_01
  6
Continuous
 62
     3
370
    50
100
AcDbLine
 10
222.4849610282968
 20
65.79790589315047
 30
0.0
 11
222.3840949959749
 21
63.96878437545195
 31
0.0
  0
LINE
  5
3B3
330
388
100
AcDbEntity
  8
GR1_01
  6
Continuous
 62
     3
370
    50
100
AcDbLine
 10
222.3840949959749
 20
63.96878437545195
 30
0.0
 11
229.7462988718324
 21
62.53771691012793
 31
0.0
  0
LINE
  5
3B4
330
388
100
AcDbEntity
  8
GR1_01
  6
Continuous
 62
     3
370
    50
100
AcDbLine
 10
229.7462988718324
 20
62.53771691012793
 30
0.0
 11
230.4114854575227
 21
64.64959446486864
 31
0.0
  0
ARC
  5
3B5
330
388
100
AcDbEntity
  8
GR1_01
  6
Continuous
 62
     3
370
    50
100
AcDbCircle
 10
231.4931034482757
 20
77.08160919540228
 30
0.0
 40
11.5
100
AcDbArc
 50
265.5429140166362
 51
279.4665570672138
  0
LINE
  5
3B6
330
388
100
AcDbEntity
  8
GR1_01
  6
Continuous
 62
     6
370
    25
100
AcDbLine
 10
228.3431034482758
 20
105.312848831764
 30
0.0
 11
238.3431034482758
 21
105.312848831764
 31
0.0
  0
LINE
  5
3B7
330
388
100
AcDbEntity
  8
GR1_01
  6
Continuous
 62
     6
370
    25
100
AcDbLine
 10
238.3431034482757
 20
98.31284883176397
 30
0.0
 11
228.3431034482758
 21
98.31284883176397
 31
0.0
  0
ARC
  5
3B8
330
388
100
AcDbEntity
  8
GR1_01
  6
Continuous
 62
     6
370
    25
100
AcDbCircle
 10
204.8658347957774
 20
89.44937300503767
 30
0.0
 40
2.5
100
AcDbArc
 50
38.58639896856304
 51
218.5863989685631
  0
ARC
  5
3B9
330
388
100
AcDbEntity
  8
GR1_01
  6
Continuous
 62
     6
370
    25
100
AcDbCircle
 10
218.545034397521
 20
100.3640190485727
 30
0.0
 40
20.0
100
AcDbArc
 50
218.5863989685632
 51
278.4136010314356
  0
ARC
  5
3BA
330
388
100
AcDbEntity
  8
GR1_01
  6
Continuous
 62
     6
370
    25
100
AcDbCircle
 10
221.1055969590896
 20
83.05236056741353
 30
0.0
 40
2.5
100
AcDbArc
 50
278.4136010314359
 51
98.41360103143577
  0
LINE
  5
3BB
330
388
100
AcDbEntity
  8
GR1_01
  6
Continuous
 62
     6
370
    25
100
AcDbLine
 10
239.7337848824448
 20
84.58298846702706
 30
0.0
 11
238.3948457146994
 21
62.69152658310236
 31
0.0
  0
LINE
  5
3BC
330
388
100
AcDbEntity
  8
GR1_01
  6
Continuous
 62
     6
370
    25
100
AcDbLine
 10
244.7882709947945
 20
60.7504523538089
 30
0.0
 11
245.9287356779542
 21
79.39688509906608
 31
0.0
  0
ARC
  5
3BD
330
388
100
AcDbEntity
  8
GR1_01
  6
Continuous
 62
     6
370
    25
100
AcDbCircle
 10
218.545034397521
 20
100.3640190485727
 30
0.0
 40
15.0
100
AcDbArc
 50
218.5863989685632
 51
278.4136010314356
  0
LINE
  5
3BE
330
388
100
AcDbEntity
  8
GR1_01
  6
Continuous
 62
     3
370
    50
100
AcDbLine
 10
236.7931034482758
 20
74.17350758026458
 30
0.0
 11
230.7931034482758
 21
70.70940596512685
 31
0.0
  0
LINE
  5
3BF
330
388
100
AcDbEntity
  8
GR1_01
  6
Continuous
 62
     3
370
    50
100
AcDbLine
 10
230.7931034482758
 20
70.70940596512685
 30
0.0
 11
224.7931034482758
 21
74.17350758026458
 31
0.0
  0
LINE
  5
3C0
330
388
100
AcDbEntity
  8
GR1_01
  6
Continuous
 62
     3
370
    50
100
AcDbLine
 10
224.7931034482758
 20
74.17350758026458
 30
0.0
 11
224.7931034482758
 21
81.10171081054006
 31
0.0
  0
LINE
  5
3C1
330
388
100
AcDbEntity
  8
GR1_01
  6
Continuous
 62
     3
370
    50
100
AcDbLine
 10
224.7931034482758
 20
81.10171081054006
 30
0.0
 11
230.7931034482758
 21
84.56581242567785
 31
0.0
  0
LINE
  5
3C2
330
388
100
AcDbEntity
  8
GR1_01
  6
Continuous
 62
     3
370
    50
100
AcDbLine
 10
230.7931034482758
 20
84.56581242567785
 30
0.0
 11
236.7931034482758
 21
81.10171081054011
 31
0.0
  0
LINE
  5
3C3
330
388
100
AcDbEntity
  8
GR1_01
  6
Continuous
 62
     3
370
    50
100
AcDbLine
 10
236.7931034482758
 20
81.10171081054011
 30
0.0
 11
236.7931034482758
 21
74.17350758026458
 31
0.0
  0
CIRCLE
  5
3C4
330
388
100
AcDbEntity
  8
GR1_01
  6
Continuous
 62
     3
370
    50
100
AcDbCircle
 10
230.7931034482758
 20
77.63760919540232
 30
0.0
 40
3.3235
  0
LINE
  5
3C5
330
388
100
AcDbEntity
  8
GR1_01
  6
Continuous
 62
     6
370
    25
100
AcDbLine
 10
227.2935843954374
 20
82.19895399697361
 30
0.0
 11
228.5926225011141
 21
82.94895399697361
 31
0.0
  0
LINE
  5
3C6
330
388
100
AcDbEntity
  8
GR1_01
  6
Continuous
 62
     6
370
    25
100
AcDbLine
 10
228.5926225011141
 20
82.94895399697361
 30
0.0
 11
230.3709432633929
 21
82.36881208455213
 31
0.0
  0
LINE
  5
3C7
330
388
100
AcDbEntity
  8
GR1_01
  6
Continuous
 62
     6
370
    25
100
AcDbLine
 10
227.2935843954374
 20
82.19895399697361
 30
0.0
 11
226.9068416482551
 21
80.36881208455213
 31
0.0
  0
LINE
  5
3C8
330
388
100
AcDbEntity
  8
GR1_01
  6
Continuous
 62
     6
370
    25
100
AcDbLine
 10
236.4931034482757
 20
76.88760919540232
 30
0.0
 11
235.1015254331792
 21
75.63760919540232
 31
0.0
  0
LINE
  5
3C9
330
388
100
AcDbEntity
  8
GR1_01
  6
Continuous
 62
     6
370
    25
100
AcDbLine
 10
236.4931034482757
 20
76.88760919540232
 30
0.0
 11
236.4931034482757
 21
78.38760919540232
 31
0.0
  0
LINE
  5
3CA
330
388
100
AcDbEntity
  8
GR1_01
  6
Continuous
 62
     6
370
    25
100
AcDbLine
 10
236.4931034482757
 20
78.38760919540232
 30
0.0
 11
235.1015254331792
 21
79.63760919540232
 31
0.0
  0
CIRCLE
  5
3CB
330
388
100
AcDbEntity
  8
GR1_01
  6
Continuous
 62
     6
370
    25
100
AcDbCircle
 10
230.7931034482758
 20
77.63760919540232
 30
0.0
 40
4.0
  0
CIRCLE
  5
3CC
330
388
100
AcDbEntity
  8
GR1_01
  6
Continuous
 62
     6
370
    25
100
AcDbCircle
 10
230.7931034482758
 20
77.63760919540232
 30
0.0
 40
4.75
  0
LINE
  5
3CD
330
388
100
AcDbEntity
  8
GR1_01
  6
Continuous
 62
     6
370
    25
100
AcDbLine
 10
230.3709432633929
 20
72.9064063062525
 30
0.0
 11
228.5926225011141
 21
72.32626439383108
 31
0.0
  0
LINE
  5
3CE
330
388
100
AcDbEntity
  8
GR1_01
  6
Continuous
 62
     6
370
    25
100
AcDbLine
 10
228.5926225011141
 20
72.32626439383108
 30
0.0
 11
227.2935843954374
 21
73.07626439383108
 31
0.0
  0
LINE
  5
3CF
330
388
100
AcDbEntity
  8
GR1_01
  6
Continuous
 62
     6
370
    25
100
AcDbLine
 10
227.2935843954374
 20
73.07626439383108
 30
0.0
 11
226.9068416482551
 21
74.90640630625256
 31
0.0
  0
ENDBLK
  5
38A
330
388
100
AcDbEntity
  8
0
100
AcDbBlockEnd
  0
BLOCK
  5
3D7
330
3D6
100
AcDbEntity
  8
0
100
AcDbBlockBegin
  2
BLKF025
 70
     0
 10
0.0
 20
0.0
 30
0.0
  3
BLKF025
  1

  0
ARC
  5
3DA
330
3D6
100
AcDbEntity
  8
GR1_01
  6
Continuous
 62
     3
370
    50
100
AcDbCircle
 10
139.5841251201025
 20
112.4276473633319
 30
0.0
 40
2.0
100
AcDbArc
 50
0.0
 51
82.26361996004577
  0
ARC
  5
3DB
330
3D6
100
AcDbEntity
  8
GR1_01
  6
Continuous
 62
     3
370
    50
100
AcDbCircle
 10
129.0841251201024
 20
35.13760919540232
 30
0.0
 40
80.0
100
AcDbArc
 50
82.26361996004556
 51
97.73638003995443
  0
ARC
  5
3DC
330
3D6
100
AcDbEntity
  8
GR1_01
  6
Continuous
 62
     3
370
    50
100
AcDbCircle
 10
118.5841251201025
 20
112.4276473633319
 30
0.0
 40
2.0
100
AcDbArc
 50
97.73638003995461
 51
180.0
  0
LINE
  5
3DD
330
3D6
100
AcDbEntity
  8
GR1_01
  6
Continuous
 62
     3
370
    50
100
AcDbLine
 10
116.5841251201024
 20
112.4276473633319
 30
0.0
 11
116.5841251201024
 21
42.84757102747272
 31
0.0
  0
LINE
  5
3DE
330
3D6
100
AcDbEntity
  8
GR1_01
  6
Continuous
 62
     3
370
    50
100
AcDbLine
 10
141.5841251201024
 20
112.4276473633319
 30
0.0
 11
141.5841251201024
 21
42.84757102747278
 31
0.0
  0
ARC
  5
3DF
330
3D6
100
AcDbEntity
  8
GR1_01
  6
Continuous
 62
     3
370
    50
100
AcDbCircle
 10
139.5841251201025
 20
42.84757102747278
 30
0.0
 40
2.0
100
AcDbArc
 50
277.7363800399542
 51
0.0
  0
ARC
  5
3E0
330
3D6
100
AcDbEntity
  8
GR1_01
  6
Continuous
 62
     3
370
    50
100
AcDbCircle
 10
129.0841251201024
 20
120.1376091954023
 30
0.0
 40
80.0
100
AcDbArc
 50
262.2636199600457
 51
277.7363800399545
  0
ARC
  5
3E1
330
3D6
100
AcDbEntity
  8
GR1_01
  6
Continuous
 62
     3
370
    50
100
AcDbCircle
 10
118.5841251201025
 20
42.84757102747278
 30
0.0
 40
2.0
100
AcDbArc
 50
180.0000000000008
 51
262.2636199600455
  0
LINE
  5
3E2
330
3D6
100
AcDbEntity
  8
GR1_01
  6
Continuous
 62
     3
370
    50
100
AcDbLine
 10
115.0841251201024
 20
63.97670882657957
 30
0.0
 11
115.0841251201025
 21
91.29850956422507
 31
0.0
  0
ARC
  5
3E3
330
3D6
100
AcDbEntity
  8
基準ﾚｲﾔｸﾞﾙｰﾌﾟ_01
  6
Continuous
 62
     3
370
    50
100
AcDbCircle
 10
116.0841251201025
 20
91.29850956422507
 30
0.0
 40
1.0
100
AcDbArc
 50
99.99999999999997
 51
180.0
  0
LINE
  5
3E4
330
3D6
100
AcDbEntity
  8
基準ﾚｲﾔｸﾞﾙｰﾌﾟ_01
  6
Continuous
 62
     3
370
    50
100
AcDbLine
 10
115.9104769424356
 20
92.28331731723722
 30
0.0
 11
116.5841251201025
 21
92.402099666465
 31
0.0
  0
ARC
  5
3E5
330
3D6
100
AcDbEntity
  8
基準ﾚｲﾔｸﾞﾙｰﾌﾟ_01
  6
Continuous
 62
     3
370
    50
100
AcDbCircle
 10
116.0841251201025
 20
63.97670882657957
 30
0.0
 40
1.0
100
AcDbArc
 50
180.0
 51
259.9999999999998
  0
LINE
  5
3E6
330
3D6
100
AcDbEntity
  8
基準ﾚｲﾔｸﾞﾙｰﾌﾟ_01
  6
Continuous
 62
     3
370
    50
100
AcDbLine
 10
115.9104769424356
 20
62.99190107356742
 30
0.0
 11
116.5841251201025
 21
62.87311872433963
 31
0.0
  0
LINE
  5
3E7
330
3D6
100
AcDbEntity
  8
GR1_01
  6
Continuous
 62
     3
370
    50
100
AcDbLine
 10
115.0841251201024
 20
71.63760919540232
 30
0.0
 11
113.5841251201024
 21
71.63760919540232
 31
0.0
  0
LINE
  5
3E8
330
3D6
100
AcDbEntity
  8
GR1_01
  6
Continuous
 62
     3
370
    50
100
AcDbLine
 10
113.5841251201024
 20
83.63760919540226
 30
0.0
 11
115.0841251201025
 21
83.63760919540226
 31
0.0
  0
LINE
  5
3E9
330
3D6
100
AcDbEntity
  8
GR1_01
  6
Continuous
 62
     3
370
    50
100
AcDbLine
 10
113.5841251201024
 20
71.63760919540232
 30
0.0
 11
113.5841251201024
 21
83.63760919540226
 31
0.0
  0
LINE
  5
3EA
330
3D6
100
AcDbEntity
  8
GR1_01
  6
Continuous
 62
     3
370
    50
100
AcDbLine
 10
143.0841251201025
 20
63.97670882657957
 30
0.0
 11
143.0841251201024
 21
91.29850956422507
 31
0.0
  0
ARC
  5
3EB
330
3D6
100
AcDbEntity
  8
基準ﾚｲﾔｸﾞﾙｰﾌﾟ_01
  6
Continuous
 62
     3
370
    50
100
AcDbCircle
 10
142.0841251201024
 20
91.29850956422507
 30
0.0
 40
1.0
100
AcDbArc
 50
0.0
 51
79.99999999999979
  0
LINE
  5
3EC
330
3D6
100
AcDbEntity
  8
基準ﾚｲﾔｸﾞﾙｰﾌﾟ_01
  6
Continuous
 62
     3
370
    50
100
AcDbLine
 10
142.2577732977694
 20
92.28331731723722
 30
0.0
 11
141.5841251201025
 21
92.402099666465
 31
0.0
  0
ARC
  5
3ED
330
3D6
100
AcDbEntity
  8
基準ﾚｲﾔｸﾞﾙｰﾌﾟ_01
  6
Continuous
 62
     3
370
    50
100
AcDbCircle
 10
142.0841251201024
 20
63.97670882657957
 30
0.0
 40
1.0
100
AcDbArc
 50
280.0000000000002
 51
0.0
  0
LINE
  5
3EE
330
3D6
100
AcDbEntity
  8
基準ﾚｲﾔｸﾞﾙｰﾌﾟ_01
  6
Continuous
 62
     3
370
    50
100
AcDbLine
 10
142.2577732977694
 20
62.99190107356742
 30
0.0
 11
141.5841251201025
 21
62.87311872433963
 31
0.0
  0
LINE
  5
3EF
330
3D6
100
AcDbEntity
  8
GR1_01
  6
Continuous
 62
     3
370
    50
100
AcDbLine
 10
143.0841251201025
 20
71.63760919540232
 30
0.0
 11
144.5841251201025
 21
71.63760919540232
 31
0.0
  0
LINE
  5
3F0
330
3D6
100
AcDbEntity
  8
GR1_01
  6
Continuous
 62
     3
370
    50
100
AcDbLine
 10
144.5841251201025
 20
83.63760919540226
 30
0.0
 11
143.0841251201025
 21
83.63760919540226
 31
0.0
  0
LINE
  5
3F1
330
3D6
100
AcDbEntity
  8
GR1_01
  6
Continuous
 62
     3
370
    50
100
AcDbLine
 10
144.5841251201025
 20
71.63760919540232
 30
0.0
 11
144.5841251201025
 21
83.63760919540226
 31
0.0
  0
ENDBLK
  5
3D8
330
3D6
100
AcDbEntity
  8
0
100
AcDbBlockEnd
  0
BLOCK
  5
40A
330
409
100
AcDbEntity
  8
0
100
AcDbBlockBegin
  2
BLKF026
 70
     0
 10
0.0
 20
0.0
 30
0.0
  3
BLKF026
  1

  0
INSERT
  5
410
330
409
100
AcDbEntity
  8
GR1_01
  6
Continuous
 62
     3
370
    50
100
AcDbBlockReference
  2
BLKF027
 10
0.0
 20
0.0
 30
0.0
  0
TEXT
  5
41C
330
409
100
AcDbEntity
  8
基準ﾚｲﾔｸﾞﾙｰﾌﾟ_01
  6
Continuous
 62
     7
370
    25
100
AcDbText
 10
211.2598571777344
 20
52.58850860595703
 30
0.0
 40
3.90961480140686
  1
２
 50
137.4720458984375
 41
1.771831307663268
  7
FX_VECTOR
 72
     5
 11
207.6134519117225
 21
55.93309773819585
 31
0.0
100
AcDbText
  0
TEXT
  5
41D
330
409
100
AcDbEntity
  8
基準ﾚｲﾔｸﾞﾙｰﾌﾟ_01
  6
Continuous
 62
     7
370
    25
100
AcDbText
 10
217.9000244140625
 20
48.60707092285156
 30
0.0
 40
3.90961480140686
  1
５
 50
151.4720458984375
 41
1.771831307663268
  7
FX_VECTOR
 72
     5
 11
213.5528036253076
 21
50.97016618993383
 31
0.0
100
AcDbText
  0
TEXT
  5
41E
330
409
100
AcDbEntity
  8
基準ﾚｲﾔｸﾞﾙｰﾌﾟ_01
  6
Continuous
 62
     7
370
    25
100
AcDbText
 10
221.0051727294922
 20
47.41839599609375
 30
0.0
 40
3.90961480140686
  1
７
 50
157.4720458984375
 41
1.771831307663267
  7
FX_VECTOR
 72
     5
 11
216.4347557542522
 21
49.31413767151446
 31
0.0
100
AcDbText
  0
TEXT
  5
41F
330
409
100
AcDbEntity
  8
基準ﾚｲﾔｸﾞﾙｰﾌﾟ_01
  6
Continuous
 62
     7
370
    25
100
AcDbText
 10
208.1574096679688
 20
55.35241317749023
 30
0.0
 40
3.90961480140686
  1
５
 50
129.9720458984374
 41
1.771831307663264
  7
FX_VECTOR
 72
     5
 11
204.9787563884666
 21
59.14434028071877
 31
0.0
100
AcDbText
  0
TEXT
  5
420
330
409
100
AcDbEntity
  8
基準ﾚｲﾔｸﾞﾙｰﾌﾟ_01
  6
Continuous
 62
     7
370
    25
100
AcDbText
 10
214.4581909179688
 20
50.39472198486328
 30
0.0
 40
3.90961480140686
  1
Ｘ
 50
144.4720458984375
 41
1.771831307663266
  7
FX_VECTOR
 72
     5
 11
210.4313625223581
 21
53.26999604133037
 31
0.0
100
AcDbText
  0
ENDBLK
  5
40B
330
409
100
AcDbEntity
  8
0
100
AcDbBlockEnd
  0
BLOCK
  5
40E
330
40D
100
AcDbEntity
  8
0
100
AcDbBlockBegin
  2
BLKF027
 70
     0
 10
0.0
 20
0.0
 30
0.0
  3
BLKF027
  1

  0
ARC
  5
411
330
40D
100
AcDbEntity
  8
GR1_01
  6
Continuous
 62
     6
370
    25
100
AcDbCircle
 10
230.7931034482758
 20
77.63760919540232
 30
0.0
 40
25.99999999999997
100
AcDbArc
 50
106.8823379108188
 51
137.8067117662834
  0
ARC
  5
412
330
40D
100
AcDbEntity
  8
基準ﾚｲﾔｸﾞﾙｰﾌﾟ_01
  6
Continuous
 62
     6
370
    25
100
AcDbCircle
 10
230.7931034482758
 20
77.63760919540232
 30
0.0
 40
14.50000000000003
100
AcDbArc
 50
228.9595371238035
 51
235.0307428811511
  0
ARC
  5
413
330
40D
100
AcDbEntity
  8
GR1_01
  6
Continuous
 62
     3
370
    50
100
AcDbCircle
 10
230.7931034482758
 20
77.63760919540232
 30
0.0
 40
37.5
100
AcDbArc
 50
99.1320519032238
 51
144.3181713292018
  0
ARC
  5
414
330
40D
100
AcDbEntity
  8
GR1_01
  6
Continuous
 62
     3
370
    50
100
AcDbCircle
 10
230.7931034482759
 20
77.63760919540229
 30
0.0
 40
30.99999999999997
100
AcDbArc
 50
102.7574605209165
 51
141.2602413933067
  0
ARC
  5
415
330
40D
100
AcDbEntity
  8
GR1_01
  6
Continuous
 62
     3
370
    50
100
AcDbCircle
 10
230.7931034482759
 20
77.63760919540229
 30
0.0
 40
30.99999999999997
100
AcDbArc
 50
348.7117973203945
 51
32.9000183420676
  0
ARC
  5
416
330
40D
100
AcDbEntity
  8
GR1_01
  6
Continuous
 62
     3
370
    50
100
AcDbCircle
 10
230.7931034482759
 20
77.63760919540229
 30
0.0
 40
30.99999999999997
100
AcDbArc
 50
162.2571748218319
 51
329.7531707491566
  0
ARC
  5
417
330
40D
100
AcDbEntity
  8
GR1_01
  6
Continuous
 62
     3
370
    50
100
AcDbCircle
 10
230.7931034482758
 20
77.63760919540232
 30
0.0
 40
37.5
100
AcDbArc
 50
148.1141140821941
 51
342.1321314093201
  0
ARC
  5
418
330
40D
100
AcDbEntity
  8
GR1_01
  6
Continuous
 62
     3
370
    50
100
AcDbCircle
 10
230.7931034482758
 20
77.63760919540232
 30
0.0
 40
37.5
100
AcDbArc
 50
345.2847322914287
 51
36.78696479029192
  0
ARC
  5
419
330
40D
100
AcDbEntity
  8
基準ﾚｲﾔｸﾞﾙｰﾌﾟ_01
  6
Continuous
 62
     6
370
    25
100
AcDbCircle
 10
230.7931034482758
 20
77.63760919540232
 30
0.0
 40
14.50000000000003
100
AcDbArc
 50
266.639354745779
 51
290.3642869503191
  0
ARC
  5
41A
330
40D
100
AcDbEntity
  8
GR1_01
  6
Continuous
 62
     6
370
    25
100
AcDbCircle
 10
230.7931034482758
 20
77.63760919540232
 30
0.0
 40
25.99999999999997
100
AcDbArc
 50
352.6003083890666
 51
28.27975106219799
  0
ARC
  5
41B
330
40D
100
AcDbEntity
  8
GR1_01
  6
Continuous
 62
     6
370
    25
100
AcDbCircle
 10
230.7931034482758
 20
77.63760919540232
 30
0.0
 40
25.99999999999997
100
AcDbArc
 50
172.0385973405134
 51
318.6936172798056
  0
ENDBLK
  5
40F
330
40D
100
AcDbEntity
  8
0
100
AcDbBlockEnd
  0
ENDSEC
  0
SECTION
  2
ENTITIES
  0
LINE
  5
AF
330
1F
100
AcDbEntity
  8
図面枠ﾚｲﾔ_01
  6
Continuous
 62
     7
370
    50
100
AcDbLine
 10
10.0
 20
10.0
 30
0.0
 11
410.0
 21
10.0
 31
0.0
  0
LINE
  5
B0
330
1F
100
AcDbEntity
  8
図面枠ﾚｲﾔ_01
  6
Continuous
 62
     7
370
    50
100
AcDbLine
 10
10.0
 20
10.0
 30
0.0
 11
10.0
 21
287.0
 31
0.0
  0
LINE
  5
B1
330
1F
100
AcDbEntity
  8
図面枠ﾚｲﾔ_01
  6
Continuous
 62
     7
370
    50
100
AcDbLine
 10
10.0
 20
287.0
 30
0.0
 11
410.0
 21
287.0
 31
0.0
  0
LINE
  5
B2
330
1F
100
AcDbEntity
  8
図面枠ﾚｲﾔ_01
  6
Continuous
 62
     7
370
    50
100
AcDbLine
 10
410.0
 20
287.0
 30
0.0
 11
410.0
 21
10.0
 31
0.0
  0
LINE
  5
B3
330
1F
100
AcDbEntity
  8
図面枠ﾚｲﾔ_01
  6
Continuous
 62
     7
370
    25
100
AcDbLine
 10
153.0
 20
9.999999999999998
 30
0.0
 11
153.0
 21
20.0
 31
0.0
  0
TEXT
  5
B4
330
1F
100
AcDbEntity
  8
図面枠ﾚｲﾔ_01
  6
Continuous
 62
     7
370
    25
100
AcDbText
 10
137.7388153076172
 20
11.59687900543213
 30
0.0
 40
6.648748874664307
  1
品名
 41
1.083413404130886
  7
FX_VECTOR
 72
     5
 11
149.0583553314209
 21
11.59687900543213
 31
0.0
100
AcDbText
  0
LINE
  5
B5
330
1F
100
AcDbEntity
  8
図面枠ﾚｲﾔ_01
  6
Continuous
 62
     7
370
    50
100
AcDbLine
 10
233.0
 20
20.0
 30
0.0
 11
233.0
 21
10.0
 31
0.0
  0
LINE
  5
B6
330
1F
100
AcDbEntity
  8
図面枠ﾚｲﾔ_01
  6
Continuous
 62
     7
370
    50
100
AcDbLine
 10
133.0
 20
20.0
 30
0.0
 11
410.0
 21
20.0
 31
0.0
  0
TEXT
  5
B7
330
1F
100
AcDbEntity
  8
図面枠ﾚｲﾔ_01
  6
Continuous
 62
     7
370
    25
100
AcDbText
 10
349.2257690429688
 20
11.46128463745117
 30
0.0
 40
7.170907974243164
  1
ＧＯＬＤ　ＣＡＳＴＥＲ
 41
0.702117011671778
  7
FX_VECTOR
 72
     5
 11
395.9776363372803
 21
11.46128463745117
 31
0.0
100
AcDbText
  0
LINE
  5
B8
330
1F
100
AcDbEntity
  8
図面枠ﾚｲﾔ_01
  6
Continuous
 62
     7
370
    25
100
AcDbLine
 10
253.0
 20
9.999999999999998
 30
0.0
 11
253.0
 21
20.0
 31
0.0
  0
TEXT
  5
B9
330
1F
100
AcDbEntity
  8
図面枠ﾚｲﾔ_01
  6
Continuous
 62
     7
370
    25
100
AcDbText
 10
237.7388153076172
 20
11.59687900543213
 30
0.0
 40
6.648748874664307
  1
図番
 41
1.083413404130886
  7
FX_VECTOR
 72
     5
 11
249.0583553314209
 21
11.59687900543213
 31
0.0
100
AcDbText
  0
LINE
  5
BA
330
1F
100
AcDbEntity
  8
図面枠ﾚｲﾔ_01
  6
Continuous
 62
     7
370
    50
100
AcDbLine
 10
333.0
 20
20.0
 30
0.0
 11
333.0
 21
10.0
 31
0.0
  0
LINE
  5
BB
330
1F
100
AcDbEntity
  8
図面枠ﾚｲﾔ_01
  6
Continuous
 62
     7
370
    50
100
AcDbLine
 10
133.0
 20
20.0
 30
0.0
 11
133.0
 21
10.0
 31
0.0
  0
LINE
  5
BD
330
1F
100
AcDbEntity
  8
0_01
  6
Continuous
 62
     7
370
    25
100
AcDbLine
 10
344.8018997861325
 20
17.91346152
 30
0.0
 11
338.8018997861325
 21
17.91346152
 31
0.0
  0
LINE
  5
BE
330
1F
100
AcDbEntity
  8
0_01
  6
Continuous
 62
     7
370
    25
100
AcDbLine
 10
338.8018997861325
 20
17.91346152
 30
0.0
 11
338.8018997861325
 21
11.91346152
 31
0.0
  0
LINE
  5
BF
330
1F
100
AcDbEntity
  8
0_01
  6
Continuous
 62
     7
370
    25
100
AcDbLine
 10
338.8018997861325
 20
11.91346152
 30
0.0
 11
344.8018997861325
 21
11.91346152
 31
0.0
  0
LINE
  5
C0
330
1F
100
AcDbEntity
  8
0_01
  6
Continuous
 62
     7
370
    25
100
AcDbLine
 10
344.8018997861325
 20
11.91346152
 30
0.0
 11
344.8018997861325
 21
17.91346152
 31
0.0
  0
LINE
  5
C1
330
1F
100
AcDbEntity
  8
0_01
  6
Continuous
 62
     7
370
    25
100
AcDbLine
 10
344.2249766861325
 20
15.3461538
 30
0.0
 11
341.8018997861325
 21
17.76923076000002
 31
0.0
  0
LINE
  5
C2
330
1F
100
AcDbEntity
  8
0_01
  6
Continuous
 62
     7
370
    25
100
AcDbLine
 10
341.8018997861325
 20
17.76923076000002
 30
0.0
 11
338.9461305461325
 21
14.91346152
 31
0.0
  0
LINE
  5
C3
330
1F
100
AcDbEntity
  8
0_01
  6
Continuous
 62
     7
370
    25
100
AcDbLine
 10
338.9461305461325
 20
14.91346152
 30
0.0
 11
341.8018997861325
 21
12.05769228000001
 31
0.0
  0
LINE
  5
C4
330
1F
100
AcDbEntity
  8
0_01
  6
Continuous
 62
     7
370
    25
100
AcDbLine
 10
341.8018997861325
 20
12.05769228000001
 30
0.0
 11
343.3595920661325
 21
13.61538462
 31
0.0
  0
LINE
  5
C5
330
1F
100
AcDbEntity
  8
0_01
  6
Continuous
 62
     7
370
    25
100
AcDbLine
 10
343.3595920661325
 20
13.61538462
 30
0.0
 11
343.3595920661325
 21
12.98076924
 31
0.0
  0
LINE
  5
C6
330
1F
100
AcDbEntity
  8
0_01
  6
Continuous
 62
     7
370
    25
100
AcDbLine
 10
343.3595920661325
 20
12.98076924
 30
0.0
 11
344.2249766861325
 21
12.98076924
 31
0.0
  0
LINE
  5
C7
330
1F
100
AcDbEntity
  8
0_01
  6
Continuous
 62
     7
370
    25
100
AcDbLine
 10
344.2249766861325
 20
12.98076924
 30
0.0
 11
344.2249766861325
 21
15.00000000000001
 31
0.0
  0
LINE
  5
C8
330
1F
100
AcDbEntity
  8
0_01
  6
Continuous
 62
     7
370
    25
100
AcDbLine
 10
344.2249766861325
 20
15.00000000000001
 30
0.0
 11
341.8018997861325
 21
15.00000000000001
 31
0.0
  0
LINE
  5
C9
330
1F
100
AcDbEntity
  8
0_01
  6
Continuous
 62
     7
370
    25
100
AcDbLine
 10
341.8018997861325
 20
15.00000000000001
 30
0.0
 11
341.8018997861325
 21
14.13461538000001
 31
0.0
  0
LINE
  5
CA
330
1F
100
AcDbEntity
  8
0_01
  6
Continuous
 62
     7
370
    25
100
AcDbLine
 10
341.8018997861325
 20
14.13461538000001
 30
0.0
 11
342.2461305461325
 21
14.13461538000001
 31
0.0
  0
LINE
  5
CB
330
1F
100
AcDbEntity
  8
0_01
  6
Continuous
 62
     7
370
    25
100
AcDbLine
 10
342.2461305461325
 20
14.13461538000001
 30
0.0
 11
341.8018997861325
 21
13.69038462
 31
0.0
  0
LINE
  5
CC
330
1F
100
AcDbEntity
  8
0_01
  6
Continuous
 62
     7
370
    25
100
AcDbLine
 10
341.8018997861325
 20
13.69038462
 30
0.0
 11
340.5788228861325
 21
14.91346152
 31
0.0
  0
LINE
  5
CD
330
1F
100
AcDbEntity
  8
0_01
  6
Continuous
 62
     7
370
    25
100
AcDbLine
 10
340.5788228861325
 20
14.91346152
 30
0.0
 11
341.8018997861325
 21
16.13653842000003
 31
0.0
  0
LINE
  5
CE
330
1F
100
AcDbEntity
  8
0_01
  6
Continuous
 62
     7
370
    25
100
AcDbLine
 10
341.8018997861325
 20
16.13653842000003
 30
0.0
 11
342.5922844061325
 21
15.3461538
 31
0.0
  0
LINE
  5
CF
330
1F
100
AcDbEntity
  8
0_01
  6
Continuous
 62
     7
370
    25
100
AcDbLine
 10
342.5922844061325
 20
15.3461538
 30
0.0
 11
344.2249766861325
 21
15.3461538
 31
0.0
  0
LINE
  5
D1
330
1F
100
AcDbEntity
  8
GR1_01
  6
Continuous
 62
     7
370
    25
100
AcDbLine
 10
339.7223799643118
 20
11.91346152
 30
0.0
 11
340.8342552552222
 21
13.02533681091035
 31
0.0
  0
LINE
  5
D2
330
1F
100
AcDbEntity
  8
GR1_01
  6
Continuous
 62
     7
370
    25
100
AcDbLine
 10
341.6506014252221
 20
13.84168298091037
 30
0.0
 11
341.9435338243118
 21
14.13461538
 31
0.0
  0
LINE
  5
D3
330
1F
100
AcDbEntity
  8
GR1_01
  6
Continuous
 62
     7
370
    25
100
AcDbLine
 10
342.8089184443118
 20
15.0
 30
0.0
 11
343.1550722443118
 21
15.34615379999997
 31
0.0
  0
LINE
  5
D4
330
1F
100
AcDbEntity
  8
GR1_01
  6
Continuous
 62
     7
370
    25
100
AcDbLine
 10
343.6900244718453
 20
15.88110602753357
 30
0.0
 11
344.8018997861325
 21
16.9929813418207
 31
0.0
  0
LINE
  5
D5
330
1F
100
AcDbEntity
  8
GR1_01
  6
Continuous
 62
     7
370
    25
100
AcDbLine
 10
339.6516692861931
 20
11.91346151999999
 30
0.0
 11
340.7988999161628
 21
13.06069214996967
 31
0.0
  0
LINE
  5
D6
330
1F
100
AcDbEntity
  8
GR1_01
  6
Continuous
 62
     7
370
    25
100
AcDbLine
 10
341.6152460861629
 20
13.87703831996969
 30
0.0
 11
341.8728231461931
 21
14.13461538
 31
0.0
  0
LINE
  5
D7
330
1F
100
AcDbEntity
  8
GR1_01
  6
Continuous
 62
     7
370
    25
100
AcDbLine
 10
342.7382077661931
 20
15.0
 30
0.0
 11
343.0843615661931
 21
15.34615379999997
 31
0.0
  0
LINE
  5
D8
330
1F
100
AcDbEntity
  8
GR1_01
  6
Continuous
 62
     7
370
    25
100
AcDbLine
 10
343.6546691332238
 20
15.91646136703062
 30
0.0
 11
344.8018997861325
 21
17.06369201993936
 31
0.0
  0
LINE
  5
D9
330
1F
100
AcDbEntity
  8
GR1_01
  6
Continuous
 62
     7
370
    25
100
AcDbLine
 10
339.5809586080745
 20
11.91346152
 30
0.0
 11
340.7635445771035
 21
13.09604748902901
 31
0.0
  0
LINE
  5
DA
330
1F
100
AcDbEntity
  8
GR1_01
  6
Continuous
 62
     7
370
    25
100
AcDbLine
 10
341.5798907471035
 20
13.91239365902902
 30
0.0
 11
341.8021124680745
 21
14.13461538
 31
0.0
  0
LINE
  5
DB
330
1F
100
AcDbEntity
  8
GR1_01
  6
Continuous
 62
     7
370
    25
100
AcDbLine
 10
342.6674970880745
 20
15.0
 30
0.0
 11
343.0136508880745
 21
15.3461538
 31
0.0
  0
LINE
  5
DC
330
1F
100
AcDbEntity
  8
GR1_01
  6
Continuous
 62
     7
370
    25
100
AcDbLine
 10
343.6193137946021
 20
15.95181670652768
 30
0.0
 11
344.8018997861325
 21
17.13440269805803
 31
0.0
  0
LINE
  5
DD
330
1F
100
AcDbEntity
  8
GR1_01
  6
Continuous
 62
     7
370
    25
100
AcDbLine
 10
339.5102479299558
 20
11.91346151999999
 30
0.0
 11
340.7281892380441
 21
13.13140282808833
 31
0.0
  0
LINE
  5
DE
330
1F
100
AcDbEntity
  8
GR1_01
  6
Continuous
 62
     7
370
    25
100
AcDbLine
 10
341.5445354080442
 20
13.94774899808835
 30
0.0
 11
341.8018997861325
 21
14.20511337617669
 31
0.0
  0
LINE
  5
DF
330
1F
100
AcDbEntity
  8
GR1_01
  6
Continuous
 62
     7
370
    25
100
AcDbLine
 10
342.5967864099558
 20
15.00000000000002
 30
0.0
 11
342.9429402099558
 21
15.34615379999999
 31
0.0
  0
LINE
  5
E0
330
1F
100
AcDbEntity
  8
GR1_01
  6
Continuous
 62
     7
370
    25
100
AcDbLine
 10
343.5839584559806
 20
15.98717204602474
 30
0.0
 11
344.8018997861325
 21
17.20511337617667
 31
0.0
  0
LINE
  5
E1
330
1F
100
AcDbEntity
  8
GR1_01
  6
Continuous
 62
     7
370
    25
100
AcDbLine
 10
339.4395372518372
 20
11.91346152
 30
0.0
 11
340.6928338989848
 21
13.16675816714765
 31
0.0
  0
LINE
  5
E2
330
1F
100
AcDbEntity
  8
GR1_01
  6
Continuous
 62
     7
370
    25
100
AcDbLine
 10
341.5091800689848
 20
13.98310433714767
 30
0.0
 11
341.8018997861325
 21
14.27582405429533
 31
0.0
  0
LINE
  5
E3
330
1F
100
AcDbEntity
  8
GR1_01
  6
Continuous
 62
     7
370
    25
100
AcDbLine
 10
342.5260757318372
 20
15.0
 30
0.0
 11
342.8722295318371
 21
15.34615379999997
 31
0.0
  0
LINE
  5
E4
330
1F
100
AcDbEntity
  8
GR1_01
  6
Continuous
 62
     7
370
    25
100
AcDbLine
 10
343.548603117359
 20
16.0225273855218
 30
0.0
 11
344.8018997861325
 21
17.2758240542953
 31
0.0
  0
LINE
  5
E5
330
1F
100
AcDbEntity
  8
GR1_01
  6
Continuous
 62
     7
370
    25
100
AcDbLine
 10
339.3688265737185
 20
11.91346151999999
 30
0.0
 11
340.6574785599255
 21
13.20211350620697
 31
0.0
  0
LINE
  5
E6
330
1F
100
AcDbEntity
  8
GR1_01
  6
Continuous
 62
     7
370
    25
100
AcDbLine
 10
341.4738247299255
 20
14.01845967620699
 30
0.0
 11
341.8018997861325
 21
14.34653473241399
 31
0.0
  0
LINE
  5
E7
330
1F
100
AcDbEntity
  8
GR1_01
  6
Continuous
 62
     7
370
    25
100
AcDbLine
 10
342.4553650537185
 20
15.0
 30
0.0
 11
342.8015188537185
 21
15.34615379999997
 31
0.0
  0
LINE
  5
E8
330
1F
100
AcDbEntity
  8
GR1_01
  6
Continuous
 62
     7
370
    25
100
AcDbLine
 10
343.5132477787374
 20
16.05788272501886
 30
0.0
 11
344.8018997861325
 21
17.34653473241396
 31
0.0
  0
LINE
  5
E9
330
1F
100
AcDbEntity
  8
GR1_01
  6
Continuous
 62
     7
370
    25
100
AcDbLine
 10
339.2981158955998
 20
11.91346152
 30
0.0
 11
340.6221232208662
 21
13.23746884526631
 31
0.0
  0
LINE
  5
EA
330
1F
100
AcDbEntity
  8
GR1_01
  6
Continuous
 62
     7
370
    25
100
AcDbLine
 10
341.4384693908662
 20
14.05381501526633
 30
0.0
 11
341.8018997861325
 21
14.41724541053265
 31
0.0
  0
LINE
  5
EB
330
1F
100
AcDbEntity
  8
GR1_01
  6
Continuous
 62
     7
370
    25
100
AcDbLine
 10
342.3846543755999
 20
15.0
 30
0.0
 11
342.7308081755999
 21
15.3461538
 31
0.0
  0
LINE
  5
EC
330
1F
100
AcDbEntity
  8
GR1_01
  6
Continuous
 62
     7
370
    25
100
AcDbLine
 10
343.4778924401158
 20
16.09323806451593
 30
0.0
 11
344.8018997861325
 21
17.41724541053263
 31
0.0
  0
LINE
  5
ED
330
1F
100
AcDbEntity
  8
GR1_01
  6
Continuous
 62
     7
370
    25
100
AcDbLine
 10
339.2274052174812
 20
11.91346151999999
 30
0.0
 11
340.5867678818068
 21
13.27282418432563
 31
0.0
  0
LINE
  5
EE
330
1F
100
AcDbEntity
  8
GR1_01
  6
Continuous
 62
     7
370
    25
100
AcDbLine
 10
341.4031140518069
 20
14.08917035432565
 30
0.0
 11
341.8018997861325
 21
14.48795608865129
 31
0.0
  0
LINE
  5
EF
330
1F
100
AcDbEntity
  8
GR1_01
  6
Continuous
 62
     7
370
    25
100
AcDbLine
 10
342.3139436974812
 20
15.00000000000002
 30
0.0
 11
342.6600974974812
 21
15.34615379999999
 31
0.0
  0
LINE
  5
F0
330
1F
100
AcDbEntity
  8
GR1_01
  6
Continuous
 62
     7
370
    25
100
AcDbLine
 10
343.4425371014942
 20
16.12859340401299
 30
0.0
 11
344.8018997861325
 21
17.48795608865128
 31
0.0
  0
LINE
  5
F1
330
1F
100
AcDbEntity
  8
GR1_01
  6
Continuous
 62
     7
370
    25
100
AcDbLine
 10
339.1566945393625
 20
11.91346152
 30
0.0
 11
340.5514125427475
 21
13.30817952338495
 31
0.0
  0
LINE
  5
F2
330
1F
100
AcDbEntity
  8
GR1_01
  6
Continuous
 62
     7
370
    25
100
AcDbLine
 10
341.3677587127476
 20
14.12452569338497
 30
0.0
 11
341.8018997861325
 21
14.55866676676994
 31
0.0
  0
LINE
  5
F3
330
1F
100
AcDbEntity
  8
GR1_01
  6
Continuous
 62
     7
370
    25
100
AcDbLine
 10
342.2432330193626
 20
15.0
 30
0.0
 11
342.5908356127475
 21
15.34760259338495
 31
0.0
  0
LINE
  5
F4
330
1F
100
AcDbEntity
  8
GR1_01
  6
Continuous
 62
     7
370
    25
100
AcDbLine
 10
343.4071817628726
 20
16.16394874351002
 30
0.0
 11
344.8018997861325
 21
17.55866676676991
 31
0.0
  0
LINE
  5
F5
330
1F
100
AcDbEntity
  8
GR1_01
  6
Continuous
 62
     7
370
    25
100
AcDbLine
 10
339.0859838612439
 20
11.91346151999999
 30
0.0
 11
340.5160572036882
 21
13.34353486244428
 31
0.0
  0
LINE
  5
F6
330
1F
100
AcDbEntity
  8
GR1_01
  6
Continuous
 62
     7
370
    25
100
AcDbLine
 10
341.3324033736882
 20
14.15988103244429
 30
0.0
 11
341.8018997861325
 21
14.62937744488858
 31
0.0
  0
LINE
  5
F7
330
1F
100
AcDbEntity
  8
GR1_01
  6
Continuous
 62
     7
370
    25
100
AcDbLine
 10
342.172522341244
 20
15.0
 30
0.0
 11
342.5554802736882
 21
15.38295793244427
 31
0.0
  0
LINE
  5
F8
330
1F
100
AcDbEntity
  8
GR1_01
  6
Continuous
 62
     7
370
    25
100
AcDbLine
 10
343.371826424251
 20
16.19930408300708
 30
0.0
 11
344.8018997861325
 21
17.62937744488856
 31
0.0
  0
LINE
  5
F9
330
1F
100
AcDbEntity
  8
GR1_01
  6
Continuous
 62
     7
370
    25
100
AcDbLine
 10
339.0152731831253
 20
11.91346152
 30
0.0
 11
340.4807018646289
 21
13.37889020150361
 31
0.0
  0
LINE
  5
FA
330
1F
100
AcDbEntity
  8
GR1_01
  6
Continuous
 62
     7
370
    25
100
AcDbLine
 10
341.2970480346289
 20
14.19523637150363
 30
0.0
 11
341.8018997861325
 21
14.70008812300725
 31
0.0
  0
LINE
  5
FB
330
1F
100
AcDbEntity
  8
GR1_01
  6
Continuous
 62
     7
370
    25
100
AcDbLine
 10
342.1018116631253
 20
15.0
 30
0.0
 11
342.5201249346289
 21
15.41831327150361
 31
0.0
  0
LINE
  5
FC
330
1F
100
AcDbEntity
  8
GR1_01
  6
Continuous
 62
     7
370
    25
100
AcDbLine
 10
343.3364710856295
 20
16.23465942250415
 30
0.0
 11
344.8018997861325
 21
17.70008812300724
 31
0.0
  0
LINE
  5
FD
330
1F
100
AcDbEntity
  8
GR1_01
  6
Continuous
 62
     7
370
    25
100
AcDbLine
 10
338.9445625050066
 20
11.91346151999999
 30
0.0
 11
340.4453465255696
 21
13.41424554056293
 31
0.0
  0
LINE
  5
FE
330
1F
100
AcDbEntity
  8
GR1_01
  6
Continuous
 62
     7
370
    25
100
AcDbLine
 10
341.2616926955696
 20
14.23059171056295
 30
0.0
 11
341.8018997861325
 21
14.7707988011259
 31
0.0
  0
LINE
  5
FF
330
1F
100
AcDbEntity
  8
GR1_01
  6
Continuous
 62
     7
370
    25
100
AcDbLine
 10
342.0311009850066
 20
15.00000000000002
 30
0.0
 11
342.4847695955696
 21
15.45366861056293
 31
0.0
  0
LINE
  5
100
330
1F
100
AcDbEntity
  8
GR1_01
  6
Continuous
 62
     7
370
    25
100
AcDbLine
 10
343.3011157470078
 20
16.27001476200121
 30
0.0
 11
344.8018997861325
 21
17.77079880112588
 31
0.0
  0
LINE
  5
101
330
1F
100
AcDbEntity
  8
GR1_01
  6
Continuous
 62
     7
370
    25
100
AcDbLine
 10
338.873851826888
 20
11.91346152
 30
0.0
 11
340.4099911865102
 21
13.44960087962226
 31
0.0
  0
LINE
  5
102
330
1F
100
AcDbEntity
  8
GR1_01
  6
Continuous
 62
     7
370
    25
100
AcDbLine
 10
341.2263373565103
 20
14.26594704962227
 30
0.0
 11
341.8018997861325
 21
14.84150947924453
 31
0.0
  0
LINE
  5
103
330
1F
100
AcDbEntity
  8
GR1_01
  6
Continuous
 62
     7
370
    25
100
AcDbLine
 10
341.960390306888
 20
15.0
 30
0.0
 11
342.4494142565102
 21
15.48902394962225
 31
0.0
  0
LINE
  5
104
330
1F
100
AcDbEntity
  8
GR1_01
  6
Continuous
 62
     7
370
    25
100
AcDbLine
 10
343.2657604083863
 20
16.30537010149827
 30
0.0
 11
344.8018997861325
 21
17.84150947924451
 31
0.0
  0
LINE
  5
105
330
1F
100
AcDbEntity
  8
GR1_01
  6
Continuous
 62
     7
370
    25
100
AcDbLine
 10
338.8031411487693
 20
11.91346151999999
 30
0.0
 11
340.3746358474509
 21
13.48495621868158
 31
0.0
  0
LINE
  5
106
330
1F
100
AcDbEntity
  8
GR1_01
  6
Continuous
 62
     7
370
    25
100
AcDbLine
 10
341.1909820174509
 20
14.3013023886816
 30
0.0
 11
341.8018997861325
 21
14.91222015736318
 31
0.0
  0
LINE
  5
107
330
1F
100
AcDbEntity
  8
GR1_01
  6
Continuous
 62
     7
370
    25
100
AcDbLine
 10
341.8896796287693
 20
15.0
 30
0.0
 11
342.4140589174509
 21
15.52437928868158
 31
0.0
  0
LINE
  5
108
330
1F
100
AcDbEntity
  8
GR1_01
  6
Continuous
 62
     7
370
    25
100
AcDbLine
 10
343.2304050697646
 20
16.34072544099533
 30
0.0
 11
344.8018997861325
 21
17.91222015736317
 31
0.0
  0
LINE
  5
109
330
1F
100
AcDbEntity
  8
GR1_01
  6
Continuous
 62
     7
370
    25
100
AcDbLine
 10
338.8018997861325
 20
11.98293083548183
 30
0.0
 11
340.3392805083916
 21
13.5203115577409
 31
0.0
  0
LINE
  5
10A
330
1F
100
AcDbEntity
  8
GR1_01
  6
Continuous
 62
     7
370
    25
100
AcDbLine
 10
341.1556266783916
 20
14.3366577277409
 30
0.0
 11
341.8018997861325
 21
14.98293083548184
 31
0.0
  0
LINE
  5
10B
330
1F
100
AcDbEntity
  8
GR1_01
  6
Continuous
 62
     7
370
    25
100
AcDbLine
 10
341.8189689506507
 20
14.99999999999999
 30
0.0
 11
342.3787035783916
 21
15.55973462774091
 31
0.0
  0
LINE
  5
10C
330
1F
100
AcDbEntity
  8
GR1_01
  6
Continuous
 62
     7
370
    25
100
AcDbLine
 10
343.1950497311431
 20
16.37608078049238
 30
0.0
 11
344.7324304706507
 21
17.91346152
 31
0.0
  0
LINE
  5
10D
330
1F
100
AcDbEntity
  8
GR1_01
  6
Continuous
 62
     7
370
    25
100
AcDbLine
 10
338.8018997861325
 20
12.0536415136005
 30
0.0
 11
340.3039251693323
 21
13.55566689680024
 31
0.0
  0
LINE
  5
10E
330
1F
100
AcDbEntity
  8
GR1_01
  6
Continuous
 62
     7
370
    25
100
AcDbLine
 10
341.1202713393322
 20
14.37201306680024
 30
0.0
 11
342.3433482393323
 21
15.59508996680025
 31
0.0
  0
LINE
  5
10F
330
1F
100
AcDbEntity
  8
GR1_01
  6
Continuous
 62
     7
370
    25
100
AcDbLine
 10
343.1596943925215
 20
16.41143611998945
 30
0.0
 11
344.661719792532
 21
17.91346152000002
 31
0.0
  0
LINE
  5
110
330
1F
100
AcDbEntity
  8
GR1_01
  6
Continuous
 62
     7
370
    25
100
AcDbLine
 10
338.8018997861325
 20
12.12435219171916
 30
0.0
 11
340.2685698302729
 21
13.59102223585956
 31
0.0
  0
LINE
  5
111
330
1F
100
AcDbEntity
  8
GR1_01
  6
Continuous
 62
     7
370
    25
100
AcDbLine
 10
341.0849160002729
 20
14.40736840585956
 30
0.0
 11
342.307992900273
 21
15.63044530585957
 31
0.0
  0
LINE
  5
112
330
1F
100
AcDbEntity
  8
GR1_01
  6
Continuous
 62
     7
370
    25
100
AcDbLine
 10
343.1243390538999
 20
16.44679145948651
 30
0.0
 11
344.5910091144134
 21
17.91346152
 31
0.0
  0
LINE
  5
113
330
1F
100
AcDbEntity
  8
GR1_01
  6
Continuous
 62
     7
370
    25
100
AcDbLine
 10
338.8018997861325
 20
12.19506286983779
 30
0.0
 11
340.2332144912136
 21
13.62637757491888
 31
0.0
  0
LINE
  5
114
330
1F
100
AcDbEntity
  8
GR1_01
  6
Continuous
 62
     7
370
    25
100
AcDbLine
 10
341.0495606612136
 20
14.44272374491888
 30
0.0
 11
342.2726375612136
 21
15.66580064491889
 31
0.0
  0
LINE
  5
115
330
1F
100
AcDbEntity
  8
GR1_01
  6
Continuous
 62
     7
370
    25
100
AcDbLine
 10
343.0889837152783
 20
16.48214679898357
 30
0.0
 11
344.5202984362948
 21
17.91346152000002
 31
0.0
  0
LINE
  5
116
330
1F
100
AcDbEntity
  8
GR1_01
  6
Continuous
 62
     7
370
    25
100
AcDbLine
 10
338.8018997861325
 20
12.26577354795643
 30
0.0
 11
340.1978591521543
 21
13.6617329139782
 31
0.0
  0
LINE
  5
117
330
1F
100
AcDbEntity
  8
GR1_01
  6
Continuous
 62
     7
370
    25
100
AcDbLine
 10
341.0142053221543
 20
14.4780790839782
 30
0.0
 11
342.2372822221543
 21
15.70115598397821
 31
0.0
  0
LINE
  5
118
330
1F
100
AcDbEntity
  8
GR1_01
  6
Continuous
 62
     7
370
    25
100
AcDbLine
 10
343.0536283766567
 20
16.51750213848063
 30
0.0
 11
344.4495877581761
 21
17.91346152
 31
0.0
  0
LINE
  5
119
330
1F
100
AcDbEntity
  8
GR1_01
  6
Continuous
 62
     7
370
    25
100
AcDbLine
 10
338.8018997861325
 20
12.3364842260751
 30
0.0
 11
340.1625038130949
 21
13.69708825303754
 31
0.0
  0
LINE
  5
11A
330
1F
100
AcDbEntity
  8
GR1_01
  6
Continuous
 62
     7
370
    25
100
AcDbLine
 10
340.978849983095
 20
14.51343442303754
 30
0.0
 11
342.201926883095
 21
15.73651132303755
 31
0.0
  0
LINE
  5
11B
330
1F
100
AcDbEntity
  8
GR1_01
  6
Continuous
 62
     7
370
    25
100
AcDbLine
 10
343.0182730380351
 20
16.55285747797767
 30
0.0
 11
344.3788770800574
 21
17.91346152000002
 31
0.0
  0
LINE
  5
11C
330
1F
100
AcDbEntity
  8
GR1_01
  6
Continuous
 62
     7
370
    25
100
AcDbLine
 10
338.8018997861325
 20
12.40719490419376
 30
0.0
 11
340.1271484740356
 21
13.73244359209686
 31
0.0
  0
LINE
  5
11D
330
1F
100
AcDbEntity
  8
GR1_01
  6
Continuous
 62
     7
370
    25
100
AcDbLine
 10
340.9434946440356
 20
14.54878976209686
 30
0.0
 11
342.1665715440357
 21
15.77186666209687
 31
0.0
  0
LINE
  5
11E
330
1F
100
AcDbEntity
  8
GR1_01
  6
Continuous
 62
     7
370
    25
100
AcDbLine
 10
342.9829176994135
 20
16.58821281747473
 30
0.0
 11
344.3081664019388
 21
17.91346152
 31
0.0
  0
LINE
  5
11F
330
1F
100
AcDbEntity
  8
GR1_01
  6
Continuous
 62
     7
370
    25
100
AcDbLine
 10
338.8018997861325
 20
12.47790558231239
 30
0.0
 11
340.0917931349763
 21
13.76779893115618
 31
0.0
  0
LINE
  5
120
330
1F
100
AcDbEntity
  8
GR1_01
  6
Continuous
 62
     7
370
    25
100
AcDbLine
 10
340.9081393049763
 20
14.58414510115619
 30
0.0
 11
342.1312162049763
 21
15.80722200115619
 31
0.0
  0
LINE
  5
121
330
1F
100
AcDbEntity
  8
GR1_01
  6
Continuous
 62
     7
370
    25
100
AcDbLine
 10
342.9475623607919
 20
16.62356815697179
 30
0.0
 11
344.2374557238201
 21
17.91346152000002
 31
0.0
  0
LINE
  5
122
330
1F
100
AcDbEntity
  8
GR1_01
  6
Continuous
 62
     7
370
    25
100
AcDbLine
 10
338.8018997861325
 20
12.54861626043104
 30
0.0
 11
340.056437795917
 21
13.8031542702155
 31
0.0
  0
LINE
  5
123
330
1F
100
AcDbEntity
  8
GR1_01
  6
Continuous
 62
     7
370
    25
100
AcDbLine
 10
340.872783965917
 20
14.61950044021551
 30
0.0
 11
342.095860865917
 21
15.84257734021552
 31
0.0
  0
LINE
  5
124
330
1F
100
AcDbEntity
  8
GR1_01
  6
Continuous
 62
     7
370
    25
100
AcDbLine
 10
342.9122070221703
 20
16.65892349646885
 30
0.0
 11
344.1667450457015
 21
17.91346152
 31
0.0
  0
LINE
  5
125
330
1F
100
AcDbEntity
  8
GR1_01
  6
Continuous
 62
     7
370
    25
100
AcDbLine
 10
338.8018997861325
 20
12.61932693854971
 30
0.0
 11
340.0210824568576
 21
13.83850960927484
 31
0.0
  0
LINE
  5
126
330
1F
100
AcDbEntity
  8
GR1_01
  6
Continuous
 62
     7
370
    25
100
AcDbLine
 10
340.8374286268577
 20
14.65485577927484
 30
0.0
 11
342.0605055268577
 21
15.87793267927485
 31
0.0
  0
LINE
  5
127
330
1F
100
AcDbEntity
  8
GR1_01
  6
Continuous
 62
     7
370
    25
100
AcDbLine
 10
342.8768516835487
 20
16.69427883596592
 30
0.0
 11
344.0960343675828
 21
17.91346152000002
 31
0.0
  0
LINE
  5
128
330
1F
100
AcDbEntity
  8
GR1_01
  6
Continuous
 62
     7
370
    25
100
AcDbLine
 10
338.8018997861325
 20
12.69003761666835
 30
0.0
 11
339.9857271177983
 21
13.87386494833416
 31
0.0
  0
LINE
  5
129
330
1F
100
AcDbEntity
  8
GR1_01
  6
Continuous
 62
     7
370
    25
100
AcDbLine
 10
340.8020732877983
 20
14.69021111833417
 30
0.0
 11
342.0251501877983
 21
15.91328801833417
 31
0.0
  0
LINE
  5
12A
330
1F
100
AcDbEntity
  8
GR1_01
  6
Continuous
 62
     7
370
    25
100
AcDbLine
 10
342.8414963449271
 20
16.72963417546298
 30
0.0
 11
344.0253236894642
 21
17.91346152
 31
0.0
  0
LINE
  5
12B
330
1F
100
AcDbEntity
  8
GR1_01
  6
Continuous
 62
     7
370
    25
100
AcDbLine
 10
338.8018997861325
 20
12.760748294787
 30
0.0
 11
339.950371778739
 21
13.90922028739348
 31
0.0
  0
LINE
  5
12C
330
1F
100
AcDbEntity
  8
GR1_01
  6
Continuous
 62
     7
370
    25
100
AcDbLine
 10
340.766717948739
 20
14.72556645739349
 30
0.0
 11
341.9897948487391
 21
15.94864335739353
 31
0.0
  0
LINE
  5
12D
330
1F
100
AcDbEntity
  8
GR1_01
  6
Continuous
 62
     7
370
    25
100
AcDbLine
 10
342.8061410063056
 20
16.76498951496002
 30
0.0
 11
343.9546130113455
 21
17.91346152000002
 31
0.0
  0
LINE
  5
12E
330
1F
100
AcDbEntity
  8
GR1_01
  6
Continuous
 62
     7
370
    25
100
AcDbLine
 10
338.8018997861325
 20
12.83145897290564
 30
0.0
 11
339.9150164396797
 21
13.94457562645281
 31
0.0
  0
LINE
  5
12F
330
1F
100
AcDbEntity
  8
GR1_01
  6
Continuous
 62
     7
370
    25
100
AcDbLine
 10
340.7313626096796
 20
14.76092179645281
 30
0.0
 11
341.9544395096797
 21
15.98399869645285
 31
0.0
  0
LINE
  5
130
330
1F
100
AcDbEntity
  8
GR1_01
  6
Continuous
 62
     7
370
    25
100
AcDbLine
 10
342.770785667684
 20
16.80034485445708
 30
0.0
 11
343.8839023332268
 21
17.91346152
 31
0.0
  0
LINE
  5
131
330
1F
100
AcDbEntity
  8
GR1_01
  6
Continuous
 62
     7
370
    25
100
AcDbLine
 10
338.8018997861325
 20
12.9021696510243
 30
0.0
 11
339.8796611006204
 21
13.97993096551214
 31
0.0
  0
LINE
  5
132
330
1F
100
AcDbEntity
  8
GR1_01
  6
Continuous
 62
     7
370
    25
100
AcDbLine
 10
340.6960072706203
 20
14.79627713551215
 30
0.0
 11
341.9190841706204
 21
16.01935403551218
 31
0.0
  0
LINE
  5
133
330
1F
100
AcDbEntity
  8
GR1_01
  6
Continuous
 62
     7
370
    25
100
AcDbLine
 10
342.7354303290624
 20
16.83570019395416
 30
0.0
 11
343.8131916551082
 21
17.91346152000002
 31
0.0
  0
LINE
  5
134
330
1F
100
AcDbEntity
  8
GR1_01
  6
Continuous
 62
     7
370
    25
100
AcDbLine
 10
338.8018997861325
 20
12.97288032914296
 30
0.0
 11
339.844305761561
 21
14.01528630457146
 31
0.0
  0
LINE
  5
135
330
1F
100
AcDbEntity
  8
GR1_01
  6
Continuous
 62
     7
370
    25
100
AcDbLine
 10
340.660651931561
 20
14.83163247457147
 30
0.0
 11
341.883728831561
 21
16.05470937457151
 31
0.0
  0
LINE
  5
136
330
1F
100
AcDbEntity
  8
GR1_01
  6
Continuous
 62
     7
370
    25
100
AcDbLine
 10
342.7000749904408
 20
16.87105553345122
 30
0.0
 11
343.7424809769896
 21
17.91346152
 31
0.0
  0
LINE
  5
137
330
1F
100
AcDbEntity
  8
GR1_01
  6
Continuous
 62
     7
370
    25
100
AcDbLine
 10
338.8018997861325
 20
13.0435910072616
 30
0.0
 11
339.8089504225017
 21
14.05064164363079
 31
0.0
  0
LINE
  5
138
330
1F
100
AcDbEntity
  8
GR1_01
  6
Continuous
 62
     7
370
    25
100
AcDbLine
 10
340.6252965925017
 20
14.86698781363079
 30
0.0
 11
341.8483734925018
 21
16.09006471363083
 31
0.0
  0
LINE
  5
139
330
1F
100
AcDbEntity
  8
GR1_01
  6
Continuous
 62
     7
370
    25
100
AcDbLine
 10
342.6647196518192
 20
16.90641087294827
 30
0.0
 11
343.6717702988709
 21
17.91346152000002
 31
0.0
  0
LINE
  5
13A
330
1F
100
AcDbEntity
  8
GR1_01
  6
Continuous
 62
     7
370
    25
100
AcDbLine
 10
338.8018997861325
 20
13.11430168538024
 30
0.0
 11
339.7735950834424
 21
14.08599698269011
 31
0.0
  0
LINE
  5
13B
330
1F
100
AcDbEntity
  8
GR1_01
  6
Continuous
 62
     7
370
    25
100
AcDbLine
 10
340.5899412534424
 20
14.90234315269011
 30
0.0
 11
341.8130181534424
 21
16.12542005269015
 31
0.0
  0
LINE
  5
13C
330
1F
100
AcDbEntity
  8
GR1_01
  6
Continuous
 62
     7
370
    25
100
AcDbLine
 10
342.6293643131976
 20
16.94176621244533
 30
0.0
 11
343.6010596207523
 21
17.91346152
 31
0.0
  0
LINE
  5
13D
330
1F
100
AcDbEntity
  8
GR1_01
  6
Continuous
 62
     7
370
    25
100
AcDbLine
 10
338.8018997861325
 20
13.1850123634989
 30
0.0
 11
339.7382397443831
 21
14.12135232174944
 31
0.0
  0
LINE
  5
13E
330
1F
100
AcDbEntity
  8
GR1_01
  6
Continuous
 62
     7
370
    25
100
AcDbLine
 10
342.594008974576
 20
16.97712155194238
 30
0.0
 11
343.5303489426336
 21
17.91346152000002
 31
0.0
  0
LINE
  5
13F
330
1F
100
AcDbEntity
  8
GR1_01
  6
Continuous
 62
     7
370
    25
100
AcDbLine
 10
338.8018997861325
 20
13.25572304161756
 30
0.0
 11
339.7028844053237
 21
14.15670766080877
 31
0.0
  0
LINE
  5
140
330
1F
100
AcDbEntity
  8
GR1_01
  6
Continuous
 62
     7
370
    25
100
AcDbLine
 10
342.5586536359544
 20
17.01247689143944
 30
0.0
 11
343.459638264515
 21
17.91346152
 31
0.0
  0
LINE
  5
141
330
1F
100
AcDbEntity
  8
GR1_01
  6
Continuous
 62
     7
370
    25
100
AcDbLine
 10
338.8018997861325
 20
13.3264337197362
 30
0.0
 11
339.6675290662644
 21
14.19206299986809
 31
0.0
  0
LINE
  5
142
330
1F
100
AcDbEntity
  8
GR1_01
  6
Continuous
 62
     7
370
    25
100
AcDbLine
 10
342.5232982973328
 20
17.0478322309365
 30
0.0
 11
343.3889275863963
 21
17.91346152000002
 31
0.0
  0
LINE
  5
143
330
1F
100
AcDbEntity
  8
GR1_01
  6
Continuous
 62
     7
370
    25
100
AcDbLine
 10
338.8018997861325
 20
13.39714439785483
 30
0.0
 11
339.632173727205
 21
14.2274183389274
 31
0.0
  0
LINE
  5
144
330
1F
100
AcDbEntity
  8
GR1_01
  6
Continuous
 62
     7
370
    25
100
AcDbLine
 10
342.4879429587112
 20
17.08318757043356
 30
0.0
 11
343.3182169082777
 21
17.91346152
 31
0.0
  0
LINE
  5
145
330
1F
100
AcDbEntity
  8
GR1_01
  6
Continuous
 62
     7
370
    25
100
AcDbLine
 10
338.8018997861325
 20
13.46785507597349
 30
0.0
 11
339.5968183881457
 21
14.26277367798672
 31
0.0
  0
LINE
  5
146
330
1F
100
AcDbEntity
  8
GR1_01
  6
Continuous
 62
     7
370
    25
100
AcDbLine
 10
342.4525876200896
 20
17.11854290993061
 30
0.0
 11
343.247506230159
 21
17.91346152
 31
0.0
  0
LINE
  5
147
330
1F
100
AcDbEntity
  8
GR1_01
  6
Continuous
 62
     7
370
    25
100
AcDbLine
 10
338.8018997861325
 20
13.53856575409216
 30
0.0
 11
339.5614630490864
 21
14.29812901704605
 31
0.0
  0
LINE
  5
148
330
1F
100
AcDbEntity
  8
GR1_01
  6
Continuous
 62
     7
370
    25
100
AcDbLine
 10
342.417232281468
 20
17.15389824942769
 30
0.0
 11
343.1767955520403
 21
17.91346152000002
 31
0.0
  0
LINE
  5
149
330
1F
100
AcDbEntity
  8
GR1_01
  6
Continuous
 62
     7
370
    25
100
AcDbLine
 10
338.8018997861325
 20
13.60927643221081
 30
0.0
 11
339.5261077100271
 21
14.33348435610538
 31
0.0
  0
LINE
  5
14A
330
1F
100
AcDbEntity
  8
GR1_01
  6
Continuous
 62
     7
370
    25
100
AcDbLine
 10
342.3818769428464
 20
17.18925358892473
 30
0.0
 11
343.1060848739217
 21
17.91346152000002
 31
0.0
  0
LINE
  5
14B
330
1F
100
AcDbEntity
  8
GR1_01
  6
Continuous
 62
     7
370
    25
100
AcDbLine
 10
338.8018997861325
 20
13.67998711032944
 30
0.0
 11
339.4907523709678
 21
14.3688396951647
 31
0.0
  0
LINE
  5
14C
330
1F
100
AcDbEntity
  8
GR1_01
  6
Continuous
 62
     7
370
    25
100
AcDbLine
 10
342.3465216042248
 20
17.22460892842179
 30
0.0
 11
343.0353741958031
 21
17.91346152
 31
0.0
  0
LINE
  5
14D
330
1F
100
AcDbEntity
  8
GR1_01
  6
Continuous
 62
     7
370
    25
100
AcDbLine
 10
338.8018997861325
 20
13.7506977884481
 30
0.0
 11
339.4553970319084
 21
14.40419503422402
 31
0.0
  0
LINE
  5
14E
330
1F
100
AcDbEntity
  8
GR1_01
  6
Continuous
 62
     7
370
    25
100
AcDbLine
 10
342.3111662656033
 20
17.25996426791885
 30
0.0
 11
342.9646635176844
 21
17.91346152000002
 31
0.0
  0
LINE
  5
14F
330
1F
100
AcDbEntity
  8
GR1_01
  6
Continuous
 62
     7
370
    25
100
AcDbLine
 10
338.8018997861325
 20
13.82140846656677
 30
0.0
 11
339.4200416928491
 21
14.43955037328336
 31
0.0
  0
LINE
  5
150
330
1F
100
AcDbEntity
  8
GR1_01
  6
Continuous
 62
     7
370
    25
100
AcDbLine
 10
342.2758109269816
 20
17.29531960741592
 30
0.0
 11
342.8939528395658
 21
17.91346152000002
 31
0.0
  0
LINE
  5
151
330
1F
100
AcDbEntity
  8
GR1_01
  6
Continuous
 62
     7
370
    25
100
AcDbLine
 10
338.8018997861325
 20
13.89211914468541
 30
0.0
 11
339.3846863537898
 21
14.47490571234268
 31
0.0
  0
LINE
  5
152
330
1F
100
AcDbEntity
  8
GR1_01
  6
Continuous
 62
     7
370
    25
100
AcDbLine
 10
342.2404555883601
 20
17.33067494691298
 30
0.0
 11
342.8232421614471
 21
17.91346152000002
 31
0.0
  0
LINE
  5
153
330
1F
100
AcDbEntity
  8
GR1_01
  6
Continuous
 62
     7
370
    25
100
AcDbLine
 10
338.8018997861325
 20
13.96282982280404
 30
0.0
 11
339.3493310147305
 21
14.510261051402
 31
0.0
  0
LINE
  5
154
330
1F
100
AcDbEntity
  8
GR1_01
  6
Continuous
 62
     7
370
    25
100
AcDbLine
 10
342.2051002497385
 20
17.36603028641001
 30
0.0
 11
342.7525314833284
 21
17.91346152
 31
0.0
  0
LINE
  5
155
330
1F
100
AcDbEntity
  8
GR1_01
  6
Continuous
 62
     7
370
    25
100
AcDbLine
 10
338.8018997861325
 20
14.0335405009227
 30
0.0
 11
339.3139756756711
 21
14.54561639046132
 31
0.0
  0
LINE
  5
156
330
1F
100
AcDbEntity
  8
GR1_01
  6
Continuous
 62
     7
370
    25
100
AcDbLine
 10
342.1697449111169
 20
17.40138562590707
 30
0.0
 11
342.6818208052098
 21
17.91346152000002
 31
0.0
  0
LINE
  5
157
330
1F
100
AcDbEntity
  8
GR1_01
  6
Continuous
 62
     7
370
    25
100
AcDbLine
 10
338.8018997861325
 20
14.10425117904137
 30
0.0
 11
339.2786203366118
 21
14.58097172952066
 31
0.0
  0
LINE
  5
158
330
1F
100
AcDbEntity
  8
GR1_01
  6
Continuous
 62
     7
370
    25
100
AcDbLine
 10
342.1343895724953
 20
17.43674096540414
 30
0.0
 11
342.6111101270911
 21
17.91346152000002
 31
0.0
  0
LINE
  5
159
330
1F
100
AcDbEntity
  8
GR1_01
  6
Continuous
 62
     7
370
    25
100
AcDbLine
 10
338.8018997861325
 20
14.17496185716002
 30
0.0
 11
339.2432649975525
 21
14.61632706857998
 31
0.0
  0
LINE
  5
15A
330
1F
100
AcDbEntity
  8
GR1_01
  6
Continuous
 62
     7
370
    25
100
AcDbLine
 10
342.0990342338737
 20
17.4720963049012
 30
0.0
 11
342.5403994489725
 21
17.91346152000002
 31
0.0
  0
LINE
  5
15B
330
1F
100
AcDbEntity
  8
GR1_01
  6
Continuous
 62
     7
370
    25
100
AcDbLine
 10
338.8018997861325
 20
14.24567253527865
 30
0.0
 11
339.2079096584931
 21
14.6516824076393
 31
0.0
  0
LINE
  5
15C
330
1F
100
AcDbEntity
  8
GR1_01
  6
Continuous
 62
     7
370
    25
100
AcDbLine
 10
342.0636788952521
 20
17.50745164439826
 30
0.0
 11
342.4696887708538
 21
17.91346152
 31
0.0
  0
LINE
  5
15D
330
1F
100
AcDbEntity
  8
GR1_01
  6
Continuous
 62
     7
370
    25
100
AcDbLine
 10
338.8018997861325
 20
14.31638321339731
 30
0.0
 11
339.1725543194339
 21
14.68703774669862
 31
0.0
  0
LINE
  5
15E
330
1F
100
AcDbEntity
  8
GR1_01
  6
Continuous
 62
     7
370
    25
100
AcDbLine
 10
342.0283235566305
 20
17.54280698389532
 30
0.0
 11
342.3989780927352
 21
17.91346152000002
 31
0.0
  0
LINE
  5
15F
330
1F
100
AcDbEntity
  8
GR1_01
  6
Continuous
 62
     7
370
    25
100
AcDbLine
 10
338.8018997861325
 20
14.38709389151598
 30
0.0
 11
339.1371989803745
 21
14.72239308575796
 31
0.0
  0
LINE
  5
160
330
1F
100
AcDbEntity
  8
GR1_01
  6
Continuous
 62
     7
370
    25
100
AcDbLine
 10
341.9929682180089
 20
17.57816232339238
 30
0.0
 11
342.3282674146166
 21
17.91346152000002
 31
0.0
  0
LINE
  5
161
330
1F
100
AcDbEntity
  8
GR1_01
  6
Continuous
 62
     7
370
    25
100
AcDbLine
 10
338.8018997861325
 20
14.45780456963462
 30
0.0
 11
339.1018436413152
 21
14.75774842481728
 31
0.0
  0
LINE
  5
162
330
1F
100
AcDbEntity
  8
GR1_01
  6
Continuous
 62
     7
370
    25
100
AcDbLine
 10
341.9576128793873
 20
17.61351766288944
 30
0.0
 11
342.2575567364979
 21
17.91346152000002
 31
0.0
  0
LINE
  5
163
330
1F
100
AcDbEntity
  8
GR1_01
  6
Continuous
 62
     7
370
    25
100
AcDbLine
 10
338.8018997861325
 20
14.52851524775325
 30
0.0
 11
339.0664883022558
 21
14.7931037638766
 31
0.0
  0
LINE
  5
164
330
1F
100
AcDbEntity
  8
GR1_01
  6
Continuous
 62
     7
370
    25
100
AcDbLine
 10
341.9222575407657
 20
17.6488730023865
 30
0.0
 11
342.1868460583793
 21
17.91346152
 31
0.0
  0
LINE
  5
165
330
1F
100
AcDbEntity
  8
GR1_01
  6
Continuous
 62
     7
370
    25
100
AcDbLine
 10
338.8018997861325
 20
14.59922592587191
 30
0.0
 11
339.0311329631965
 21
14.82845910293593
 31
0.0
  0
LINE
  5
166
330
1F
100
AcDbEntity
  8
GR1_01
  6
Continuous
 62
     7
370
    25
100
AcDbLine
 10
341.8869022021441
 20
17.68422834188356
 30
0.0
 11
342.1161353802606
 21
17.91346152000002
 31
0.0
  0
LINE
  5
167
330
1F
100
AcDbEntity
  8
GR1_01
  6
Continuous
 62
     7
370
    25
100
AcDbLine
 10
338.8018997861325
 20
14.66993660399058
 30
0.0
 11
338.9957776241372
 21
14.86381444199526
 31
0.0
  0
LINE
  5
168
330
1F
100
AcDbEntity
  8
GR1_01
  6
Continuous
 62
     7
370
    25
100
AcDbLine
 10
341.8515468635226
 20
17.71958368138063
 30
0.0
 11
342.045424702142
 21
17.91346152000002
 31
0.0
  0
LINE
  5
169
330
1F
100
AcDbEntity
  8
GR1_01
  6
Continuous
 62
     7
370
    25
100
AcDbLine
 10
338.8018997861325
 20
14.74064728210923
 30
0.0
 11
338.9604222850779
 21
14.89916978105459
 31
0.0
  0
LINE
  5
16A
330
1F
100
AcDbEntity
  8
GR1_01
  6
Continuous
 62
     7
370
    25
100
AcDbLine
 10
341.816191524901
 20
17.75493902087769
 30
0.0
 11
341.9747140240233
 21
17.91346152000002
 31
0.0
  0
LINE
  5
16B
330
1F
100
AcDbEntity
  8
GR1_01
  6
Continuous
 62
     7
370
    25
100
AcDbLine
 10
338.8018997861325
 20
14.81135796022786
 30
0.0
 11
341.9040033459046
 21
17.91346152
 31
0.0
  0
LINE
  5
16C
330
1F
100
AcDbEntity
  8
GR1_01
  6
Continuous
 62
     7
370
    25
100
AcDbLine
 10
338.8018997861325
 20
14.88206863834651
 30
0.0
 11
341.833292667786
 21
17.91346151999999
 31
0.0
  0
LINE
  5
16D
330
1F
100
AcDbEntity
  8
GR1_01
  6
Continuous
 62
     7
370
    25
100
AcDbLine
 10
338.8018997861325
 20
14.95277931646517
 30
0.0
 11
341.7625819896674
 21
17.91346152
 31
0.0
  0
LINE
  5
16E
330
1F
100
AcDbEntity
  8
GR1_01
  6
Continuous
 62
     7
370
    25
100
AcDbLine
 10
338.8018997861325
 20
15.02348999458383
 30
0.0
 11
341.6918713115487
 21
17.91346152
 31
0.0
  0
LINE
  5
16F
330
1F
100
AcDbEntity
  8
GR1_01
  6
Continuous
 62
     7
370
    25
100
AcDbLine
 10
338.8018997861325
 20
15.09420067270246
 30
0.0
 11
341.62116063343
 21
17.91346152
 31
0.0
  0
LINE
  5
170
330
1F
100
AcDbEntity
  8
GR1_01
  6
Continuous
 62
     7
370
    25
100
AcDbLine
 10
338.8018997861325
 20
15.16491135082112
 30
0.0
 11
341.5504499553114
 21
17.91346151999999
 31
0.0
  0
LINE
  5
171
330
1F
100
AcDbEntity
  8
GR1_01
  6
Continuous
 62
     7
370
    25
100
AcDbLine
 10
338.8018997861325
 20
15.23562202893978
 30
0.0
 11
341.4797392771927
 21
17.91346152
 31
0.0
  0
LINE
  5
172
330
1F
100
AcDbEntity
  8
GR1_01
  6
Continuous
 62
     7
370
    25
100
AcDbLine
 10
338.8018997861325
 20
15.30633270705843
 30
0.0
 11
341.4090285990741
 21
17.91346152
 31
0.0
  0
LINE
  5
173
330
1F
100
AcDbEntity
  8
GR1_01
  6
Continuous
 62
     7
370
    25
100
AcDbLine
 10
338.8018997861325
 20
15.37704338517706
 30
0.0
 11
341.3383179209554
 21
17.91346152
 31
0.0
  0
LINE
  5
174
330
1F
100
AcDbEntity
  8
GR1_01
  6
Continuous
 62
     7
370
    25
100
AcDbLine
 10
338.8018997861325
 20
15.44775406329572
 30
0.0
 11
341.2676072428368
 21
17.91346151999999
 31
0.0
  0
LINE
  5
175
330
1F
100
AcDbEntity
  8
GR1_01
  6
Continuous
 62
     7
370
    25
100
AcDbLine
 10
338.8018997861325
 20
15.51846474141438
 30
0.0
 11
341.1968965647181
 21
17.91346152
 31
0.0
  0
LINE
  5
176
330
1F
100
AcDbEntity
  8
GR1_01
  6
Continuous
 62
     7
370
    25
100
AcDbLine
 10
338.8018997861325
 20
15.58917541953304
 30
0.0
 11
341.1261858865995
 21
17.91346152
 31
0.0
  0
LINE
  5
177
330
1F
100
AcDbEntity
  8
GR1_01
  6
Continuous
 62
     7
370
    25
100
AcDbLine
 10
338.8018997861325
 20
15.65988609765167
 30
0.0
 11
341.0554752084809
 21
17.91346152
 31
0.0
  0
LINE
  5
178
330
1F
100
AcDbEntity
  8
GR1_01
  6
Continuous
 62
     7
370
    25
100
AcDbLine
 10
338.8018997861325
 20
15.73059677577033
 30
0.0
 11
340.9847645303622
 21
17.91346151999999
 31
0.0
  0
LINE
  5
179
330
1F
100
AcDbEntity
  8
GR1_01
  6
Continuous
 62
     7
370
    25
100
AcDbLine
 10
338.8018997861325
 20
15.80130745388898
 30
0.0
 11
340.9140538522436
 21
17.91346152
 31
0.0
  0
LINE
  5
17A
330
1F
100
AcDbEntity
  8
GR1_01
  6
Continuous
 62
     7
370
    25
100
AcDbLine
 10
338.8018997861325
 20
15.87201813200764
 30
0.0
 11
340.8433431741249
 21
17.91346152
 31
0.0
  0
LINE
  5
17B
330
1F
100
AcDbEntity
  8
GR1_01
  6
Continuous
 62
     7
370
    25
100
AcDbLine
 10
338.8018997861325
 20
15.94272881012627
 30
0.0
 11
340.7726324960062
 21
17.91346152
 31
0.0
  0
LINE
  5
17C
330
1F
100
AcDbEntity
  8
GR1_01
  6
Continuous
 62
     7
370
    25
100
AcDbLine
 10
338.8018997861325
 20
16.01343948824493
 30
0.0
 11
340.7019218178876
 21
17.91346151999999
 31
0.0
  0
LINE
  5
17D
330
1F
100
AcDbEntity
  8
GR1_01
  6
Continuous
 62
     7
370
    25
100
AcDbLine
 10
338.8018997861325
 20
16.08415016636359
 30
0.0
 11
340.6312111397689
 21
17.91346152
 31
0.0
  0
LINE
  5
17E
330
1F
100
AcDbEntity
  8
GR1_01
  6
Continuous
 62
     7
370
    25
100
AcDbLine
 10
338.8018997861325
 20
16.15486084448223
 30
0.0
 11
340.5605004616503
 21
17.91346152
 31
0.0
  0
LINE
  5
17F
330
1F
100
AcDbEntity
  8
GR1_01
  6
Continuous
 62
     7
370
    25
100
AcDbLine
 10
338.8018997861325
 20
16.22557152260088
 30
0.0
 11
340.4897897835316
 21
17.91346152
 31
0.0
  0
LINE
  5
180
330
1F
100
AcDbEntity
  8
GR1_01
  6
Continuous
 62
     7
370
    25
100
AcDbLine
 10
338.8018997861325
 20
16.29628220071953
 30
0.0
 11
340.4190791054129
 21
17.91346152
 31
0.0
  0
LINE
  5
181
330
1F
100
AcDbEntity
  8
GR1_01
  6
Continuous
 62
     7
370
    25
100
AcDbLine
 10
338.8018997861325
 20
16.36699287883819
 30
0.0
 11
340.3483684272943
 21
17.91346152
 31
0.0
  0
LINE
  5
182
330
1F
100
AcDbEntity
  8
GR1_01
  6
Continuous
 62
     7
370
    25
100
AcDbLine
 10
338.8018997861325
 20
16.43770355695684
 30
0.0
 11
340.2776577491757
 21
17.91346152
 31
0.0
  0
LINE
  5
183
330
1F
100
AcDbEntity
  8
GR1_01
  6
Continuous
 62
     7
370
    25
100
AcDbLine
 10
338.8018997861325
 20
16.50841423507548
 30
0.0
 11
340.206947071057
 21
17.91346152000002
 31
0.0
  0
LINE
  5
184
330
1F
100
AcDbEntity
  8
GR1_01
  6
Continuous
 62
     7
370
    25
100
AcDbLine
 10
338.8018997861325
 20
16.57912491319414
 30
0.0
 11
340.1362363929384
 21
17.91346152
 31
0.0
  0
LINE
  5
185
330
1F
100
AcDbEntity
  8
GR1_01
  6
Continuous
 62
     7
370
    25
100
AcDbLine
 10
338.8018997861325
 20
16.6498355913128
 30
0.0
 11
340.0655257148197
 21
17.91346152
 31
0.0
  0
LINE
  5
186
330
1F
100
AcDbEntity
  8
GR1_01
  6
Continuous
 62
     7
370
    25
100
AcDbLine
 10
338.8018997861325
 20
16.72054626943143
 30
0.0
 11
339.9948150367011
 21
17.91346151999999
 31
0.0
  0
LINE
  5
187
330
1F
100
AcDbEntity
  8
GR1_01
  6
Continuous
 62
     7
370
    25
100
AcDbLine
 10
338.8018997861325
 20
16.79125694755009
 30
0.0
 11
339.9241043585824
 21
17.91346152000002
 31
0.0
  0
LINE
  5
188
330
1F
100
AcDbEntity
  8
GR1_01
  6
Continuous
 62
     7
370
    25
100
AcDbLine
 10
338.8018997861325
 20
16.86196762566874
 30
0.0
 11
339.8533936804638
 21
17.91346152
 31
0.0
  0
LINE
  5
189
330
1F
100
AcDbEntity
  8
GR1_01
  6
Continuous
 62
     7
370
    25
100
AcDbLine
 10
338.8018997861325
 20
16.9326783037874
 30
0.0
 11
339.7826830023452
 21
17.91346152
 31
0.0
  0
LINE
  5
18A
330
1F
100
AcDbEntity
  8
GR1_01
  6
Continuous
 62
     7
370
    25
100
AcDbLine
 10
338.8018997861325
 20
17.00338898190603
 30
0.0
 11
339.7119723242265
 21
17.91346151999999
 31
0.0
  0
LINE
  5
18B
330
1F
100
AcDbEntity
  8
GR1_01
  6
Continuous
 62
     7
370
    25
100
AcDbLine
 10
338.8018997861325
 20
17.07409966002469
 30
0.0
 11
339.6412616461078
 21
17.91346152000002
 31
0.0
  0
LINE
  5
18C
330
1F
100
AcDbEntity
  8
GR1_01
  6
Continuous
 62
     7
370
    25
100
AcDbLine
 10
338.8018997861325
 20
17.14481033814335
 30
0.0
 11
339.5705509679892
 21
17.91346152
 31
0.0
  0
LINE
  5
18D
330
1F
100
AcDbEntity
  8
GR1_01
  6
Continuous
 62
     7
370
    25
100
AcDbLine
 10
338.8018997861325
 20
17.21552101626201
 30
0.0
 11
339.4998402898705
 21
17.91346152
 31
0.0
  0
LINE
  5
18E
330
1F
100
AcDbEntity
  8
GR1_01
  6
Continuous
 62
     7
370
    25
100
AcDbLine
 10
338.8018997861325
 20
17.28623169438064
 30
0.0
 11
339.4291296117519
 21
17.91346151999999
 31
0.0
  0
LINE
  5
18F
330
1F
100
AcDbEntity
  8
GR1_01
  6
Continuous
 62
     7
370
    25
100
AcDbLine
 10
338.8018997861325
 20
17.35694237249929
 30
0.0
 11
339.3584189336332
 21
17.91346152000002
 31
0.0
  0
LINE
  5
190
330
1F
100
AcDbEntity
  8
GR1_01
  6
Continuous
 62
     7
370
    25
100
AcDbLine
 10
338.8018997861325
 20
17.42765305061795
 30
0.0
 11
339.2877082555145
 21
17.91346152
 31
0.0
  0
LINE
  5
191
330
1F
100
AcDbEntity
  8
GR1_01
  6
Continuous
 62
     7
370
    25
100
AcDbLine
 10
338.8018997861325
 20
17.49836372873661
 30
0.0
 11
339.2169975773959
 21
17.91346152
 31
0.0
  0
LINE
  5
192
330
1F
100
AcDbEntity
  8
GR1_01
  6
Continuous
 62
     7
370
    25
100
AcDbLine
 10
338.8018997861325
 20
17.56907440685524
 30
0.0
 11
339.1462868992772
 21
17.91346151999999
 31
0.0
  0
LINE
  5
193
330
1F
100
AcDbEntity
  8
GR1_01
  6
Continuous
 62
     7
370
    25
100
AcDbLine
 10
338.8018997861325
 20
17.6397850849739
 30
0.0
 11
339.0755762211586
 21
17.91346152000002
 31
0.0
  0
LINE
  5
194
330
1F
100
AcDbEntity
  8
GR1_01
  6
Continuous
 62
     7
370
    25
100
AcDbLine
 10
338.8018997861325
 20
17.71049576309256
 30
0.0
 11
339.00486554304
 21
17.91346152
 31
0.0
  0
LINE
  5
195
330
1F
100
AcDbEntity
  8
GR1_01
  6
Continuous
 62
     7
370
    25
100
AcDbLine
 10
338.8018997861325
 20
17.78120644121121
 30
0.0
 11
338.9341548649213
 21
17.91346152
 31
0.0
  0
LINE
  5
196
330
1F
100
AcDbEntity
  8
GR1_01
  6
Continuous
 62
     7
370
    25
100
AcDbLine
 10
338.8018997861325
 20
17.85191711932984
 30
0.0
 11
338.8634441868027
 21
17.91346151999999
 31
0.0
  0
LINE
  5
197
330
1F
100
AcDbEntity
  8
GR1_01
  6
Continuous
 62
     7
370
    25
100
AcDbLine
 10
339.7930906424304
 20
11.91346151999999
 30
0.0
 11
340.8696105942814
 21
12.98998147185103
 31
0.0
  0
LINE
  5
198
330
1F
100
AcDbEntity
  8
GR1_01
  6
Continuous
 62
     7
370
    25
100
AcDbLine
 10
341.6859567642815
 20
13.80632764185104
 30
0.0
 11
342.0142445024304
 21
14.13461538000002
 31
0.0
  0
LINE
  5
199
330
1F
100
AcDbEntity
  8
GR1_01
  6
Continuous
 62
     7
370
    25
100
AcDbLine
 10
342.8796291224305
 20
15.00000000000002
 30
0.0
 11
343.2257829224304
 21
15.34615379999999
 31
0.0
  0
LINE
  5
19A
330
1F
100
AcDbEntity
  8
GR1_01
  6
Continuous
 62
     7
370
    25
100
AcDbLine
 10
343.725379810467
 20
15.84575068803651
 30
0.0
 11
344.8018997861325
 21
16.92227066370207
 31
0.0
  0
LINE
  5
19B
330
1F
100
AcDbEntity
  8
GR1_01
  6
Continuous
 62
     7
370
    25
100
AcDbLine
 10
339.8638013205491
 20
11.91346152
 30
0.0
 11
340.9049659333408
 21
12.95462613279171
 31
0.0
  0
LINE
  5
19C
330
1F
100
AcDbEntity
  8
GR1_01
  6
Continuous
 62
     7
370
    25
100
AcDbLine
 10
341.7213121033408
 20
13.77097230279172
 30
0.0
 11
342.0849551805491
 21
14.13461538
 31
0.0
  0
LINE
  5
19D
330
1F
100
AcDbEntity
  8
GR1_01
  6
Continuous
 62
     7
370
    25
100
AcDbLine
 10
342.950339800549
 20
15.0
 30
0.0
 11
343.2964936005491
 21
15.3461538
 31
0.0
  0
LINE
  5
19E
330
1F
100
AcDbEntity
  8
GR1_01
  6
Continuous
 62
     7
370
    25
100
AcDbLine
 10
343.7607351490885
 20
15.81039534853945
 30
0.0
 11
344.8018997861325
 21
16.85155998558342
 31
0.0
  0
LINE
  5
19F
330
1F
100
AcDbEntity
  8
GR1_01
  6
Continuous
 62
     7
370
    25
100
AcDbLine
 10
339.9345119986677
 20
11.91346151999999
 30
0.0
 11
340.9403212724001
 21
12.91927079373237
 31
0.0
  0
LINE
  5
1A0
330
1F
100
AcDbEntity
  8
GR1_01
  6
Continuous
 62
     7
370
    25
100
AcDbLine
 10
341.7566674424002
 20
13.73561696373239
 30
0.0
 11
342.1556658586677
 21
14.13461537999999
 31
0.0
  0
LINE
  5
1A1
330
1F
100
AcDbEntity
  8
GR1_01
  6
Continuous
 62
     7
370
    25
100
AcDbLine
 10
343.0210504786677
 20
14.99999999999999
 30
0.0
 11
343.3672042786677
 21
15.34615379999997
 31
0.0
  0
LINE
  5
1A2
330
1F
100
AcDbEntity
  8
GR1_01
  6
Continuous
 62
     7
370
    25
100
AcDbLine
 10
343.7960904877101
 20
15.77504000904237
 30
0.0
 11
344.8018997861325
 21
16.78084930746475
 31
0.0
  0
LINE
  5
1A3
330
1F
100
AcDbEntity
  8
GR1_01
  6
Continuous
 62
     7
370
    25
100
AcDbLine
 10
340.0052226767864
 20
11.91346152
 30
0.0
 11
340.9756766114594
 21
12.88391545467305
 31
0.0
  0
LINE
  5
1A4
330
1F
100
AcDbEntity
  8
GR1_01
  6
Continuous
 62
     7
370
    25
100
AcDbLine
 10
341.7920227814595
 20
13.70026162467306
 30
0.0
 11
342.2263765367864
 21
14.13461538
 31
0.0
  0
LINE
  5
1A5
330
1F
100
AcDbEntity
  8
GR1_01
  6
Continuous
 62
     7
370
    25
100
AcDbLine
 10
343.0917611567864
 20
15.0
 30
0.0
 11
343.4379149567864
 21
15.34615379999997
 31
0.0
  0
LINE
  5
1A6
330
1F
100
AcDbEntity
  8
GR1_01
  6
Continuous
 62
     7
370
    25
100
AcDbLine
 10
343.8314458263317
 20
15.73968466954534
 30
0.0
 11
344.8018997861325
 21
16.71013862934611
 31
0.0
  0
LINE
  5
1A7
330
1F
100
AcDbEntity
  8
GR1_01
  6
Continuous
 62
     7
370
    25
100
AcDbLine
 10
340.075933354905
 20
11.91346151999999
 30
0.0
 11
341.0110319505188
 21
12.84856011561373
 31
0.0
  0
LINE
  5
1A8
330
1F
100
AcDbEntity
  8
GR1_01
  6
Continuous
 62
     7
370
    25
100
AcDbLine
 10
343.162471834905
 20
14.99999999999999
 30
0.0
 11
343.508625634905
 21
15.34615379999999
 31
0.0
  0
LINE
  5
1A9
330
1F
100
AcDbEntity
  8
GR1_01
  6
Continuous
 62
     7
370
    25
100
AcDbLine
 10
343.8668011649533
 20
15.70432933004829
 30
0.0
 11
344.8018997861325
 21
16.63942795122746
 31
0.0
  0
LINE
  5
1AA
330
1F
100
AcDbEntity
  8
GR1_01
  6
Continuous
 62
     7
370
    25
100
AcDbLine
 10
340.1466440330237
 20
11.91346152
 30
0.0
 11
341.0463872895781
 21
12.8132047765544
 31
0.0
  0
LINE
  5
1AB
330
1F
100
AcDbEntity
  8
GR1_01
  6
Continuous
 62
     7
370
    25
100
AcDbLine
 10
343.2331825130237
 20
15.0
 30
0.0
 11
343.5793363130236
 21
15.3461538
 31
0.0
  0
LINE
  5
1AC
330
1F
100
AcDbEntity
  8
GR1_01
  6
Continuous
 62
     7
370
    25
100
AcDbLine
 10
343.9021565035749
 20
15.66897399055123
 30
0.0
 11
344.8018997861325
 21
16.56871727310882
 31
0.0
  0
LINE
  5
1AD
330
1F
100
AcDbEntity
  8
GR1_01
  6
Continuous
 62
     7
370
    25
100
AcDbLine
 10
340.2173547111423
 20
11.91346151999999
 30
0.0
 11
341.0817426286374
 21
12.77784943749507
 31
0.0
  0
LINE
  5
1AE
330
1F
100
AcDbEntity
  8
GR1_01
  6
Continuous
 62
     7
370
    25
100
AcDbLine
 10
343.3038931911423
 20
14.99999999999999
 30
0.0
 11
343.6500469911423
 21
15.34615379999997
 31
0.0
  0
LINE
  5
1AF
330
1F
100
AcDbEntity
  8
GR1_01
  6
Continuous
 62
     7
370
    25
100
AcDbLine
 10
343.9375118421965
 20
15.63361865105415
 30
0.0
 11
344.8018997861325
 21
16.49800659499016
 31
0.0
  0
LINE
  5
1B0
330
1F
100
AcDbEntity
  8
GR1_01
  6
Continuous
 62
     7
370
    25
100
AcDbLine
 10
340.288065389261
 20
11.91346151999999
 30
0.0
 11
341.1170979676967
 21
12.74249409843576
 31
0.0
  0
LINE
  5
1B1
330
1F
100
AcDbEntity
  8
GR1_01
  6
Continuous
 62
     7
370
    25
100
AcDbLine
 10
343.374603869261
 20
14.99999999999999
 30
0.0
 11
343.7207576692609
 21
15.34615379999997
 31
0.0
  0
LINE
  5
1B2
330
1F
100
AcDbEntity
  8
GR1_01
  6
Continuous
 62
     7
370
    25
100
AcDbLine
 10
343.9728671808181
 20
15.59826331155709
 30
0.0
 11
344.8018997861325
 21
16.4272959168715
 31
0.0
  0
LINE
  5
1B3
330
1F
100
AcDbEntity
  8
GR1_01
  6
Continuous
 62
     7
370
    25
100
AcDbLine
 10
340.3587760673796
 20
11.91346151999999
 30
0.0
 11
341.1524533067561
 21
12.70713875937644
 31
0.0
  0
LINE
  5
1B4
330
1F
100
AcDbEntity
  8
GR1_01
  6
Continuous
 62
     7
370
    25
100
AcDbLine
 10
343.4453145473796
 20
14.99999999999999
 30
0.0
 11
343.7914683473796
 21
15.34615379999999
 31
0.0
  0
LINE
  5
1B5
330
1F
100
AcDbEntity
  8
GR1_01
  6
Continuous
 62
     7
370
    25
100
AcDbLine
 10
344.0082225194396
 20
15.56290797206004
 30
0.0
 11
344.8018997861325
 21
16.35658523875286
 31
0.0
  0
LINE
  5
1B6
330
1F
100
AcDbEntity
  8
GR1_01
  6
Continuous
 62
     7
370
    25
100
AcDbLine
 10
340.4294867454983
 20
11.91346152
 30
0.0
 11
341.1878086458154
 21
12.67178342031712
 31
0.0
  0
LINE
  5
1B7
330
1F
100
AcDbEntity
  8
GR1_01
  6
Continuous
 62
     7
370
    25
100
AcDbLine
 10
343.5160252254983
 20
15.0
 30
0.0
 11
343.8621790254983
 21
15.34615379999999
 31
0.0
  0
LINE
  5
1B8
330
1F
100
AcDbEntity
  8
GR1_01
  6
Continuous
 62
     7
370
    25
100
AcDbLine
 10
344.0435778580613
 20
15.52755263256299
 30
0.0
 11
344.8018997861325
 21
16.28587456063423
 31
0.0
  0
LINE
  5
1B9
330
1F
100
AcDbEntity
  8
GR1_01
  6
Continuous
 62
     7
370
    25
100
AcDbLine
 10
340.500197423617
 20
11.91346151999999
 30
0.0
 11
341.2231639848748
 21
12.63642808125779
 31
0.0
  0
LINE
  5
1BA
330
1F
100
AcDbEntity
  8
GR1_01
  6
Continuous
 62
     7
370
    25
100
AcDbLine
 10
343.586735903617
 20
14.99999999999999
 30
0.0
 11
343.9328897036169
 21
15.34615379999999
 31
0.0
  0
LINE
  5
1BB
330
1F
100
AcDbEntity
  8
GR1_01
  6
Continuous
 62
     7
370
    25
100
AcDbLine
 10
344.0789331966829
 20
15.49219729306593
 30
0.0
 11
344.8018997861325
 21
16.21516388251557
 31
0.0
  0
LINE
  5
1BC
330
1F
100
AcDbEntity
  8
GR1_01
  6
Continuous
 62
     7
370
    25
100
AcDbLine
 10
340.5709081017356
 20
11.91346151999999
 30
0.0
 11
341.2585193239341
 21
12.60107274219846
 31
0.0
  0
LINE
  5
1BD
330
1F
100
AcDbEntity
  8
GR1_01
  6
Continuous
 62
     7
370
    25
100
AcDbLine
 10
343.6574465817356
 20
14.99999999999999
 30
0.0
 11
344.0036003817356
 21
15.34615379999997
 31
0.0
  0
LINE
  5
1BE
330
1F
100
AcDbEntity
  8
GR1_01
  6
Continuous
 62
     7
370
    25
100
AcDbLine
 10
344.1142885353045
 20
15.45684195356886
 30
0.0
 11
344.8018997861325
 21
16.1444532043969
 31
0.0
  0
LINE
  5
1BF
330
1F
100
AcDbEntity
  8
GR1_01
  6
Continuous
 62
     7
370
    25
100
AcDbLine
 10
340.6416187798542
 20
11.91346151999999
 30
0.0
 11
341.2938746629934
 21
12.56571740313914
 31
0.0
  0
LINE
  5
1C0
330
1F
100
AcDbEntity
  8
GR1_01
  6
Continuous
 62
     7
370
    25
100
AcDbLine
 10
343.7281572598542
 20
14.99999999999999
 30
0.0
 11
344.0743110598542
 21
15.34615379999999
 31
0.0
  0
LINE
  5
1C1
330
1F
100
AcDbEntity
  8
GR1_01
  6
Continuous
 62
     7
370
    25
100
AcDbLine
 10
344.149643873926
 20
15.4214866140718
 30
0.0
 11
344.8018997861325
 21
16.07374252627826
 31
0.0
  0
LINE
  5
1C2
330
1F
100
AcDbEntity
  8
GR1_01
  6
Continuous
 62
     7
370
    25
100
AcDbLine
 10
340.7123294579729
 20
11.91346152
 30
0.0
 11
341.3292300020527
 21
12.53036206407981
 31
0.0
  0
LINE
  5
1C3
330
1F
100
AcDbEntity
  8
GR1_01
  6
Continuous
 62
     7
370
    25
100
AcDbLine
 10
343.7988679379729
 20
15.0
 30
0.0
 11
344.1450217379729
 21
15.34615379999999
 31
0.0
  0
LINE
  5
1C4
330
1F
100
AcDbEntity
  8
GR1_01
  6
Continuous
 62
     7
370
    25
100
AcDbLine
 10
344.1849992125476
 20
15.38613127457474
 30
0.0
 11
344.8018997861325
 21
16.00303184815963
 31
0.0
  0
LINE
  5
1C5
330
1F
100
AcDbEntity
  8
GR1_01
  6
Continuous
 62
     7
370
    25
100
AcDbLine
 10
340.7830401360915
 20
11.91346151999999
 30
0.0
 11
341.364585341112
 21
12.49500672502049
 31
0.0
  0
LINE
  5
1C6
330
1F
100
AcDbEntity
  8
GR1_01
  6
Continuous
 62
     7
370
    25
100
AcDbLine
 10
343.8695786160915
 20
14.99999999999999
 30
0.0
 11
344.2157324160915
 21
15.34615379999999
 31
0.0
  0
LINE
  5
1C7
330
1F
100
AcDbEntity
  8
GR1_01
  6
Continuous
 62
     7
370
    25
100
AcDbLine
 10
344.2203545511692
 20
15.35077593507768
 30
0.0
 11
344.8018997861325
 21
15.93232117004097
 31
0.0
  0
LINE
  5
1C8
330
1F
100
AcDbEntity
  8
GR1_01
  6
Continuous
 62
     7
370
    25
100
AcDbLine
 10
340.8537508142102
 20
11.91346151999999
 30
0.0
 11
341.3999406801714
 21
12.45965138596116
 31
0.0
  0
LINE
  5
1C9
330
1F
100
AcDbEntity
  8
GR1_01
  6
Continuous
 62
     7
370
    25
100
AcDbLine
 10
343.9402892942102
 20
14.99999999999999
 30
0.0
 11
344.8018997861325
 21
15.8616104919223
 31
0.0
  0
LINE
  5
1CA
330
1F
100
AcDbEntity
  8
GR1_01
  6
Continuous
 62
     7
370
    25
100
AcDbLine
 10
340.9244614923288
 20
11.91346151999999
 30
0.0
 11
341.4352960192307
 21
12.42429604690183
 31
0.0
  0
LINE
  5
1CB
330
1F
100
AcDbEntity
  8
GR1_01
  6
Continuous
 62
     7
370
    25
100
AcDbLine
 10
344.0109999723288
 20
14.99999999999999
 30
0.0
 11
344.8018997861325
 21
15.79089981380365
 31
0.0
  0
LINE
  5
1CC
330
1F
100
AcDbEntity
  8
GR1_01
  6
Continuous
 62
     7
370
    25
100
AcDbLine
 10
340.9951721704475
 20
11.91346152
 30
0.0
 11
341.47065135829
 21
12.38894070784251
 31
0.0
  0
LINE
  5
1CD
330
1F
100
AcDbEntity
  8
GR1_01
  6
Continuous
 62
     7
370
    25
100
AcDbLine
 10
344.0817106504475
 20
15.0
 30
0.0
 11
344.8018997861325
 21
15.72018913568502
 31
0.0
  0
LINE
  5
1CE
330
1F
100
AcDbEntity
  8
GR1_01
  6
Continuous
 62
     7
370
    25
100
AcDbLine
 10
341.0658828485661
 20
11.91346151999999
 30
0.0
 11
341.5060066973493
 21
12.35358536878319
 31
0.0
  0
LINE
  5
1CF
330
1F
100
AcDbEntity
  8
GR1_01
  6
Continuous
 62
     7
370
    25
100
AcDbLine
 10
344.1524213285661
 20
14.99999999999999
 30
0.0
 11
344.8018997861325
 21
15.64947845756636
 31
0.0
  0
LINE
  5
1D0
330
1F
100
AcDbEntity
  8
GR1_01
  6
Continuous
 62
     7
370
    25
100
AcDbLine
 10
341.1365935266848
 20
11.91346151999999
 30
0.0
 11
341.5413620364087
 21
12.31823002972385
 31
0.0
  0
LINE
  5
1D1
330
1F
100
AcDbEntity
  8
GR1_01
  6
Continuous
 62
     7
370
    25
100
AcDbLine
 10
344.2231320066848
 20
14.99999999999999
 30
0.0
 11
344.8018997861325
 21
15.57876777944769
 31
0.0
  0
LINE
  5
1D2
330
1F
100
AcDbEntity
  8
GR1_01
  6
Continuous
 62
     7
370
    25
100
AcDbLine
 10
341.2073042048034
 20
11.91346151999999
 30
0.0
 11
341.576717375468
 21
12.28287469066453
 31
0.0
  0
LINE
  5
1D3
330
1F
100
AcDbEntity
  8
GR1_01
  6
Continuous
 62
     7
370
    25
100
AcDbLine
 10
344.2249766861325
 20
14.93113400132905
 30
0.0
 11
344.8018997861325
 21
15.50805710132905
 31
0.0
  0
LINE
  5
1D4
330
1F
100
AcDbEntity
  8
GR1_01
  6
Continuous
 62
     7
370
    25
100
AcDbLine
 10
341.2780148829221
 20
11.91346152
 30
0.0
 11
341.6120727145273
 21
12.24751935160521
 31
0.0
  0
LINE
  5
1D5
330
1F
100
AcDbEntity
  8
GR1_01
  6
Continuous
 62
     7
370
    25
100
AcDbLine
 10
344.2249766861325
 20
14.86042332321039
 30
0.0
 11
344.8018997861325
 21
15.43734642321042
 31
0.0
  0
LINE
  5
1D6
330
1F
100
AcDbEntity
  8
GR1_01
  6
Continuous
 62
     7
370
    25
100
AcDbLine
 10
341.3487255610407
 20
11.91346151999999
 30
0.0
 11
341.6474280535866
 21
12.21216401254589
 31
0.0
  0
LINE
  5
1D7
330
1F
100
AcDbEntity
  8
GR1_01
  6
Continuous
 62
     7
370
    25
100
AcDbLine
 10
344.2249766861325
 20
14.78971264509174
 30
0.0
 11
344.8018997861325
 21
15.36663574509176
 31
0.0
  0
LINE
  5
1D8
330
1F
100
AcDbEntity
  8
GR1_01
  6
Continuous
 62
     7
370
    25
100
AcDbLine
 10
341.4194362391594
 20
11.91346151999999
 30
0.0
 11
341.682783392646
 21
12.17680867348655
 31
0.0
  0
LINE
  5
1D9
330
1F
100
AcDbEntity
  8
GR1_01
  6
Continuous
 62
     7
370
    25
100
AcDbLine
 10
344.2249766861325
 20
14.7190019669731
 30
0.0
 11
344.8018997861325
 21
15.29592506697309
 31
0.0
  0
LINE
  5
1DA
330
1F
100
AcDbEntity
  8
GR1_01
  6
Continuous
 62
     7
370
    25
100
AcDbLine
 10
341.490146917278
 20
11.91346151999999
 30
0.0
 11
341.7181387317053
 21
12.14145333442723
 31
0.0
  0
LINE
  5
1DB
330
1F
100
AcDbEntity
  8
GR1_01
  6
Continuous
 62
     7
370
    25
100
AcDbLine
 10
344.2249766861325
 20
14.64829128885444
 30
0.0
 11
344.8018997861325
 21
15.22521438885444
 31
0.0
  0
LINE
  5
1DC
330
1F
100
AcDbEntity
  8
GR1_01
  6
Continuous
 62
     7
370
    25
100
AcDbLine
 10
341.5608575953967
 20
11.91346152
 30
0.0
 11
341.7534940707646
 21
12.10609799536791
 31
0.0
  0
LINE
  5
1DD
330
1F
100
AcDbEntity
  8
GR1_01
  6
Continuous
 62
     7
370
    25
100
AcDbLine
 10
344.2249766861325
 20
14.57758061073578
 30
0.0
 11
344.8018997861325
 21
15.15450371073581
 31
0.0
  0
LINE
  5
1DE
330
1F
100
AcDbEntity
  8
GR1_01
  6
Continuous
 62
     7
370
    25
100
AcDbLine
 10
341.6315682735153
 20
11.91346151999999
 30
0.0
 11
341.7888494098239
 21
12.07074265630859
 31
0.0
  0
LINE
  5
1DF
330
1F
100
AcDbEntity
  8
GR1_01
  6
Continuous
 62
     7
370
    25
100
AcDbLine
 10
344.2249766861325
 20
14.50686993261714
 30
0.0
 11
344.8018997861325
 21
15.08379303261716
 31
0.0
  0
LINE
  5
1E0
330
1F
100
AcDbEntity
  8
GR1_01
  6
Continuous
 62
     7
370
    25
100
AcDbLine
 10
341.702278951634
 20
11.91346151999999
 30
0.0
 11
343.3595920661325
 21
13.57077463449849
 31
0.0
  0
LINE
  5
1E1
330
1F
100
AcDbEntity
  8
GR1_01
  6
Continuous
 62
     7
370
    25
100
AcDbLine
 10
344.2249766861325
 20
14.4361592544985
 30
0.0
 11
344.8018997861325
 21
15.01308235449848
 31
0.0
  0
LINE
  5
1E2
330
1F
100
AcDbEntity
  8
GR1_01
  6
Continuous
 62
     7
370
    25
100
AcDbLine
 10
341.7729896297527
 20
11.91346151999999
 30
0.0
 11
343.3595920661325
 21
13.50006395637985
 31
0.0
  0
LINE
  5
1E3
330
1F
100
AcDbEntity
  8
GR1_01
  6
Continuous
 62
     7
370
    25
100
AcDbLine
 10
344.2249766861325
 20
14.36544857637984
 30
0.0
 11
344.8018997861325
 21
14.94237167637984
 31
0.0
  0
LINE
  5
1E4
330
1F
100
AcDbEntity
  8
GR1_01
  6
Continuous
 62
     7
370
    25
100
AcDbLine
 10
341.8437003078713
 20
11.91346152
 30
0.0
 11
343.3595920661325
 21
13.42935327826119
 31
0.0
  0
LINE
  5
1E5
330
1F
100
AcDbEntity
  8
GR1_01
  6
Continuous
 62
     7
370
    25
100
AcDbLine
 10
344.2249766861325
 20
14.29473789826118
 30
0.0
 11
344.8018997861325
 21
14.87166099826121
 31
0.0
  0
LINE
  5
1E6
330
1F
100
AcDbEntity
  8
GR1_01
  6
Continuous
 62
     7
370
    25
100
AcDbLine
 10
341.9144109859899
 20
11.91346152000002
 30
0.0
 11
343.3595920661325
 21
13.35864260014256
 31
0.0
  0
LINE
  5
1E7
330
1F
100
AcDbEntity
  8
GR1_01
  6
Continuous
 62
     7
370
    25
100
AcDbLine
 10
344.2249766861325
 20
14.22402722014253
 30
0.0
 11
344.8018997861325
 21
14.80095032014255
 31
0.0
  0
LINE
  5
1E8
330
1F
100
AcDbEntity
  8
GR1_01
  6
Continuous
 62
     7
370
    25
100
AcDbLine
 10
341.9851216641086
 20
11.91346151999999
 30
0.0
 11
343.3595920661325
 21
13.28793192202389
 31
0.0
  0
LINE
  5
1E9
330
1F
100
AcDbEntity
  8
GR1_01
  6
Continuous
 62
     7
370
    25
100
AcDbLine
 10
344.2249766861325
 20
14.15331654202389
 30
0.0
 11
344.8018997861325
 21
14.73023964202388
 31
0.0
  0
LINE
  5
1EA
330
1F
100
AcDbEntity
  8
GR1_01
  6
Continuous
 62
     7
370
    25
100
AcDbLine
 10
342.0558323422273
 20
11.91346152
 30
0.0
 11
343.3595920661325
 21
13.21722124390525
 31
0.0
  0
LINE
  5
1EB
330
1F
100
AcDbEntity
  8
GR1_01
  6
Continuous
 62
     7
370
    25
100
AcDbLine
 10
344.2249766861325
 20
14.08260586390523
 30
0.0
 11
344.8018997861325
 21
14.65952896390523
 31
0.0
  0
LINE
  5
1EC
330
1F
100
AcDbEntity
  8
GR1_01
  6
Continuous
 62
     7
370
    25
100
AcDbLine
 10
342.1265430203459
 20
11.91346152
 30
0.0
 11
343.3595920661325
 21
13.14651056578659
 31
0.0
  0
LINE
  5
1ED
330
1F
100
AcDbEntity
  8
GR1_01
  6
Continuous
 62
     7
370
    25
100
AcDbLine
 10
344.2249766861325
 20
14.01189518578657
 30
0.0
 11
344.8018997861325
 21
14.5888182857866
 31
0.0
  0
LINE
  5
1EE
330
1F
100
AcDbEntity
  8
GR1_01
  6
Continuous
 62
     7
370
    25
100
AcDbLine
 10
342.1972536984646
 20
11.91346152000002
 30
0.0
 11
343.3595920661325
 21
13.07579988766796
 31
0.0
  0
LINE
  5
1EF
330
1F
100
AcDbEntity
  8
GR1_01
  6
Continuous
 62
     7
370
    25
100
AcDbLine
 10
344.2249766861325
 20
13.94118450766793
 30
0.0
 11
344.8018997861325
 21
14.51810760766795
 31
0.0
  0
LINE
  5
1F0
330
1F
100
AcDbEntity
  8
GR1_01
  6
Continuous
 62
     7
370
    25
100
AcDbLine
 10
342.2679643765832
 20
11.91346152
 30
0.0
 11
343.3595920661325
 21
13.0050892095493
 31
0.0
  0
LINE
  5
1F1
330
1F
100
AcDbEntity
  8
GR1_01
  6
Continuous
 62
     7
370
    25
100
AcDbLine
 10
344.2249766861325
 20
13.8704738295493
 30
0.0
 11
344.8018997861325
 21
14.44739692954929
 31
0.0
  0
LINE
  5
1F2
330
1F
100
AcDbEntity
  8
GR1_01
  6
Continuous
 62
     7
370
    25
100
AcDbLine
 10
342.3386750547019
 20
11.91346152
 30
0.0
 11
343.4059827747019
 21
12.98076924
 31
0.0
  0
LINE
  5
1F3
330
1F
100
AcDbEntity
  8
GR1_01
  6
Continuous
 62
     7
370
    25
100
AcDbLine
 10
344.2249766861325
 20
13.79976315143063
 30
0.0
 11
344.8018997861325
 21
14.37668625143063
 31
0.0
  0
LINE
  5
1F4
330
1F
100
AcDbEntity
  8
GR1_01
  6
Continuous
 62
     7
370
    25
100
AcDbLine
 10
342.4093857328205
 20
11.91346152
 30
0.0
 11
343.4766934528205
 21
12.98076924
 31
0.0
  0
LINE
  5
1F5
330
1F
100
AcDbEntity
  8
GR1_01
  6
Continuous
 62
     7
370
    25
100
AcDbLine
 10
344.2249766861325
 20
13.72905247331197
 30
0.0
 11
344.8018997861325
 21
14.305975573312
 31
0.0
  0
LINE
  5
1F6
330
1F
100
AcDbEntity
  8
GR1_01
  6
Continuous
 62
     7
370
    25
100
AcDbLine
 10
342.4800964109392
 20
11.91346152000002
 30
0.0
 11
343.5474041309392
 21
12.98076924000002
 31
0.0
  0
LINE
  5
1F7
330
1F
100
AcDbEntity
  8
GR1_01
  6
Continuous
 62
     7
370
    25
100
AcDbLine
 10
344.2249766861325
 20
13.65834179519333
 30
0.0
 11
344.8018997861325
 21
14.23526489519334
 31
0.0
  0
LINE
  5
1F8
330
1F
100
AcDbEntity
  8
GR1_01
  6
Continuous
 62
     7
370
    25
100
AcDbLine
 10
342.5508070890578
 20
11.91346152
 30
0.0
 11
343.6181148090578
 21
12.98076924
 31
0.0
  0
LINE
  5
1F9
330
1F
100
AcDbEntity
  8
GR1_01
  6
Continuous
 62
     7
370
    25
100
AcDbLine
 10
344.2249766861325
 20
13.5876311170747
 30
0.0
 11
344.8018997861325
 21
14.16455421707468
 31
0.0
  0
LINE
  5
1FA
330
1F
100
AcDbEntity
  8
GR1_01
  6
Continuous
 62
     7
370
    25
100
AcDbLine
 10
342.6215177671764
 20
11.91346152
 30
0.0
 11
343.6888254871765
 21
12.98076924
 31
0.0
  0
LINE
  5
1FB
330
1F
100
AcDbEntity
  8
GR1_01
  6
Continuous
 62
     7
370
    25
100
AcDbLine
 10
344.2249766861325
 20
13.51692043895602
 30
0.0
 11
344.8018997861325
 21
14.09384353895603
 31
0.0
  0
LINE
  5
1FC
330
1F
100
AcDbEntity
  8
GR1_01
  6
Continuous
 62
     7
370
    25
100
AcDbLine
 10
342.6922284452951
 20
11.91346152
 30
0.0
 11
343.7595361652951
 21
12.98076924
 31
0.0
  0
LINE
  5
1FD
330
1F
100
AcDbEntity
  8
GR1_01
  6
Continuous
 62
     7
370
    25
100
AcDbLine
 10
344.2249766861325
 20
13.44620976083737
 30
0.0
 11
344.8018997861325
 21
14.0231328608374
 31
0.0
  0
LINE
  5
1FE
330
1F
100
AcDbEntity
  8
GR1_01
  6
Continuous
 62
     7
370
    25
100
AcDbLine
 10
342.7629391234138
 20
11.91346152
 30
0.0
 11
343.8302468434138
 21
12.98076923999999
 31
0.0
  0
LINE
  5
1FF
330
1F
100
AcDbEntity
  8
GR1_01
  6
Continuous
 62
     7
370
    25
100
AcDbLine
 10
344.2249766861325
 20
13.37549908271872
 30
0.0
 11
344.8018997861325
 21
13.95242218271874
 31
0.0
  0
LINE
  5
200
330
1F
100
AcDbEntity
  8
GR1_01
  6
Continuous
 62
     7
370
    25
100
AcDbLine
 10
342.8336498015324
 20
11.91346152
 30
0.0
 11
343.9009575215324
 21
12.98076924
 31
0.0
  0
LINE
  5
201
330
1F
100
AcDbEntity
  8
GR1_01
  6
Continuous
 62
     7
370
    25
100
AcDbLine
 10
344.2249766861325
 20
13.30478840460009
 30
0.0
 11
344.8018997861325
 21
13.88171150460008
 31
0.0
  0
LINE
  5
202
330
1F
100
AcDbEntity
  8
GR1_01
  6
Continuous
 62
     7
370
    25
100
AcDbLine
 10
342.9043604796511
 20
11.91346152
 30
0.0
 11
343.971668199651
 21
12.98076923999999
 31
0.0
  0
LINE
  5
203
330
1F
100
AcDbEntity
  8
GR1_01
  6
Continuous
 62
     7
370
    25
100
AcDbLine
 10
344.2249766861325
 20
13.23407772648142
 30
0.0
 11
344.8018997861325
 21
13.81100082648142
 31
0.0
  0
LINE
  5
204
330
1F
100
AcDbEntity
  8
GR1_01
  6
Continuous
 62
     7
370
    25
100
AcDbLine
 10
342.9750711577697
 20
11.91346152
 30
0.0
 11
344.0423788777697
 21
12.98076924
 31
0.0
  0
LINE
  5
205
330
1F
100
AcDbEntity
  8
GR1_01
  6
Continuous
 62
     7
370
    25
100
AcDbLine
 10
344.2249766861325
 20
13.16336704836276
 30
0.0
 11
344.8018997861325
 21
13.74029014836279
 31
0.0
  0
LINE
  5
206
330
1F
100
AcDbEntity
  8
GR1_01
  6
Continuous
 62
     7
370
    25
100
AcDbLine
 10
343.0457818358884
 20
11.91346152
 30
0.0
 11
344.1130895558883
 21
12.98076923999999
 31
0.0
  0
LINE
  5
207
330
1F
100
AcDbEntity
  8
GR1_01
  6
Continuous
 62
     7
370
    25
100
AcDbLine
 10
344.2249766861325
 20
13.09265637024412
 30
0.0
 11
344.8018997861325
 21
13.66957947024413
 31
0.0
  0
LINE
  5
208
330
1F
100
AcDbEntity
  8
GR1_01
  6
Continuous
 62
     7
370
    25
100
AcDbLine
 10
343.116492514007
 20
11.91346152
 30
0.0
 11
344.183800234007
 21
12.98076924
 31
0.0
  0
LINE
  5
209
330
1F
100
AcDbEntity
  8
GR1_01
  6
Continuous
 62
     7
370
    25
100
AcDbLine
 10
344.2249766861325
 20
13.02194569212549
 30
0.0
 11
344.8018997861325
 21
13.59886879212548
 31
0.0
  0
LINE
  5
20A
330
1F
100
AcDbEntity
  8
GR1_01
  6
Continuous
 62
     7
370
    25
100
AcDbLine
 10
343.1872031921257
 20
11.91346152
 30
0.0
 11
344.8018997861325
 21
13.52815811400683
 31
0.0
  0
LINE
  5
20B
330
1F
100
AcDbEntity
  8
GR1_01
  6
Continuous
 62
     7
370
    25
100
AcDbLine
 10
343.2579138702444
 20
11.91346151999999
 30
0.0
 11
344.8018997861325
 21
13.45744743588819
 31
0.0
  0
LINE
  5
20C
330
1F
100
AcDbEntity
  8
GR1_01
  6
Continuous
 62
     7
370
    25
100
AcDbLine
 10
343.328624548363
 20
11.91346152
 30
0.0
 11
344.8018997861325
 21
13.38673675776953
 31
0.0
  0
LINE
  5
20D
330
1F
100
AcDbEntity
  8
GR1_01
  6
Continuous
 62
     7
370
    25
100
AcDbLine
 10
343.3993352264816
 20
11.91346152
 30
0.0
 11
344.8018997861325
 21
13.31602607965087
 31
0.0
  0
LINE
  5
20E
330
1F
100
AcDbEntity
  8
GR1_01
  6
Continuous
 62
     7
370
    25
100
AcDbLine
 10
343.4700459046003
 20
11.91346152
 30
0.0
 11
344.8018997861325
 21
13.24531540153223
 31
0.0
  0
LINE
  5
20F
330
1F
100
AcDbEntity
  8
GR1_01
  6
Continuous
 62
     7
370
    25
100
AcDbLine
 10
343.5407565827189
 20
11.91346151999999
 30
0.0
 11
344.8018997861325
 21
13.17460472341358
 31
0.0
  0
LINE
  5
210
330
1F
100
AcDbEntity
  8
GR1_01
  6
Continuous
 62
     7
370
    25
100
AcDbLine
 10
343.6114672608376
 20
11.91346152
 30
0.0
 11
344.8018997861325
 21
13.10389404529493
 31
0.0
  0
LINE
  5
211
330
1F
100
AcDbEntity
  8
GR1_01
  6
Continuous
 62
     7
370
    25
100
AcDbLine
 10
343.6821779389562
 20
11.91346152
 30
0.0
 11
344.8018997861325
 21
13.03318336717627
 31
0.0
  0
LINE
  5
212
330
1F
100
AcDbEntity
  8
GR1_01
  6
Continuous
 62
     7
370
    25
100
AcDbLine
 10
343.7528886170749
 20
11.91346152000002
 30
0.0
 11
344.8018997861325
 21
12.96247268905764
 31
0.0
  0
LINE
  5
213
330
1F
100
AcDbEntity
  8
GR1_01
  6
Continuous
 62
     7
370
    25
100
AcDbLine
 10
343.8235992951935
 20
11.91346151999999
 30
0.0
 11
344.8018997861325
 21
12.89176201093898
 31
0.0
  0
LINE
  5
214
330
1F
100
AcDbEntity
  8
GR1_01
  6
Continuous
 62
     7
370
    25
100
AcDbLine
 10
343.8943099733121
 20
11.91346152
 30
0.0
 11
344.8018997861325
 21
12.82105133282032
 31
0.0
  0
LINE
  5
215
330
1F
100
AcDbEntity
  8
GR1_01
  6
Continuous
 62
     7
370
    25
100
AcDbLine
 10
343.9650206514308
 20
11.91346152
 30
0.0
 11
344.8018997861325
 21
12.75034065470166
 31
0.0
  0
LINE
  5
216
330
1F
100
AcDbEntity
  8
GR1_01
  6
Continuous
 62
     7
370
    25
100
AcDbLine
 10
344.0357313295495
 20
11.91346152000002
 30
0.0
 11
344.8018997861325
 21
12.67962997658303
 31
0.0
  0
LINE
  5
217
330
1F
100
AcDbEntity
  8
GR1_01
  6
Continuous
 62
     7
370
    25
100
AcDbLine
 10
344.1064420076681
 20
11.91346151999999
 30
0.0
 11
344.8018997861325
 21
12.60891929846438
 31
0.0
  0
LINE
  5
218
330
1F
100
AcDbEntity
  8
GR1_01
  6
Continuous
 62
     7
370
    25
100
AcDbLine
 10
344.1771526857868
 20
11.91346152
 30
0.0
 11
344.8018997861325
 21
12.53820862034572
 31
0.0
  0
LINE
  5
219
330
1F
100
AcDbEntity
  8
GR1_01
  6
Continuous
 62
     7
370
    25
100
AcDbLine
 10
344.2478633639054
 20
11.91346152
 30
0.0
 11
344.8018997861325
 21
12.46749794222706
 31
0.0
  0
LINE
  5
21A
330
1F
100
AcDbEntity
  8
GR1_01
  6
Continuous
 62
     7
370
    25
100
AcDbLine
 10
344.3185740420241
 20
11.91346152000002
 30
0.0
 11
344.8018997861325
 21
12.39678726410843
 31
0.0
  0
LINE
  5
21B
330
1F
100
AcDbEntity
  8
GR1_01
  6
Continuous
 62
     7
370
    25
100
AcDbLine
 10
344.3892847201427
 20
11.91346151999999
 30
0.0
 11
344.8018997861325
 21
12.32607658598977
 31
0.0
  0
LINE
  5
21C
330
1F
100
AcDbEntity
  8
GR1_01
  6
Continuous
 62
     7
370
    25
100
AcDbLine
 10
344.4599953982614
 20
11.91346152
 30
0.0
 11
344.8018997861325
 21
12.25536590787111
 31
0.0
  0
LINE
  5
21D
330
1F
100
AcDbEntity
  8
GR1_01
  6
Continuous
 62
     7
370
    25
100
AcDbLine
 10
344.5307060763801
 20
11.91346152
 30
0.0
 11
344.8018997861325
 21
12.18465522975245
 31
0.0
  0
LINE
  5
21E
330
1F
100
AcDbEntity
  8
GR1_01
  6
Continuous
 62
     7
370
    25
100
AcDbLine
 10
344.6014167544987
 20
11.91346152000002
 30
0.0
 11
344.8018997861325
 21
12.11394455163382
 31
0.0
  0
LINE
  5
21F
330
1F
100
AcDbEntity
  8
GR1_01
  6
Continuous
 62
     7
370
    25
100
AcDbLine
 10
344.6721274326173
 20
11.91346151999999
 30
0.0
 11
344.8018997861325
 21
12.04323387351517
 31
0.0
  0
LINE
  5
220
330
1F
100
AcDbEntity
  8
GR1_01
  6
Continuous
 62
     7
370
    25
100
AcDbLine
 10
344.742838110736
 20
11.91346152
 30
0.0
 11
344.8018997861325
 21
11.97252319539651
 31
0.0
  0
TEXT
  5
221
330
1F
100
AcDbEntity
  8
図面枠ﾚｲﾔ_01
  6
Continuous
 62
     7
370
    25
100
AcDbText
 10
155.0
 20
12.0
 30
0.0
 40
6.0
  1
ＳＡ－　７５　１６×４０　ＵＢ　Ｓ
 41
0.7854785478547858
  7
FX_VECTOR
 72
     5
 11
223.0
 21
12.0
 31
0.0
100
AcDbText
  0
TEXT
  5
222
330
1F
100
AcDbEntity
  8
図面枠ﾚｲﾔ_01
  6
Continuous
 62
     7
370
    25
100
AcDbText
 10
255.0
 20
12.0
 30
0.0
 40
6.0
  1
Ｓ２５ＤＡ１ＦＡＡ－Ｃ０２
 41
0.7878787878787881
  7
FX_VECTOR
 72
     5
 11
307.0
 21
12.0
 31
0.0
100
AcDbText
  0
LINE
  5
223
330
1F
100
AcDbEntity
  8
GR1_01
  6
Continuous
 62
     3
370
    50
100
AcDbLine
 10
144.8341251201025
 20
65.38160919540223
 30
0.0
 11
147.1341251201025
 21
65.38160919540223
 31
0.0
  0
LINE
  5
224
330
1F
100
AcDbEntity
  8
GR1_01
  6
Continuous
 62
     3
370
    50
100
AcDbLine
 10
147.1341251201025
 20
65.38160919540229
 30
0.0
 11
147.1341251201025
 21
116.9949105018216
 31
0.0
  0
ARC
  5
225
330
1F
100
AcDbEntity
  8
GR1_01
  6
Continuous
 62
     3
370
    50
100
AcDbCircle
 10
144.1341251201025
 20
116.9949105018216
 30
0.0
 40
3.0
100
AcDbArc
 50
0.0
 51
90.0
  0
LINE
  5
226
330
1F
100
AcDbEntity
  8
GR1_01
  6
Continuous
 62
     3
370
    50
100
AcDbLine
 10
144.1341251201025
 20
119.9949105018216
 30
0.0
 11
114.0341251201025
 21
119.9949105018216
 31
0.0
  0
ARC
  5
227
330
1F
100
AcDbEntity
  8
GR1_01
  6
Continuous
 62
     3
370
    50
100
AcDbCircle
 10
114.0341251201024
 20
116.9949105018216
 30
0.0
 40
3.0
100
AcDbArc
 50
89.99999999999999
 51
180.0
  0
LINE
  5
228
330
1F
100
AcDbEntity
  8
GR1_01
  6
Continuous
 62
     3
370
    50
100
AcDbLine
 10
111.0341251201025
 20
116.9949105018216
 30
0.0
 11
111.0341251201025
 21
65.38160919540229
 31
0.0
  0
LINE
  5
229
330
1F
100
AcDbEntity
  8
GR1_01
  6
Continuous
 62
     3
370
    50
100
AcDbLine
 10
111.0341251201025
 20
65.38160919540223
 30
0.0
 11
113.3341251201025
 21
65.38160919540223
 31
0.0
  0
LINE
  5
22A
330
1F
100
AcDbEntity
  8
GR1_01
  6
Continuous
 62
     3
370
    50
100
AcDbLine
 10
113.3341251201025
 20
65.38160919540223
 30
0.0
 11
113.3341251201025
 21
117.2298526698936
 31
0.0
  0
LINE
  5
22B
330
1F
100
AcDbEntity
  8
GR1_01
  6
Continuous
 62
     3
370
    50
100
AcDbLine
 10
113.8341251201025
 20
117.7298526698936
 30
0.0
 11
144.3341251201025
 21
117.7298526698936
 31
0.0
  0
LINE
  5
22C
330
1F
100
AcDbEntity
  8
GR1_01
  6
Continuous
 62
     3
370
    50
100
AcDbLine
 10
144.8341251201025
 20
117.2298526698936
 30
0.0
 11
144.8341251201025
 21
65.38160919540223
 31
0.0
  0
ARC
  5
22D
330
1F
100
AcDbEntity
  8
GR1_01
  6
Continuous
 62
     3
370
    50
100
AcDbCircle
 10
149.8841251201025
 20
121.2816091954023
 30
0.0
 40
4.0
100
AcDbArc
 50
0.0
 51
90.0
  0
LINE
  5
22E
330
1F
100
AcDbEntity
  8
GR1_01
  6
Continuous
 62
     3
370
    50
100
AcDbLine
 10
149.8841251201025
 20
125.2816091954023
 30
0.0
 11
108.2841251201024
 21
125.2816091954023
 31
0.0
  0
ARC
  5
22F
330
1F
100
AcDbEntity
  8
GR1_01
  6
Continuous
 62
     3
370
    50
100
AcDbCircle
 10
108.2841251201025
 20
121.2816091954023
 30
0.0
 40
4.0
100
AcDbArc
 50
90.0
 51
180.0
  0
LINE
  5
230
330
1F
100
AcDbEntity
  8
GR1_01
  6
Continuous
 62
     3
370
    50
100
AcDbLine
 10
104.2841251201025
 20
121.2816091954023
 30
0.0
 11
104.2841251201025
 21
97.06622340770411
 31
0.0
  0
ARC
  5
231
330
1F
100
AcDbEntity
  8
GR1_01
  6
Continuous
 62
     3
370
    50
100
AcDbCircle
 10
144.3341251201025
 20
117.2298526698936
 30
0.0
 40
0.5
100
AcDbArc
 50
0.0
 51
90.0
  0
LINE
  5
232
330
1F
100
AcDbEntity
  8
GR1_01
  6
Continuous
 62
     3
370
    50
100
AcDbLine
 10
151.6341251201025
 20
126.5876091954023
 30
0.0
 11
106.5341251201025
 21
126.5876091954023
 31
0.0
  0
LINE
  5
233
330
1F
100
AcDbEntity
  8
GR1_01
  6
Continuous
 62
     3
370
    50
100
AcDbLine
 10
106.5341251201025
 20
126.5876091954023
 30
0.0
 11
106.5341251201025
 21
130.0876091954023
 31
0.0
  0
ARC
  5
234
330
1F
100
AcDbEntity
  8
GR1_01
  6
Continuous
 62
     3
370
    50
100
AcDbCircle
 10
111.4325703989305
 20
126.6227522213948
 30
0.0
 40
6.0
100
AcDbArc
 50
96.20431426676518
 51
144.7267755721553
  0
LINE
  5
235
330
1F
100
AcDbEntity
  8
GR1_01
  6
Continuous
 62
     3
370
    50
100
AcDbLine
 10
110.7841251201025
 20
132.5876091954023
 30
0.0
 11
147.3841251201024
 21
132.5876091954023
 31
0.0
  0
ARC
  5
236
330
1F
100
AcDbEntity
  8
GR1_01
  6
Continuous
 62
     3
370
    50
100
AcDbCircle
 10
146.7356798412745
 20
126.6227522213948
 30
0.0
 40
6.0
100
AcDbArc
 50
35.27322442784478
 51
83.79568573323478
  0
LINE
  5
237
330
1F
100
AcDbEntity
  8
GR1_01
  6
Continuous
 62
     3
370
    50
100
AcDbLine
 10
151.6341251201025
 20
130.0876091954023
 30
0.0
 11
151.6341251201025
 21
126.5876091954023
 31
0.0
  0
LINE
  5
238
330
1F
100
AcDbEntity
  8
GR1_01
  6
Continuous
 62
     3
370
    50
100
AcDbLine
 10
140.5841251201025
 20
132.5876091954023
 30
0.0
 11
140.5841251201025
 21
137.1376091954023
 31
0.0
  0
LINE
  5
239
330
1F
100
AcDbEntity
  8
GR1_01
  6
Continuous
 62
     3
370
    50
100
AcDbLine
 10
140.5841251201025
 20
137.1376091954023
 30
0.0
 11
117.5841251201025
 21
137.1376091954023
 31
0.0
  0
LINE
  5
23A
330
1F
100
AcDbEntity
  8
GR1_01
  6
Continuous
 62
     3
370
    50
100
AcDbLine
 10
117.5841251201025
 20
137.1376091954023
 30
0.0
 11
117.5841251201025
 21
132.5876091954023
 31
0.0
  0
LINE
  5
23B
330
1F
100
AcDbEntity
  8
GR1_01
  6
Continuous
 62
     3
370
    50
100
AcDbLine
 10
121.0841251201025
 20
137.1376091954023
 30
0.0
 11
121.0841251201025
 21
176.1376091954023
 31
0.0
  0
LINE
  5
23C
330
1F
100
AcDbEntity
  8
GR1_01
  6
Continuous
 62
     3
370
    50
100
AcDbLine
 10
121.0841251201025
 20
176.1376091954023
 30
0.0
 11
122.0841251201025
 21
177.1376091954023
 31
0.0
  0
LINE
  5
23D
330
1F
100
AcDbEntity
  8
GR1_01
  6
Continuous
 62
     3
370
    50
100
AcDbLine
 10
122.0841251201025
 20
177.1376091954023
 30
0.0
 11
136.0841251201025
 21
177.1376091954023
 31
0.0
  0
LINE
  5
23E
330
1F
100
AcDbEntity
  8
GR1_01
  6
Continuous
 62
     3
370
    50
100
AcDbLine
 10
136.0841251201025
 20
177.1376091954023
 30
0.0
 11
137.0841251201025
 21
176.1376091954023
 31
0.0
  0
LINE
  5
23F
330
1F
100
AcDbEntity
  8
GR1_01
  6
Continuous
 62
     3
370
    50
100
AcDbLine
 10
137.0841251201025
 20
176.1376091954023
 30
0.0
 11
137.0841251201025
 21
137.1376091954023
 31
0.0
  0
LINE
  5
240
330
1F
100
AcDbEntity
  8
GR1_01
  6
Continuous
 62
     3
370
    50
100
AcDbLine
 10
129.0841251201025
 20
137.1376091954023
 30
0.0
 11
129.0841251201025
 21
132.5876091954023
 31
0.0
  0
ARC
  5
241
330
1F
100
AcDbEntity
  8
GR1_01
  6
Continuous
 62
     3
370
    50
100
AcDbCircle
 10
113.8341251201025
 20
117.2298526698936
 30
0.0
 40
0.5
100
AcDbArc
 50
90.0
 51
180.0
  0
LINE
  5
242
330
1F
100
AcDbEntity
  8
GR1_01
  6
Continuous
 62
     3
370
    50
100
AcDbLine
 10
258.7931034482759
 20
125.2816091954023
 30
0.0
 11
280.0945323113687
 21
125.2816091954023
 31
0.0
  0
LINE
  5
243
330
1F
100
AcDbEntity
  8
GR1_01
  6
Continuous
 62
     3
370
    50
100
AcDbLine
 10
281.3431034482758
 20
126.5876091954023
 30
0.0
 11
258.7931034482758
 21
126.5876091954023
 31
0.0
  0
LINE
  5
244
330
1F
100
AcDbEntity
  8
GR1_01
  6
Continuous
 62
     3
370
    50
100
AcDbLine
 10
250.7931034482759
 20
137.1376091954023
 30
0.0
 11
250.7931034482759
 21
176.1376091954023
 31
0.0
  0
LINE
  5
245
330
1F
100
AcDbEntity
  8
GR1_01
  6
Continuous
 62
     3
370
    50
100
AcDbLine
 10
250.7931034482759
 20
176.1376091954023
 30
0.0
 11
251.7931034482759
 21
177.1376091954023
 31
0.0
  0
LINE
  5
246
330
1F
100
AcDbEntity
  8
GR1_01
  6
Continuous
 62
     3
370
    50
100
AcDbLine
 10
251.7931034482759
 20
177.1376091954023
 30
0.0
 11
265.7931034482759
 21
177.1376091954023
 31
0.0
  0
LINE
  5
247
330
1F
100
AcDbEntity
  8
GR1_01
  6
Continuous
 62
     3
370
    50
100
AcDbLine
 10
265.7931034482759
 20
177.1376091954023
 30
0.0
 11
266.7931034482759
 21
176.1376091954023
 31
0.0
  0
LINE
  5
248
330
1F
100
AcDbEntity
  8
GR1_01
  6
Continuous
 62
     3
370
    50
100
AcDbLine
 10
266.7931034482759
 20
176.1376091954023
 30
0.0
 11
266.7931034482759
 21
137.1376091954023
 31
0.0
  0
LINE
  5
249
330
1F
100
AcDbEntity
  8
GR1_01
  6
Continuous
 62
     3
370
    50
100
AcDbLine
 10
265.4326315439566
 20
137.1376091954023
 30
0.0
 11
265.4326315439566
 21
132.5876091954023
 31
0.0
  0
LINE
  5
24A
330
1F
100
AcDbEntity
  8
GR1_01
  6
Continuous
 62
     3
370
    50
100
AcDbLine
 10
272.0721596396373
 20
132.5876091954023
 30
0.0
 11
272.0721596396373
 21
137.1376091954023
 31
0.0
  0
LINE
  5
24B
330
1F
100
AcDbEntity
  8
GR1_01
  6
Continuous
 62
     3
370
    50
100
AcDbLine
 10
272.0721596396373
 20
137.1376091954023
 30
0.0
 11
258.7931034482759
 21
137.1376091954023
 31
0.0
  0
LINE
  5
24C
330
1F
100
AcDbEntity
  8
GR1_01
  6
Continuous
 62
     3
370
    50
100
AcDbLine
 10
258.7931034482758
 20
132.5876091954023
 30
0.0
 11
277.0931034482758
 21
132.5876091954023
 31
0.0
  0
ARC
  5
24D
330
1F
100
AcDbEntity
  8
GR1_01
  6
Continuous
 62
     3
370
    50
100
AcDbCircle
 10
276.4446581694478
 20
126.6227522213948
 30
0.0
 40
6.0
100
AcDbArc
 50
35.27322442784478
 51
83.79568573323478
  0
LINE
  5
24E
330
1F
100
AcDbEntity
  8
GR1_01
  6
Continuous
 62
     3
370
    50
100
AcDbLine
 10
281.3431034482759
 20
130.0876091954023
 30
0.0
 11
281.3431034482759
 21
126.5876091954023
 31
0.0
  0
ARC
  5
24F
330
1F
100
AcDbEntity
  8
GR1_01
  6
Continuous
 62
     3
370
    50
100
AcDbCircle
 10
280.0945323113687
 20
121.7816091954023
 30
0.0
 40
3.5
100
AcDbArc
 50
1.637245077777197
 51
90.0
  0
LINE
  5
250
330
1F
100
AcDbEntity
  8
GR1_01
  6
Continuous
 62
     3
370
    50
100
AcDbLine
 10
283.5931034482759
 20
121.8816091954005
 30
0.0
 11
283.5931034482759
 21
116.2816091954023
 31
0.0
  0
LINE
  5
251
330
1F
100
AcDbEntity
  8
GR1_01
  6
Continuous
 62
     3
370
    50
100
AcDbLine
 10
283.5931034482759
 20
116.2816091954023
 30
0.0
 11
281.2931034482759
 21
116.2816091954023
 31
0.0
  0
ARC
  5
252
330
1F
100
AcDbEntity
  8
GR1_01
  6
Continuous
 62
     3
370
    50
100
AcDbCircle
 10
284.452190151293
 20
93.48534669094028
 30
0.0
 40
23.01411334311013
100
AcDbArc
 50
97.88975114962714
 51
136.6563303158274
  0
ARC
  5
253
330
1F
100
AcDbEntity
  8
GR1_01
  6
Continuous
 62
     3
370
    50
100
AcDbCircle
 10
19.9166896198707
 20
283.9215032296885
 30
0.0
 40
303.1553801208015
100
AcDbArc
 50
322.6053881037939
 51
324.8251290664933
  0
LINE
  5
254
330
1F
100
AcDbEntity
  8
GR1_01
  6
Continuous
 62
     3
370
    50
100
AcDbLine
 10
219.9931034482759
 20
263.7309900003559
 30
0.0
 11
238.8622856025376
 21
263.7309900003559
 31
0.0
  0
ARC
  5
255
330
1F
100
AcDbEntity
  8
GR1_01
  6
Continuous
 62
     3
370
    50
100
AcDbCircle
 10
238.8622856025376
 20
271.7309900003557
 30
0.0
 40
8.0
100
AcDbArc
 50
270.0
 51
307.4195512612285
  0
ARC
  5
256
330
1F
100
AcDbEntity
  8
GR1_01
  6
Continuous
 62
     6
370
    25
100
AcDbCircle
 10
258.7931034482759
 20
245.6809900003558
 30
0.0
 40
24.80000000000004
100
AcDbArc
 50
140.5740339755768
 51
219.4259660244233
  0
LINE
  5
257
330
1F
100
AcDbEntity
  8
GR1_01
  6
Continuous
 62
     3
370
    50
100
AcDbLine
 10
219.9931034482759
 20
227.6309900003558
 30
0.0
 11
219.9931034482759
 21
229.9309900003558
 31
0.0
  0
LINE
  5
258
330
1F
100
AcDbEntity
  8
GR1_01
  6
Continuous
 62
     3
370
    50
100
AcDbLine
 10
219.9931034482759
 20
229.9309900003558
 30
0.0
 11
226.9782091375918
 21
229.9309900003558
 31
0.0
  0
ARC
  5
259
330
1F
100
AcDbEntity
  8
GR1_01
  6
Continuous
 62
     3
370
    50
100
AcDbCircle
 10
258.7931034482759
 20
245.6809900003557
 30
0.0
 40
24.80000000000004
100
AcDbArc
 50
232.5804487387717
 51
127.4195512612283
  0
LINE
  5
25A
330
1F
100
AcDbEntity
  8
GR1_01
  6
Continuous
 62
     3
370
    50
100
AcDbLine
 10
252.1535753525952
 20
257.1809900003557
 30
0.0
 11
245.5140472569145
 21
245.6809900003557
 31
0.0
  0
LINE
  5
25B
330
1F
100
AcDbEntity
  8
GR1_01
  6
Continuous
 62
     3
370
    50
100
AcDbLine
 10
245.5140472569145
 20
245.6809900003557
 30
0.0
 11
252.1535753525952
 21
234.1809900003557
 31
0.0
  0
LINE
  5
25C
330
1F
100
AcDbEntity
  8
GR1_01
  6
Continuous
 62
     3
370
    50
100
AcDbLine
 10
252.1535753525952
 20
234.1809900003557
 30
0.0
 11
265.4326315439566
 21
234.1809900003557
 31
0.0
  0
LINE
  5
25D
330
1F
100
AcDbEntity
  8
GR1_01
  6
Continuous
 62
     3
370
    50
100
AcDbLine
 10
265.4326315439566
 20
234.1809900003557
 30
0.0
 11
272.0721596396373
 21
245.6809900003557
 31
0.0
  0
LINE
  5
25E
330
1F
100
AcDbEntity
  8
GR1_01
  6
Continuous
 62
     3
370
    50
100
AcDbLine
 10
272.0721596396373
 20
245.6809900003557
 30
0.0
 11
265.4326315439566
 21
257.1809900003557
 31
0.0
  0
LINE
  5
25F
330
1F
100
AcDbEntity
  8
GR1_01
  6
Continuous
 62
     3
370
    50
100
AcDbLine
 10
265.4326315439566
 20
257.1809900003557
 30
0.0
 11
252.1535753525952
 21
257.1809900003557
 31
0.0
  0
CIRCLE
  5
260
330
1F
100
AcDbEntity
  8
GR1_01
  6
Continuous
 62
     3
370
    50
100
AcDbCircle
 10
258.7931034482759
 20
245.6809900003557
 30
0.0
 40
8.0
  0
CIRCLE
  5
261
330
1F
100
AcDbEntity
  8
GR1_01
  6
Continuous
 62
     3
370
    50
100
AcDbCircle
 10
258.7931034482759
 20
245.6809900003558
 30
0.0
 40
22.5
  0
ARC
  5
262
330
1F
100
AcDbEntity
  8
GR1_01
  6
Continuous
 62
     3
370
    50
100
AcDbCircle
 10
258.7931034482759
 20
245.6809900003558
 30
0.0
 40
35.50000000000003
100
AcDbArc
 50
149.4393130733142
 51
210.5606869266858
  0
LINE
  5
263
330
1F
100
AcDbEntity
  8
GR1_01
  6
Continuous
 62
     3
370
    50
100
AcDbLine
 10
226.9782091375918
 20
261.4309900003558
 30
0.0
 11
219.9931034482759
 21
261.4309900003558
 31
0.0
  0
LINE
  5
264
330
1F
100
AcDbEntity
  8
GR1_01
  6
Continuous
 62
     3
370
    50
100
AcDbLine
 10
219.9931034482759
 20
261.4309900003558
 30
0.0
 11
219.9931034482759
 21
263.7309900003559
 31
0.0
  0
LINE
  5
265
330
1F
100
AcDbEntity
  8
GR1_01
  6
DASHDOT
 62
     6
370
    25
100
AcDbLine
 10
105.3905482358757
 20
77.63760919540232
 30
0.0
 11
164.2706397223858
 21
77.63760919540232
 31
0.0
  0
LINE
  5
266
330
1F
100
AcDbEntity
  8
GR1_01
  6
DASHDOT
 62
     6
370
    25
100
AcDbLine
 10
129.0841251201025
 20
36.6457384588324
 30
0.0
 11
129.0841251201025
 21
180.8455399911888
 31
0.0
  0
LINE
  5
267
330
1F
100
AcDbEntity
  8
GR1_01
  6
Continuous
 62
     6
370
    25
100
AcDbLine
 10
122.1666251201025
 20
177.1376091954023
 30
0.0
 11
122.1666251201025
 21
137.1376091954023
 31
0.0
  0
LINE
  5
268
330
1F
100
AcDbEntity
  8
GR1_01
  6
Continuous
 62
     6
370
    25
100
AcDbLine
 10
136.0016251201025
 20
137.1376091954023
 30
0.0
 11
136.0016251201025
 21
177.1376091954023
 31
0.0
  0
LINE
  5
269
330
1F
100
AcDbEntity
  8
GR1_01
  6
Continuous
 62
     6
370
    25
100
AcDbLine
 10
151.6341251201025
 20
130.0876091954022
 30
0.0
 11
106.5341251201025
 21
130.0876091954022
 31
0.0
  0
ARC
  5
26A
330
1F
100
AcDbEntity
  8
GR1_01
  6
Continuous
 62
     6
370
    25
100
AcDbCircle
 10
129.0841251201025
 20
280.0128591954024
 30
0.0
 40
158.0312500000001
100
AcDbArc
 50
263.5509547869602
 51
276.4490452130398
  0
LINE
  5
26B
330
1F
100
AcDbEntity
  8
GR1_01
  6
DASHDOT
 62
     6
370
    25
100
AcDbLine
 10
189.9591819007787
 20
77.63760919540232
 30
0.0
 11
270.0542840075733
 21
77.63760919540232
 31
0.0
  0
LINE
  5
26C
330
1F
100
AcDbEntity
  8
GR1_01
  6
Continuous
 62
     6
370
    25
100
AcDbLine
 10
251.8756034482759
 20
137.1376091954023
 30
0.0
 11
251.8756034482759
 21
177.1376091954023
 31
0.0
  0
LINE
  5
26D
330
1F
100
AcDbEntity
  8
GR1_01
  6
DASHDOT
 62
     6
370
    25
100
AcDbLine
 10
258.7931034482759
 20
180.3289616568462
 30
0.0
 11
258.7931034482759
 21
88.50142343688833
 31
0.0
  0
LINE
  5
26E
330
1F
100
AcDbEntity
  8
GR1_01
  6
DASHDOT
 62
     6
370
    25
100
AcDbLine
 10
230.7931034482758
 20
89.62239398984161
 30
0.0
 11
230.7931034482758
 21
37.81262514453744
 31
0.0
  0
LINE
  5
26F
330
1F
100
AcDbEntity
  8
GR1_01
  6
Continuous
 62
     6
370
    25
100
AcDbLine
 10
258.7931034482758
 20
130.0876091954022
 30
0.0
 11
281.3431034482759
 21
130.0876091954022
 31
0.0
  0
LINE
  5
270
330
1F
100
AcDbEntity
  8
GR1_01
  6
Continuous
 62
     6
370
    25
100
AcDbLine
 10
265.7106034482759
 20
137.1376091954023
 30
0.0
 11
265.7106034482759
 21
177.1376091954023
 31
0.0
  0
LINE
  5
271
330
1F
100
AcDbEntity
  8
GR1_01
  6
DASHDOT
 62
     6
370
    25
100
AcDbLine
 10
258.7931034482759
 20
217.1194107654355
 30
0.0
 11
258.7931034482759
 21
274.7720672655458
 31
0.0
  0
ARC
  5
272
330
1F
100
AcDbEntity
  8
GR1_01
  6
Continuous
 62
     6
370
    25
100
AcDbCircle
 10
258.7931034482759
 20
245.6809900003558
 30
0.0
 40
12.5
100
AcDbArc
 50
66.92608193436867
 51
113.0739180656314
  0
ARC
  5
273
330
1F
100
AcDbEntity
  8
GR1_01
  6
Continuous
 62
     6
370
    25
100
AcDbCircle
 10
258.7931034482759
 20
245.6809900003558
 30
0.0
 40
12.5
100
AcDbArc
 50
126.9260819343689
 51
173.0739180656311
  0
ARC
  5
274
330
1F
100
AcDbEntity
  8
GR1_01
  6
Continuous
 62
     6
370
    25
100
AcDbCircle
 10
258.7931034482759
 20
245.6809900003558
 30
0.0
 40
12.5
100
AcDbArc
 50
186.9260819343693
 51
233.0739180656307
  0
ARC
  5
275
330
1F
100
AcDbEntity
  8
GR1_01
  6
Continuous
 62
     6
370
    25
100
AcDbCircle
 10
258.7931034482759
 20
245.6809900003558
 30
0.0
 40
12.5
100
AcDbArc
 50
246.9260819343694
 51
293.0739180656306
  0
ARC
  5
276
330
1F
100
AcDbEntity
  8
GR1_01
  6
Continuous
 62
     6
370
    25
100
AcDbCircle
 10
258.7931034482759
 20
245.6809900003558
 30
0.0
 40
12.5
100
AcDbArc
 50
306.9260819343692
 51
353.0739180656307
  0
ARC
  5
277
330
1F
100
AcDbEntity
  8
GR1_01
  6
Continuous
 62
     6
370
    25
100
AcDbCircle
 10
258.7931034482759
 20
245.6809900003558
 30
0.0
 40
12.5
100
AcDbArc
 50
6.926081934369004
 51
53.07391806563109
  0
CIRCLE
  5
278
330
1F
100
AcDbEntity
  8
GR1_01
  6
Continuous
 62
     6
370
    25
100
AcDbCircle
 10
258.7931034482759
 20
245.6809900003557
 30
0.0
 40
6.917500000000018
  0
CIRCLE
  5
279
330
1F
100
AcDbEntity
  8
GR1_01
  6
Continuous
 62
     6
370
    25
100
AcDbCircle
 10
258.7931034482759
 20
245.6809900003558
 30
0.0
 40
17.25
  0
CIRCLE
  5
27A
330
1F
100
AcDbEntity
  8
GR1_01
  6
Continuous
 62
     6
370
    25
100
AcDbCircle
 10
258.7931034482759
 20
245.6809900003558
 30
0.0
 40
18.25
  0
LINE
  5
27B
330
1F
100
AcDbEntity
  8
GR1_01
  6
DASHDOT
 62
     6
370
    25
100
AcDbLine
 10
284.1927141109427
 20
245.6809900003558
 30
0.0
 11
190.7656439051518
 21
245.6809900003558
 31
0.0
  0
LINE
  5
27D
330
1F
100
AcDbEntity
  8
基準ﾚｲﾔｸﾞﾙｰﾌﾟ_01
  6
Continuous
 62
     6
370
    25
100
AcDbLine
 10
250.7931034482759
 20
176.1376091954023
 30
0.0
 11
266.7931034482759
 21
176.1376091954023
 31
0.0
  0
LINE
  5
27E
330
1F
100
AcDbEntity
  8
基準ﾚｲﾔｸﾞﾙｰﾌﾟ_01
  6
Continuous
 62
     6
370
    25
100
AcDbLine
 10
121.0841251201025
 20
176.1376091954023
 30
0.0
 11
137.0841251201025
 21
176.1376091954023
 31
0.0
  0
TEXT
  5
27F
330
1F
100
AcDbEntity
  8
基準ﾚｲﾔｸﾞﾙｰﾌﾟ_01
  6
Continuous
 62
     7
370
    25
100
AcDbText
 10
241.7931060791016
 20
31.13760375924203
 30
0.0
 40
4.0
  1
２８
 41
0.9545454545454547
  7
FX_VECTOR
 72
     5
 11
247.7931060791016
 21
31.13760376028922
 31
0.0
100
AcDbText
  0
LINE
  5
280
330
1F
100
AcDbEntity
  8
基準ﾚｲﾔｸﾞﾙｰﾌﾟ_01
  6
Continuous
 62
     7
370
    25
100
AcDbLine
 10
230.7931034482758
 20
30.13760919540243
 30
0.0
 11
258.7931034482759
 21
30.13760919540243
 31
0.0
  0
INSERT
  5
281
330
1F
100
AcDbEntity
  8
基準ﾚｲﾔｸﾞﾙｰﾌﾟ_01
  6
Continuous
 62
     7
370
    25
100
AcDbBlockReference
  2
FXTIP_ARROW_S
 10
230.7931034482758
 20
30.13760919540243
 30
0.0
 41
4.0
 42
4.0
 50
180.0
  0
INSERT
  5
282
330
1F
100
AcDbEntity
  8
基準ﾚｲﾔｸﾞﾙｰﾌﾟ_01
  6
Continuous
 62
     7
370
    25
100
AcDbBlockReference
  2
FXTIP_ARROW_E
 10
258.7931034482759
 20
30.13760919540243
 30
0.0
 41
4.0
 42
4.0
 50
360.0
  0
LINE
  5
283
330
1F
100
AcDbEntity
  8
基準ﾚｲﾔｸﾞﾙｰﾌﾟ_01
  6
Continuous
 62
     7
370
    25
100
AcDbLine
 10
230.7931034482758
 20
36.81262514453744
 30
0.0
 11
230.7931034482758
 21
29.13760919540243
 31
0.0
  0
LINE
  5
284
330
1F
100
AcDbEntity
  8
基準ﾚｲﾔｸﾞﾙｰﾌﾟ_01
  6
Continuous
 62
     7
370
    25
100
AcDbLine
 10
258.7931034482759
 20
85.92469700590607
 30
0.0
 11
258.7931034482759
 21
29.13760919540243
 31
0.0
  0
TEXT
  5
285
330
1F
100
AcDbEntity
  8
基準ﾚｲﾔｸﾞﾙｰﾌﾟ_01
  6
Continuous
 62
     7
370
    25
100
AcDbText
 10
302.5930786132812
 20
85.63760375976562
 30
0.0
 40
4.0
  1
９７
 50
90.0
 41
0.9545454545454547
  7
FX_VECTOR
 72
     5
 11
302.5930786132812
 21
91.63760375976562
 31
0.0
100
AcDbText
  0
LINE
  5
286
330
1F
100
AcDbEntity
  8
基準ﾚｲﾔｸﾞﾙｰﾌﾟ_01
  6
Continuous
 62
     7
370
    25
100
AcDbLine
 10
303.5931034482759
 20
40.13760919540238
 30
0.0
 11
303.5931034482759
 21
137.1376091954023
 31
0.0
  0
INSERT
  5
287
330
1F
100
AcDbEntity
  8
基準ﾚｲﾔｸﾞﾙｰﾌﾟ_01
  6
Continuous
 62
     7
370
    25
100
AcDbBlockReference
  2
FXTIP_ARROW_S
 10
303.5931034482759
 20
40.13760919540238
 30
0.0
 41
4.0
 42
4.0
 50
270.0
  0
INSERT
  5
288
330
1F
100
AcDbEntity
  8
基準ﾚｲﾔｸﾞﾙｰﾌﾟ_01
  6
Continuous
 62
     7
370
    25
100
AcDbBlockReference
  2
FXTIP_ARROW_E
 10
303.5931034482759
 20
137.1376091954023
 30
0.0
 41
4.0
 42
4.0
 50
90.0
  0
LINE
  5
289
330
1F
100
AcDbEntity
  8
基準ﾚｲﾔｸﾞﾙｰﾌﾟ_01
  6
Continuous
 62
     7
370
    25
100
AcDbLine
 10
231.793103448276
 20
40.13760919540238
 30
0.0
 11
304.5931034482759
 21
40.13760919540238
 31
0.0
  0
LINE
  5
28A
330
1F
100
AcDbEntity
  8
基準ﾚｲﾔｸﾞﾙｰﾌﾟ_01
  6
Continuous
 62
     7
370
    25
100
AcDbLine
 10
273.0721596396372
 20
137.1376091954023
 30
0.0
 11
304.5931034482759
 21
137.1376091954023
 31
0.0
  0
TEXT
  5
28B
330
1F
100
AcDbEntity
  8
基準ﾚｲﾔｸﾞﾙｰﾌﾟ_01
  6
Continuous
 62
     7
370
    25
100
AcDbText
 10
292.5930786132812
 20
101.3876037597656
 30
0.0
 40
4.0
  1
５９．５
 50
90.0
 41
0.9130434782608696
  7
FX_VECTOR
 72
     5
 11
292.5930786132812
 21
113.3876037597656
 31
0.0
100
AcDbText
  0
LINE
  5
28C
330
1F
100
AcDbEntity
  8
基準ﾚｲﾔｸﾞﾙｰﾌﾟ_01
  6
Continuous
 62
     7
370
    25
100
AcDbLine
 10
293.5931034482759
 20
77.63760919540232
 30
0.0
 11
293.5931034482759
 21
137.1376091954023
 31
0.0
  0
INSERT
  5
28D
330
1F
100
AcDbEntity
  8
基準ﾚｲﾔｸﾞﾙｰﾌﾟ_01
  6
Continuous
 62
     7
370
    25
100
AcDbBlockReference
  2
FXTIP_ARROW_S
 10
293.5931034482759
 20
77.63760919540232
 30
0.0
 41
4.0
 42
4.0
 50
270.0
  0
INSERT
  5
28E
330
1F
100
AcDbEntity
  8
基準ﾚｲﾔｸﾞﾙｰﾌﾟ_01
  6
Continuous
 62
     7
370
    25
100
AcDbBlockReference
  2
FXTIP_ARROW_E
 10
293.5931034482759
 20
137.1376091954023
 30
0.0
 41
4.0
 42
4.0
 50
90.0
  0
LINE
  5
28F
330
1F
100
AcDbEntity
  8
基準ﾚｲﾔｸﾞﾙｰﾌﾟ_01
  6
Continuous
 62
     7
370
    25
100
AcDbLine
 10
271.0542840075733
 20
77.63760919540232
 30
0.0
 11
294.5931034482759
 21
77.63760919540232
 31
0.0
  0
TEXT
  5
290
330
1F
100
AcDbEntity
  8
基準ﾚｲﾔｸﾞﾙｰﾌﾟ_01
  6
Continuous
 62
     7
370
    25
100
AcDbText
 10
292.5930786132812
 20
154.1376190185547
 30
0.0
 40
4.0
  1
４０
 50
90.0
 41
0.9545454545454547
  7
FX_VECTOR
 72
     5
 11
292.5930786132812
 21
160.1376190185547
 31
0.0
100
AcDbText
  0
LINE
  5
291
330
1F
100
AcDbEntity
  8
基準ﾚｲﾔｸﾞﾙｰﾌﾟ_01
  6
Continuous
 62
     7
370
    25
100
AcDbLine
 10
293.5931034482759
 20
137.1376091954023
 30
0.0
 11
293.5931034482759
 21
177.1376091954023
 31
0.0
  0
INSERT
  5
292
330
1F
100
AcDbEntity
  8
基準ﾚｲﾔｸﾞﾙｰﾌﾟ_01
  6
Continuous
 62
     7
370
    25
100
AcDbBlockReference
  2
FXTIP_ARROW_S
 10
293.5931034482759
 20
137.1376091954023
 30
0.0
 41
4.0
 42
4.0
 50
270.0
  0
INSERT
  5
293
330
1F
100
AcDbEntity
  8
基準ﾚｲﾔｸﾞﾙｰﾌﾟ_01
  6
Continuous
 62
     7
370
    25
100
AcDbBlockReference
  2
FXTIP_ARROW_E
 10
293.5931034482759
 20
177.1376091954023
 30
0.0
 41
4.0
 42
4.0
 50
90.0
  0
LINE
  5
294
330
1F
100
AcDbEntity
  8
基準ﾚｲﾔｸﾞﾙｰﾌﾟ_01
  6
Continuous
 62
     7
370
    25
100
AcDbLine
 10
266.7106034482759
 20
177.1376091954023
 30
0.0
 11
294.5931034482759
 21
177.1376091954023
 31
0.0
  0
ARC
  5
295
330
1F
100
AcDbEntity
  8
GR1_01
  6
Continuous
 62
     3
370
    50
100
AcDbCircle
 10
258.7931034482759
 20
126.8596091954023
 30
0.0
 40
2.778
100
AcDbArc
 50
325.3867171375784
 51
354.3810435975624
  0
ARC
  5
296
330
1F
100
AcDbEntity
  8
GR1_01
  6
Continuous
 62
     3
370
    50
100
AcDbCircle
 10
264.2802461880532
 20
126.8596091954016
 30
0.0
 40
2.778
100
AcDbArc
 50
325.3867171375962
 51
354.381043597577
  0
ARC
  5
297
330
1F
100
AcDbEntity
  8
GR1_01
  6
Continuous
 62
     3
370
    50
100
AcDbCircle
 10
269.226728978628
 20
126.8596091954016
 30
0.0
 40
2.778
100
AcDbArc
 50
207.0895747336902
 51
214.6132828624051
  0
ARC
  5
298
330
1F
100
AcDbEntity
  8
GR1_01
  6
Continuous
 62
     3
370
    50
100
AcDbCircle
 10
264.2802461880532
 20
126.8596091954016
 30
0.0
 40
2.778
100
AcDbArc
 50
189.0298582445553
 51
214.6132828624038
  0
ARC
  5
299
330
1F
100
AcDbEntity
  8
GR1_01
  6
Continuous
 62
     3
370
    50
100
AcDbCircle
 10
269.226728978628
 20
126.8596091954016
 30
0.0
 40
2.778
100
AcDbArc
 50
325.3867171375948
 51
354.3810435975759
  0
ARC
  5
29A
330
1F
100
AcDbEntity
  8
GR1_01
  6
Continuous
 62
     3
370
    50
100
AcDbCircle
 10
273.1451642558141
 20
126.8596091954014
 30
0.0
 40
2.778
100
AcDbArc
 50
325.3867171375997
 51
354.38104359758
  0
ARC
  5
29B
330
1F
100
AcDbEntity
  8
GR1_01
  6
Continuous
 62
     3
370
    50
100
AcDbCircle
 10
275.6494601830426
 20
126.8596091954018
 30
0.0
 40
2.778
100
AcDbArc
 50
325.3867171375905
 51
354.3810435975723
  0
ARC
  5
29C
330
1F
100
AcDbEntity
  8
GR1_01
  6
Continuous
 62
     3
370
    50
100
AcDbCircle
 10
276.4928631085475
 20
126.8596091954014
 30
0.0
 40
2.778
100
AcDbArc
 50
325.3867171376013
 51
354.3810435975812
  0
ARC
  5
29D
330
1F
100
AcDbEntity
  8
GR1_01
  6
Continuous
 62
     3
370
    50
100
AcDbCircle
 10
129.0841251201026
 20
126.8596091954023
 30
0.0
 40
2.778
100
AcDbArc
 50
325.3867171375784
 51
354.3810435975624
  0
ARC
  5
29E
330
1F
100
AcDbEntity
  8
GR1_01
  6
Continuous
 62
     3
370
    50
100
AcDbCircle
 10
134.5712678598798
 20
126.8596091954016
 30
0.0
 40
2.778
100
AcDbArc
 50
325.3867171375962
 51
354.381043597577
  0
ARC
  5
29F
330
1F
100
AcDbEntity
  8
GR1_01
  6
Continuous
 62
     3
370
    50
100
AcDbCircle
 10
139.5177506504546
 20
126.8596091954016
 30
0.0
 40
2.778
100
AcDbArc
 50
207.0895747336902
 51
214.6132828624051
  0
ARC
  5
2A0
330
1F
100
AcDbEntity
  8
GR1_01
  6
Continuous
 62
     3
370
    50
100
AcDbCircle
 10
134.5712678598798
 20
126.8596091954016
 30
0.0
 40
2.778
100
AcDbArc
 50
189.0298582445553
 51
214.6132828624038
  0
ARC
  5
2A1
330
1F
100
AcDbEntity
  8
GR1_01
  6
Continuous
 62
     3
370
    50
100
AcDbCircle
 10
139.5177506504546
 20
126.8596091954016
 30
0.0
 40
2.778
100
AcDbArc
 50
325.3867171375948
 51
354.3810435975759
  0
ARC
  5
2A2
330
1F
100
AcDbEntity
  8
GR1_01
  6
Continuous
 62
     3
370
    50
100
AcDbCircle
 10
143.4361859276407
 20
126.8596091954014
 30
0.0
 40
2.778
100
AcDbArc
 50
325.3867171375997
 51
354.38104359758
  0
ARC
  5
2A3
330
1F
100
AcDbEntity
  8
GR1_01
  6
Continuous
 62
     3
370
    50
100
AcDbCircle
 10
145.9404818548692
 20
126.8596091954018
 30
0.0
 40
2.778
100
AcDbArc
 50
325.3867171375905
 51
354.3810435975723
  0
ARC
  5
2A4
330
1F
100
AcDbEntity
  8
GR1_01
  6
Continuous
 62
     3
370
    50
100
AcDbCircle
 10
146.7838847803741
 20
126.8596091954014
 30
0.0
 40
2.778
100
AcDbArc
 50
325.3867171376013
 51
354.3810435975812
  0
ARC
  5
2A5
330
1F
100
AcDbEntity
  8
GR1_01
  6
Continuous
 62
     3
370
    50
100
AcDbCircle
 10
129.0841251201027
 20
126.8596091954023
 30
0.0
 40
2.778
100
AcDbArc
 50
185.6189564024376
 51
214.6132828624216
  0
ARC
  5
2A6
330
1F
100
AcDbEntity
  8
GR1_01
  6
Continuous
 62
     3
370
    50
100
AcDbCircle
 10
123.5969823803255
 20
126.8596091954016
 30
0.0
 40
2.778
100
AcDbArc
 50
185.6189564024229
 51
214.6132828624038
  0
ARC
  5
2A7
330
1F
100
AcDbEntity
  8
GR1_01
  6
Continuous
 62
     3
370
    50
100
AcDbCircle
 10
118.6504995897507
 20
126.8596091954016
 30
0.0
 40
2.778
100
AcDbArc
 50
325.3867171375948
 51
332.9104252663099
  0
ARC
  5
2A8
330
1F
100
AcDbEntity
  8
GR1_01
  6
Continuous
 62
     3
370
    50
100
AcDbCircle
 10
123.5969823803255
 20
126.8596091954016
 30
0.0
 40
2.778
100
AcDbArc
 50
325.3867171375962
 51
350.9701417554412
  0
ARC
  5
2A9
330
1F
100
AcDbEntity
  8
GR1_01
  6
Continuous
 62
     3
370
    50
100
AcDbCircle
 10
118.6504995897507
 20
126.8596091954016
 30
0.0
 40
2.778
100
AcDbArc
 50
185.6189564024241
 51
214.6132828624051
  0
ARC
  5
2AA
330
1F
100
AcDbEntity
  8
GR1_01
  6
Continuous
 62
     3
370
    50
100
AcDbCircle
 10
114.7320643125645
 20
126.8596091954014
 30
0.0
 40
2.778
100
AcDbArc
 50
185.6189564024199
 51
214.6132828624003
  0
ARC
  5
2AB
330
1F
100
AcDbEntity
  8
GR1_01
  6
Continuous
 62
     3
370
    50
100
AcDbCircle
 10
112.227768385336
 20
126.8596091954018
 30
0.0
 40
2.778
100
AcDbArc
 50
185.6189564024276
 51
214.6132828624095
  0
ARC
  5
2AC
330
1F
100
AcDbEntity
  8
GR1_01
  6
Continuous
 62
     3
370
    50
100
AcDbCircle
 10
111.3843654598311
 20
126.8596091954014
 30
0.0
 40
2.778
100
AcDbArc
 50
185.6189564024188
 51
214.6132828623988
  0
LINE
  5
2AD
330
1F
100
AcDbEntity
  8
GR1_01
  6
Continuous
 62
     3
370
    50
100
AcDbLine
 10
144.8341251201025
 20
81.63760919540232
 30
0.0
 11
144.5841251201025
 21
81.63760919540232
 31
0.0
  0
LINE
  5
2AE
330
1F
100
AcDbEntity
  8
GR1_01
  6
Continuous
 62
     3
370
    50
100
AcDbLine
 10
113.3341251201025
 20
81.63760919540232
 30
0.0
 11
113.5841251201024
 21
81.63760919540232
 31
0.0
  0
LINE
  5
2AF
330
1F
100
AcDbEntity
  8
GR1_01
  6
Continuous
 62
     3
370
    50
100
AcDbLine
 10
113.5841251201024
 20
73.63760919540232
 30
0.0
 11
113.3341251201025
 21
73.63760919540232
 31
0.0
  0
LINE
  5
2B0
330
1F
100
AcDbEntity
  8
GR1_01
  6
Continuous
 62
     3
370
    50
100
AcDbLine
 10
144.5841251201025
 20
73.63760919540232
 30
0.0
 11
144.8341251201025
 21
73.63760919540232
 31
0.0
  0
ARC
  5
2B1
330
1F
100
AcDbEntity
  8
GR1_01
  6
Continuous
 62
     3
370
    50
100
AcDbCircle
 10
238.8622856025375
 20
219.6309900003557
 30
0.0
 40
8.0
100
AcDbArc
 50
52.58044873877162
 51
90.0
  0
INSERT
  5
2B5
330
1F
100
AcDbEntity
  8
GR1_01
  6
Continuous
 62
     3
370
    50
100
AcDbBlockReference
  2
BLKF022
 10
0.0
 20
0.0
 30
0.0
  0
INSERT
  5
302
330
1F
100
AcDbEntity
  8
GR1_01
  6
Continuous
 62
     3
370
    50
100
AcDbBlockReference
  2
BLKF023
 10
0.0
 20
0.0
 30
0.0
  0
LINE
  5
344
330
1F
100
AcDbEntity
  8
基準ﾚｲﾔｸﾞﾙｰﾌﾟ_01
  6
DASHDOT
 62
     6
370
    25
100
AcDbLine
 10
230.7931034482758
 20
212.1780406112622
 30
0.0
 11
230.7931034482758
 21
219.0309900003556
 31
0.0
  0
LINE
  5
345
330
1F
100
AcDbEntity
  8
基準ﾚｲﾔｸﾞﾙｰﾌﾟ_01
  6
DASHDOT
 62
     6
370
    25
100
AcDbLine
 10
230.7931034482758
 20
222.0309900003556
 30
0.0
 11
230.7931034482758
 21
267.7387132789058
 31
0.0
  0
LINE
  5
346
330
1F
100
AcDbEntity
  8
GR1_01
  6
Continuous
 62
     3
370
    50
100
AcDbLine
 10
258.7931034482759
 20
125.2816091954023
 30
0.0
 11
237.4916745851831
 21
125.2816091954023
 31
0.0
  0
LINE
  5
347
330
1F
100
AcDbEntity
  8
GR1_01
  6
Continuous
 62
     3
370
    50
100
AcDbLine
 10
236.2431034482759
 20
126.5876091954023
 30
0.0
 11
258.7931034482759
 21
126.5876091954023
 31
0.0
  0
LINE
  5
348
330
1F
100
AcDbEntity
  8
GR1_01
  6
Continuous
 62
     3
370
    50
100
AcDbLine
 10
252.1535753525952
 20
137.1376091954023
 30
0.0
 11
252.1535753525952
 21
132.5876091954023
 31
0.0
  0
LINE
  5
349
330
1F
100
AcDbEntity
  8
GR1_01
  6
Continuous
 62
     3
370
    50
100
AcDbLine
 10
245.5140472569145
 20
132.5876091954023
 30
0.0
 11
245.5140472569145
 21
137.1376091954023
 31
0.0
  0
LINE
  5
34A
330
1F
100
AcDbEntity
  8
GR1_01
  6
Continuous
 62
     3
370
    50
100
AcDbLine
 10
245.5140472569145
 20
137.1376091954023
 30
0.0
 11
258.7931034482759
 21
137.1376091954023
 31
0.0
  0
LINE
  5
34B
330
1F
100
AcDbEntity
  8
GR1_01
  6
Continuous
 62
     3
370
    50
100
AcDbLine
 10
258.7931034482759
 20
132.5876091954023
 30
0.0
 11
240.4931034482759
 21
132.5876091954023
 31
0.0
  0
ARC
  5
34C
330
1F
100
AcDbEntity
  8
GR1_01
  6
Continuous
 62
     3
370
    50
100
AcDbCircle
 10
241.1415487271039
 20
126.6227522213948
 30
0.0
 40
6.0
100
AcDbArc
 50
96.20431426676518
 51
144.7267755721551
  0
LINE
  5
34D
330
1F
100
AcDbEntity
  8
GR1_01
  6
Continuous
 62
     3
370
    50
100
AcDbLine
 10
236.2431034482759
 20
130.0876091954023
 30
0.0
 11
236.2431034482759
 21
126.5876091954023
 31
0.0
  0
LINE
  5
34E
330
1F
100
AcDbEntity
  8
GR1_01
  6
Continuous
 62
     6
370
    25
100
AcDbLine
 10
258.7931034482759
 20
130.0876091954022
 30
0.0
 11
236.2431034482759
 21
130.0876091954022
 31
0.0
  0
ARC
  5
34F
330
1F
100
AcDbEntity
  8
GR1_01
  6
Continuous
 62
     3
370
    50
100
AcDbCircle
 10
258.7931034482758
 20
126.8596091954023
 30
0.0
 40
2.778
100
AcDbArc
 50
185.6189564024377
 51
214.6132828624219
  0
ARC
  5
350
330
1F
100
AcDbEntity
  8
GR1_01
  6
Continuous
 62
     3
370
    50
100
AcDbCircle
 10
253.3059607084986
 20
126.8596091954016
 30
0.0
 40
2.778
100
AcDbArc
 50
185.6189564024228
 51
214.6132828624038
  0
ARC
  5
351
330
1F
100
AcDbEntity
  8
GR1_01
  6
Continuous
 62
     3
370
    50
100
AcDbCircle
 10
248.3594779179237
 20
126.8596091954016
 30
0.0
 40
2.778
100
AcDbArc
 50
325.3867171375946
 51
332.9104252663099
  0
ARC
  5
352
330
1F
100
AcDbEntity
  8
GR1_01
  6
Continuous
 62
     3
370
    50
100
AcDbCircle
 10
253.3059607084986
 20
126.8596091954016
 30
0.0
 40
2.778
100
AcDbArc
 50
325.3867171375962
 51
350.9701417554446
  0
ARC
  5
353
330
1F
100
AcDbEntity
  8
GR1_01
  6
Continuous
 62
     3
370
    50
100
AcDbCircle
 10
248.3594779179237
 20
126.8596091954016
 30
0.0
 40
2.778
100
AcDbArc
 50
185.6189564024241
 51
214.6132828624054
  0
ARC
  5
354
330
1F
100
AcDbEntity
  8
GR1_01
  6
Continuous
 62
     3
370
    50
100
AcDbCircle
 10
244.4410426407377
 20
126.8596091954014
 30
0.0
 40
2.778
100
AcDbArc
 50
185.6189564024199
 51
214.6132828624
  0
ARC
  5
355
330
1F
100
AcDbEntity
  8
GR1_01
  6
Continuous
 62
     3
370
    50
100
AcDbCircle
 10
241.9367467135091
 20
126.8596091954018
 30
0.0
 40
2.778
100
AcDbArc
 50
185.6189564024276
 51
214.6132828624096
  0
ARC
  5
356
330
1F
100
AcDbEntity
  8
GR1_01
  6
Continuous
 62
     3
370
    50
100
AcDbCircle
 10
241.0933437880043
 20
126.8596091954014
 30
0.0
 40
2.778
100
AcDbArc
 50
185.6189564024188
 51
214.6132828623984
  0
LINE
  5
357
330
1F
100
AcDbEntity
  8
GR1_01
  6
Continuous
 62
     3
370
    50
100
AcDbLine
 10
223.6924942569098
 20
117.9298526698936
 30
0.0
 11
223.2931034482759
 21
120.1949105018217
 31
0.0
  0
LINE
  5
358
330
1F
100
AcDbEntity
  8
GR1_01
  6
Continuous
 62
     3
370
    50
100
AcDbLine
 10
223.2931034482759
 20
120.1949105018217
 30
0.0
 11
239.5273223105661
 21
123.0574412979698
 31
0.0
  0
LINE
  5
359
330
1F
100
AcDbEntity
  8
GR1_01
  6
Continuous
 62
     3
370
    50
100
AcDbLine
 10
225.3091734055495
 20
118.2149168229476
 30
0.0
 11
223.6924942569098
 21
117.9298526698936
 31
0.0
  0
LINE
  5
35A
330
1F
100
AcDbEntity
  8
GR1_01
  6
Continuous
 62
     6
370
    25
100
AcDbLine
 10
244.1972992566596
 20
81.64909647204672
 30
0.0
 11
244.1972992566596
 21
122.8527287933083
 31
0.0
  0
ARC
  5
35B
330
1F
100
AcDbEntity
  8
GR1_01
  6
Continuous
 62
     3
370
    50
100
AcDbCircle
 10
237.4916745851831
 20
121.7816091954023
 30
0.0
 40
3.5
100
AcDbArc
 50
90.0
 51
175.0492075817078
  0
LINE
  5
35C
330
1F
100
AcDbEntity
  8
GR1_01
  6
Continuous
 62
     3
370
    50
100
AcDbLine
 10
152.7341251201025
 20
81.10171081054011
 30
0.0
 11
155.7341251201024
 21
81.10171081054011
 31
0.0
  0
ARC
  5
35D
330
1F
100
AcDbEntity
  8
GR1_01
  6
Continuous
 62
     3
370
    50
100
AcDbCircle
 10
150.2341251201026
 20
77.63760919540243
 30
0.0
 40
6.499999999999918
100
AcDbArc
 50
327.7957724960274
 51
32.20422750397225
  0
ARC
  5
35E
330
1F
100
AcDbEntity
  8
GR1_01
  6
Continuous
 62
     3
370
    50
100
AcDbCircle
 10
154.7341251201029
 20
72.4414567726958
 30
0.0
 40
1.999999999999807
100
AcDbArc
 50
299.9999999999901
 51
60.00000000000879
  0
LINE
  5
35F
330
1F
100
AcDbEntity
  8
GR1_01
  6
Continuous
 62
     3
370
    50
100
AcDbLine
 10
155.7341251201023
 20
70.70940596512685
 30
0.0
 11
152.7341251201026
 21
70.70940596512685
 31
0.0
  0
ARC
  5
360
330
1F
100
AcDbEntity
  8
GR1_01
  6
Continuous
 62
     3
370
    50
100
AcDbCircle
 10
153.7341251201022
 20
72.44145677269574
 30
0.0
 40
1.999999999999807
100
AcDbArc
 50
119.999999999991
 51
240.0000000000099
  0
LINE
  5
361
330
1F
100
AcDbEntity
  8
GR1_01
  6
Continuous
 62
     3
370
    50
100
AcDbLine
 10
152.7341251201025
 20
74.17350758026464
 30
0.0
 11
155.7341251201025
 21
74.17350758026458
 31
0.0
  0
LINE
  5
362
330
1F
100
AcDbEntity
  8
GR1_01
  6
Continuous
 62
     3
370
    50
100
AcDbLine
 10
158.2341251201026
 20
82.38760919540232
 30
0.0
 11
156.067052727174
 21
84.32483639635018
 31
0.0
  0
LINE
  5
363
330
1F
100
AcDbEntity
  8
GR1_01
  6
Continuous
 62
     3
370
    50
100
AcDbLine
 10
155.7341251201026
 20
84.5658124256779
 30
0.0
 11
152.7341251201026
 21
84.56581242567779
 31
0.0
  0
ARC
  5
364
330
1F
100
AcDbEntity
  8
GR1_01
  6
Continuous
 62
     3
370
    50
100
AcDbCircle
 10
154.7341251201029
 20
82.83376161810901
 30
0.0
 40
1.999999999999807
100
AcDbArc
 50
299.999999999991
 51
60.00000000000996
  0
LINE
  5
365
330
1F
100
AcDbEntity
  8
GR1_01
  6
Continuous
 62
     3
370
    50
100
AcDbLine
 10
158.2341251201026
 20
82.38760919540232
 30
0.0
 11
158.2341251201026
 21
72.88760919540238
 31
0.0
  0
LINE
  5
366
330
1F
100
AcDbEntity
  8
GR1_01
  6
Continuous
 62
     3
370
    50
100
AcDbLine
 10
158.2341251201026
 20
72.88760919540243
 30
0.0
 11
156.067052727174
 21
70.95038199445457
 31
0.0
  0
ARC
  5
367
330
1F
100
AcDbEntity
  8
GR1_01
  6
Continuous
 62
     3
370
    50
100
AcDbCircle
 10
158.2341251201024
 20
77.63760919540232
 30
0.0
 40
6.499999999999918
100
AcDbArc
 50
147.7957724960277
 51
212.2042275039726
  0
ARC
  5
368
330
1F
100
AcDbEntity
  8
GR1_01
  6
Continuous
 62
     3
370
    50
100
AcDbCircle
 10
153.7341251201022
 20
82.83376161810895
 30
0.0
 40
1.999999999999807
100
AcDbArc
 50
119.9999999999901
 51
126.8698976458376
  0
LINE
  5
369
330
1F
100
AcDbEntity
  8
GR1_01
  6
Continuous
 62
     6
370
    25
100
AcDbLine
 10
158.2341251201025
 20
75.63760919540243
 30
0.0
 11
156.690710905175
 21
76.88760919540232
 31
0.0
  0
LINE
  5
36A
330
1F
100
AcDbEntity
  8
GR1_01
  6
Continuous
 62
     6
370
    25
100
AcDbLine
 10
146.7775393350301
 20
76.88760919540232
 30
0.0
 11
146.7341251201025
 21
77.63760919540232
 31
0.0
  0
LINE
  5
36B
330
1F
100
AcDbEntity
  8
GR1_01
  6
Continuous
 62
     6
370
    25
100
AcDbLine
 10
146.7341251201025
 20
77.63760919540232
 30
0.0
 11
146.7775393350301
 21
78.38760919540232
 31
0.0
  0
LINE
  5
36C
330
1F
100
AcDbEntity
  8
GR1_01
  6
Continuous
 62
     6
370
    25
100
AcDbLine
 10
156.690710905175
 20
78.38760919540232
 30
0.0
 11
158.2341251201025
 21
79.63760919540232
 31
0.0
  0
ARC
  5
36D
330
1F
100
AcDbEntity
  8
GR1_01
  6
Continuous
 62
     3
370
    50
100
AcDbCircle
 10
153.7341251201022
 20
82.83376161810895
 30
0.0
 40
1.999999999999807
100
AcDbArc
 50
224.4436955989797
 51
240.0000000000091
  0
ARC
  5
36E
330
1F
100
AcDbEntity
  8
基準ﾚｲﾔｸﾞﾙｰﾌﾟ_01
  6
Continuous
 62
     7
370
    25
100
AcDbCircle
 10
258.7931034482759
 20
245.6809900003557
 30
0.0
 40
70.40012640225099
100
AcDbArc
 50
191.8098205641527
 51
214.9144956763083
  0
TEXT
  5
36F
330
1F
100
AcDbEntity
  8
基準ﾚｲﾔｸﾞﾙｰﾌﾟ_01
  6
Continuous
 62
     7
370
    25
100
AcDbText
 10
177.2665816194904
 20
225.8610169016467
 30
0.0
 40
4.0
  1
７１
 50
14.34704494476333
 41
0.9545454545454548
  7
FX_VECTOR
 72
     5
 11
183.079457198869
 21
227.3477843678845
 31
0.0
100
AcDbText
  0
LINE
  5
370
330
1F
100
AcDbEntity
  8
基準ﾚｲﾔｸﾞﾙｰﾌﾟ_01
  6
Continuous
 62
     7
370
    25
100
AcDbLine
 10
190.5885742035826
 20
228.2362203554827
 30
0.0
 11
258.7931034482759
 21
245.6809900003557
 31
0.0
  0
LINE
  5
371
330
1F
100
AcDbEntity
  8
基準ﾚｲﾔｸﾞﾙｰﾌﾟ_01
  6
Continuous
 62
     7
370
    25
100
AcDbLine
 10
190.5885742035826
 20
228.2362203554827
 30
0.0
 11
170.2530355423979
 21
223.0349706514335
 31
0.0
  0
INSERT
  5
372
330
1F
100
AcDbEntity
  8
基準ﾚｲﾔｸﾞﾙｰﾌﾟ_01
  6
Continuous
 62
     7
370
    25
100
AcDbBlockReference
  2
FXTIP_ARROW_S
 10
190.5885742035826
 20
228.2362203554827
 30
0.0
 41
4.0
 42
4.0
 50
14.34704498891449
  0
TEXT
  5
373
330
1F
100
AcDbEntity
  8
基準ﾚｲﾔｸﾞﾙｰﾌﾟ_01
  6
Continuous
 62
     7
370
    25
100
AcDbText
 10
88.43052673339844
 20
76.13760375976562
 30
0.0
 40
4.0
  1
７５
 50
90.0
 41
0.9545454545454547
  7
FX_VECTOR
 72
     5
 11
88.43052673339844
 21
82.13760375976562
 31
0.0
100
AcDbText
  0
LINE
  5
374
330
1F
100
AcDbEntity
  8
基準ﾚｲﾔｸﾞﾙｰﾌﾟ_01
  6
Continuous
 62
     7
370
    25
100
AcDbLine
 10
89.43051655394055
 20
40.13760919540232
 30
0.0
 11
89.43051655394055
 21
115.1376091954023
 31
0.0
  0
INSERT
  5
375
330
1F
100
AcDbEntity
  8
基準ﾚｲﾔｸﾞﾙｰﾌﾟ_01
  6
Continuous
 62
     7
370
    25
100
AcDbBlockReference
  2
FXTIP_ARROW_S
 10
89.43051655394055
 20
40.13760919540232
 30
0.0
 41
4.0
 42
4.0
 50
270.0
  0
INSERT
  5
376
330
1F
100
AcDbEntity
  8
基準ﾚｲﾔｸﾞﾙｰﾌﾟ_01
  6
Continuous
 62
     7
370
    25
100
AcDbBlockReference
  2
FXTIP_ARROW_E
 10
89.43051655394055
 20
115.1376091954023
 30
0.0
 41
4.0
 42
4.0
 50
90.0
  0
LINE
  5
377
330
1F
100
AcDbEntity
  8
基準ﾚｲﾔｸﾞﾙｰﾌﾟ_01
  6
Continuous
 62
     7
370
    25
100
AcDbLine
 10
128.0841251201025
 20
40.13760919540232
 30
0.0
 11
88.43051655394055
 21
40.13760919540232
 31
0.0
  0
LINE
  5
378
330
1F
100
AcDbEntity
  8
基準ﾚｲﾔｸﾞﾙｰﾌﾟ_01
  6
Continuous
 62
     7
370
    25
100
AcDbLine
 10
128.0841251201025
 20
115.1376091954023
 30
0.0
 11
88.43051655394055
 21
115.1376091954023
 31
0.0
  0
TEXT
  5
379
330
1F
100
AcDbEntity
  8
基準ﾚｲﾔｸﾞﾙｰﾌﾟ_01
  6
Continuous
 62
     7
370
    25
100
AcDbText
 10
88.43052673339844
 20
73.13760375976562
 30
0.0
 40
4.0
  1
φ
 50
90.0
 41
1.05
  7
FX_VECTOR
 72
     5
 11
88.43052673339844
 21
76.13760375976562
 31
0.0
100
AcDbText
  0
TEXT
  5
37A
330
1F
100
AcDbEntity
  8
基準ﾚｲﾔｸﾞﾙｰﾌﾟ_01
  6
Continuous
 62
     7
370
    25
100
AcDbText
 10
292.5931091308594
 20
242.6809997558594
 30
0.0
 40
4.0
  1
２３
 50
90.0
 41
0.9545454545454547
  7
FX_VECTOR
 72
     5
 11
292.5931091308594
 21
248.6809997558594
 31
0.0
100
AcDbText
  0
LINE
  5
37B
330
1F
100
AcDbEntity
  8
基準ﾚｲﾔｸﾞﾙｰﾌﾟ_01
  6
Continuous
 62
     7
370
    25
100
AcDbLine
 10
293.5931034482759
 20
234.1809900003558
 30
0.0
 11
293.5931034482759
 21
257.1809900003557
 31
0.0
  0
INSERT
  5
37C
330
1F
100
AcDbEntity
  8
基準ﾚｲﾔｸﾞﾙｰﾌﾟ_01
  6
Continuous
 62
     7
370
    25
100
AcDbBlockReference
  2
FXTIP_ARROW_S
 10
293.5931034482759
 20
234.1809900003558
 30
0.0
 41
4.0
 42
4.0
 50
270.0
  0
INSERT
  5
37D
330
1F
100
AcDbEntity
  8
基準ﾚｲﾔｸﾞﾙｰﾌﾟ_01
  6
Continuous
 62
     7
370
    25
100
AcDbBlockReference
  2
FXTIP_ARROW_E
 10
293.5931034482759
 20
257.1809900003557
 30
0.0
 41
4.0
 42
4.0
 50
90.0
  0
LINE
  5
37E
330
1F
100
AcDbEntity
  8
基準ﾚｲﾔｸﾞﾙｰﾌﾟ_01
  6
Continuous
 62
     7
370
    25
100
AcDbLine
 10
266.4326315439566
 20
234.1809900003557
 30
0.0
 11
294.5931034482759
 21
234.1809900003558
 31
0.0
  0
LINE
  5
37F
330
1F
100
AcDbEntity
  8
基準ﾚｲﾔｸﾞﾙｰﾌﾟ_01
  6
Continuous
 62
     7
370
    25
100
AcDbLine
 10
266.4326315439565
 20
257.1809900003557
 30
0.0
 11
294.5931034482759
 21
257.1809900003557
 31
0.0
  0
TEXT
  5
380
330
1F
100
AcDbEntity
  8
基準ﾚｲﾔｸﾞﾙｰﾌﾟ_01
  6
Continuous
 62
     7
370
    25
100
AcDbText
 10
251.2930908203125
 20
187.6245880121717
 30
0.0
 40
4.0
  1
１６
 41
0.9545454545454547
  7
FX_VECTOR
 72
     5
 11
257.2930908203125
 21
187.6245880132189
 31
0.0
100
AcDbText
  0
LINE
  5
381
330
1F
100
AcDbEntity
  8
基準ﾚｲﾔｸﾞﾙｰﾌﾟ_01
  6
Continuous
 62
     7
370
    25
100
AcDbLine
 10
250.7931034482759
 20
186.6245871317215
 30
0.0
 11
266.7931034482759
 21
186.6245871317215
 31
0.0
  0
INSERT
  5
382
330
1F
100
AcDbEntity
  8
基準ﾚｲﾔｸﾞﾙｰﾌﾟ_01
  6
Continuous
 62
     7
370
    25
100
AcDbBlockReference
  2
FXTIP_ARROW_S
 10
250.7931034482759
 20
186.6245871317215
 30
0.0
 41
4.0
 42
4.0
 50
180.0
  0
INSERT
  5
383
330
1F
100
AcDbEntity
  8
基準ﾚｲﾔｸﾞﾙｰﾌﾟ_01
  6
Continuous
 62
     7
370
    25
100
AcDbBlockReference
  2
FXTIP_ARROW_E
 10
266.7931034482759
 20
186.6245871317215
 30
0.0
 41
4.0
 42
4.0
 50
360.0
  0
LINE
  5
384
330
1F
100
AcDbEntity
  8
基準ﾚｲﾔｸﾞﾙｰﾌﾟ_01
  6
Continuous
 62
     7
370
    25
100
AcDbLine
 10
250.7931034482759
 20
177.1376091954023
 30
0.0
 11
250.7931034482759
 21
187.6245871317215
 31
0.0
  0
LINE
  5
385
330
1F
100
AcDbEntity
  8
基準ﾚｲﾔｸﾞﾙｰﾌﾟ_01
  6
Continuous
 62
     7
370
    25
100
AcDbLine
 10
266.7931034482759
 20
177.1376091954023
 30
0.0
 11
266.7931034482759
 21
187.6245871317215
 31
0.0
  0
TEXT
  5
386
330
1F
100
AcDbEntity
  8
基準ﾚｲﾔｸﾞﾙｰﾌﾟ_01
  6
Continuous
 62
     7
370
    25
100
AcDbText
 10
248.2930908203125
 20
187.6245880124335
 30
0.0
 40
4.0
  1
Ｍ
 41
1.05
  7
FX_VECTOR
 72
     5
 11
251.2930908203125
 21
187.6245880129571
 31
0.0
100
AcDbText
  0
TEXT
  5
387
330
1F
100
AcDbEntity
  8
基準ﾚｲﾔｸﾞﾙｰﾌﾟ_01
  6
Continuous
 62
     7
370
    25
100
AcDbText
 10
257.2930908203125
 20
187.6245880116481
 30
0.0
 40
4.0
  1
×２．０
 41
0.9130434782608696
  7
FX_VECTOR
 72
     5
 11
269.2930908203125
 21
187.6245880137425
 31
0.0
100
AcDbText
  0
INSERT
  5
38B
330
1F
100
AcDbEntity
  8
GR1_01
  6
Continuous
 62
     3
370
    50
100
AcDbBlockReference
  2
BLKF024
 10
0.0
 20
0.0
 30
0.0
  0
TEXT
  5
3D0
330
1F
100
AcDbEntity
  8
基準ﾚｲﾔｸﾞﾙｰﾌﾟ_01
  6
Continuous
 62
     7
370
    25
100
AcDbText
 10
126.0841217041016
 20
31.64178466744515
 30
0.0
 40
4.0
  1
２５
 41
0.9545454545454547
  7
FX_VECTOR
 72
     5
 11
132.0841217041016
 21
31.64178466849235
 31
0.0
100
AcDbText
  0
LINE
  5
3D1
330
1F
100
AcDbEntity
  8
基準ﾚｲﾔｸﾞﾙｰﾌﾟ_01
  6
Continuous
 62
     7
370
    25
100
AcDbLine
 10
116.5841251201024
 20
30.64181224536918
 30
0.0
 11
141.5841251201025
 21
30.64181224536924
 31
0.0
  0
INSERT
  5
3D2
330
1F
100
AcDbEntity
  8
基準ﾚｲﾔｸﾞﾙｰﾌﾟ_01
  6
Continuous
 62
     7
370
    25
100
AcDbBlockReference
  2
FXTIP_ARROW_S
 10
116.5841251201024
 20
30.64181224536918
 30
0.0
 41
4.0
 42
4.0
 50
180.0
  0
INSERT
  5
3D3
330
1F
100
AcDbEntity
  8
基準ﾚｲﾔｸﾞﾙｰﾌﾟ_01
  6
Continuous
 62
     7
370
    25
100
AcDbBlockReference
  2
FXTIP_ARROW_E
 10
141.5841251201025
 20
30.64181224536924
 30
0.0
 41
4.0
 42
4.0
 50
360.0
  0
LINE
  5
3D4
330
1F
100
AcDbEntity
  8
基準ﾚｲﾔｸﾞﾙｰﾌﾟ_01
  6
Continuous
 62
     7
370
    25
100
AcDbLine
 10
116.5841251201025
 20
41.84757102747278
 30
0.0
 11
116.5841251201024
 21
29.64181224536918
 31
0.0
  0
LINE
  5
3D5
330
1F
100
AcDbEntity
  8
基準ﾚｲﾔｸﾞﾙｰﾌﾟ_01
  6
Continuous
 62
     7
370
    25
100
AcDbLine
 10
141.5841251201025
 20
41.84757102747278
 30
0.0
 11
141.5841251201025
 21
29.64181224536924
 31
0.0
  0
INSERT
  5
3D9
330
1F
100
AcDbEntity
  8
GR1_01
  6
Continuous
 62
     3
370
    50
100
AcDbBlockReference
  2
BLKF025
 10
0.0
 20
0.0
 30
0.0
  0
TEXT
  5
3F2
330
1F
100
AcDbEntity
  8
基準ﾚｲﾔｸﾞﾙｰﾌﾟ_01
  6
Continuous
 62
     7
370
    25
100
AcDbText
 10
126.0841217041016
 20
23.53360557503792
 30
0.0
 40
4.0
  1
３１
 41
0.9545454545454547
  7
FX_VECTOR
 72
     5
 11
132.0841217041016
 21
23.53360557608512
 31
0.0
100
AcDbText
  0
LINE
  5
3F3
330
1F
100
AcDbEntity
  8
基準ﾚｲﾔｸﾞﾙｰﾌﾟ_01
  6
Continuous
 62
     7
370
    25
100
AcDbLine
 10
113.5841251201024
 20
22.53360597439578
 30
0.0
 11
144.5841251201025
 21
22.53360597439578
 31
0.0
  0
INSERT
  5
3F4
330
1F
100
AcDbEntity
  8
基準ﾚｲﾔｸﾞﾙｰﾌﾟ_01
  6
Continuous
 62
     7
370
    25
100
AcDbBlockReference
  2
FXTIP_ARROW_S
 10
113.5841251201024
 20
22.53360597439578
 30
0.0
 41
4.0
 42
4.0
 50
180.0
  0
INSERT
  5
3F5
330
1F
100
AcDbEntity
  8
基準ﾚｲﾔｸﾞﾙｰﾌﾟ_01
  6
Continuous
 62
     7
370
    25
100
AcDbBlockReference
  2
FXTIP_ARROW_E
 10
144.5841251201025
 20
22.53360597439578
 30
0.0
 41
4.0
 42
4.0
 50
360.0
  0
LINE
  5
3F6
330
1F
100
AcDbEntity
  8
基準ﾚｲﾔｸﾞﾙｰﾌﾟ_01
  6
Continuous
 62
     7
370
    25
100
AcDbLine
 10
113.5841251201024
 20
70.63760919540232
 30
0.0
 11
113.5841251201024
 21
21.53360597439578
 31
0.0
  0
LINE
  5
3F7
330
1F
100
AcDbEntity
  8
基準ﾚｲﾔｸﾞﾙｰﾌﾟ_01
  6
Continuous
 62
     7
370
    25
100
AcDbLine
 10
144.5841251201025
 20
70.63760919540232
 30
0.0
 11
144.5841251201025
 21
21.53360597439578
 31
0.0
  0
LINE
  5
3F8
330
1F
100
AcDbEntity
  8
GR1_01
  6
Continuous
 62
     3
370
    50
100
AcDbLine
 10
226.7931034482758
 20
261.4309900003558
 30
0.0
 11
226.7931034482758
 21
261.1809900003558
 31
0.0
  0
LINE
  5
3F9
330
1F
100
AcDbEntity
  8
GR1_01
  6
Continuous
 62
     3
370
    50
100
AcDbLine
 10
226.7931034482758
 20
229.9309900003559
 30
0.0
 11
226.7931034482758
 21
230.1809900003558
 31
0.0
  0
ARC
  5
3FA
330
1F
100
AcDbEntity
  8
GR1_01
  6
Continuous
 62
     3
370
    50
100
AcDbCircle
 10
196.0030652803463
 20
256.1809900003558
 30
0.0
 40
2.0
100
AcDbArc
 50
90.0
 51
172.2636199600458
  0
ARC
  5
3FB
330
1F
100
AcDbEntity
  8
GR1_01
  6
Continuous
 62
     3
370
    50
100
AcDbCircle
 10
273.2931034482758
 20
245.6809900003558
 30
0.0
 40
80.0
100
AcDbArc
 50
172.2636199600456
 51
187.7363800399545
  0
ARC
  5
3FC
330
1F
100
AcDbEntity
  8
GR1_01
  6
Continuous
 62
     3
370
    50
100
AcDbCircle
 10
196.0030652803463
 20
235.1809900003558
 30
0.0
 40
2.0
100
AcDbArc
 50
187.7363800399546
 51
270.0
  0
LINE
  5
3FD
330
1F
100
AcDbEntity
  8
GR1_01
  6
Continuous
 62
     3
370
    50
100
AcDbLine
 10
196.0030652803463
 20
233.1809900003558
 30
0.0
 11
225.5666079966036
 21
233.1809900003558
 31
0.0
  0
LINE
  5
3FE
330
1F
100
AcDbEntity
  8
GR1_01
  6
Continuous
 62
     3
370
    50
100
AcDbLine
 10
196.0030652803463
 20
258.1809900003558
 30
0.0
 11
225.5666079966036
 21
258.1809900003558
 31
0.0
  0
LINE
  5
3FF
330
1F
100
AcDbEntity
  8
GR1_01
  6
Continuous
 62
     3
370
    50
100
AcDbLine
 10
226.1702586918786
 20
231.6809900003558
 30
0.0
 11
217.1322030794531
 21
231.6809900003558
 31
0.0
  0
ARC
  5
400
330
1F
100
AcDbEntity
  8
基準ﾚｲﾔｸﾞﾙｰﾌﾟ_01
  6
Continuous
 62
     3
370
    50
100
AcDbCircle
 10
217.1322030794531
 20
232.6809900003558
 30
0.0
 40
1.0
100
AcDbArc
 50
190.0
 51
270.0
  0
LINE
  5
401
330
1F
100
AcDbEntity
  8
基準ﾚｲﾔｸﾞﾙｰﾌﾟ_01
  6
Continuous
 62
     3
370
    50
100
AcDbLine
 10
216.1473953264409
 20
232.5073418226889
 30
0.0
 11
216.0286129772131
 21
233.1809900003558
 31
0.0
  0
LINE
  5
402
330
1F
100
AcDbEntity
  8
GR1_01
  6
Continuous
 62
     3
370
    50
100
AcDbLine
 10
224.7931034482759
 20
230.1809900003558
 30
0.0
 11
224.7931034482759
 21
231.6809900003558
 31
0.0
  0
LINE
  5
403
330
1F
100
AcDbEntity
  8
GR1_01
  6
Continuous
 62
     3
370
    50
100
AcDbLine
 10
226.8556646029333
 20
230.1809900003558
 30
0.0
 11
224.7931034482759
 21
230.1809900003558
 31
0.0
  0
LINE
  5
404
330
1F
100
AcDbEntity
  8
GR1_01
  6
Continuous
 62
     3
370
    50
100
AcDbLine
 10
226.1702586918786
 20
259.6809900003558
 30
0.0
 11
217.1322030794531
 21
259.6809900003558
 31
0.0
  0
ARC
  5
405
330
1F
100
AcDbEntity
  8
基準ﾚｲﾔｸﾞﾙｰﾌﾟ_01
  6
Continuous
 62
     3
370
    50
100
AcDbCircle
 10
217.1322030794531
 20
258.6809900003558
 30
0.0
 40
1.0
100
AcDbArc
 50
90.0
 51
169.9999999999998
  0
LINE
  5
406
330
1F
100
AcDbEntity
  8
基準ﾚｲﾔｸﾞﾙｰﾌﾟ_01
  6
Continuous
 62
     3
370
    50
100
AcDbLine
 10
216.1473953264409
 20
258.8546381780228
 30
0.0
 11
216.0286129772131
 21
258.1809900003558
 31
0.0
  0
LINE
  5
407
330
1F
100
AcDbEntity
  8
GR1_01
  6
Continuous
 62
     3
370
    50
100
AcDbLine
 10
224.7931034482759
 20
261.1809900003558
 30
0.0
 11
224.7931034482759
 21
259.6809900003558
 31
0.0
  0
LINE
  5
408
330
1F
100
AcDbEntity
  8
GR1_01
  6
Continuous
 62
     3
370
    50
100
AcDbLine
 10
226.8556646029333
 20
261.1809900003558
 30
0.0
 11
224.7931034482759
 21
261.1809900003558
 31
0.0
  0
INSERT
  5
40C
330
1F
100
AcDbEntity
  8
基準ﾚｲﾔｸﾞﾙｰﾌﾟ_01
  6
Continuous
 62
     7
370
    25
100
AcDbBlockReference
  2
BLKF026
 10
0.0
 20
0.0
 30
0.0
  0
ENDSEC
  0
SECTION
  2
OBJECTS
  0
DICTIONARY
  5
C
330
0
100
AcDbDictionary
281
     1
  3
ACAD_GROUP
350
D
  3
ACAD_LAYOUT
350
1A
  3
ACAD_MATERIAL
350
3B
  3
ACAD_MLEADERSTYLE
350
423
  3
ACAD_MLINESTYLE
350
17
  3
ACAD_PLOTSETTINGS
350
19
  3
ACAD_PLOTSTYLENAME
350
E
  3
ACAD_VISUALSTYLE
350
2A
  3
AcDbVariableDictionary
350
421
  0
DICTIONARY
  5
D
102
{ACAD_REACTORS
330
C
102
}
330
C
100
AcDbDictionary
281
     1
  0
DICTIONARY
  5
1A
102
{ACAD_REACTORS
330
C
102
}
330
C
100
AcDbDictionary
281
     1
  3
Layout1
350
1E
  3
Layout2
350
26
  3
Model
350
22
  0
DICTIONARY
  5
3B
102
{ACAD_REACTORS
330
C
102
}
330
C
100
AcDbDictionary
281
     1
  3
ByBlock
350
3D
  3
ByLayer
350
3C
  3
Global
350
3E
  0
DICTIONARY
  5
423
102
{ACAD_REACTORS
330
C
102
}
330
C
100
AcDbDictionary
281
     1
  0
DICTIONARY
  5
17
102
{ACAD_REACTORS
330
C
102
}
330
C
100
AcDbDictionary
281
     1
  3
Standard
350
18
  0
DICTIONARY
  5
19
102
{ACAD_REACTORS
330
C
102
}
330
C
100
AcDbDictionary
281
     1
  0
ACDBDICTIONARYWDFLT
  5
E
102
{ACAD_REACTORS
330
C
102
}
330
C
100
AcDbDictionary
281
     1
  3
Normal
350
F
100
AcDbDictionaryWithDefault
340
F
  0
DICTIONARY
  5
2A
102
{ACAD_REACTORS
330
C
102
}
330
C
100
AcDbDictionary
281
     1
  3
2dWireframe
350
2F
  3
3D Hidden
350
31
  3
3dWireframe
350
30
  3
Basic
350
32
  3
Brighten
350
36
  3
ColorChange
350
3A
  3
Conceptual
350
34
  3
Dim
350
35
  3
Facepattern
350
39
  3
Flat
350
2B
  3
FlatWithEdges
350
2C
  3
Gouraud
350
2D
  3
GouraudWithEdges
350
2E
  3
Linepattern
350
38
  3
Realistic
350
33
  3
Thicken
350
37
  0
DICTIONARY
  5
421
102
{ACAD_REACTORS
330
C
102
}
330
C
100
AcDbDictionary
281
     1
  3
DIMASSOC
350
426
  3
HIDETEXT
350
427
  3
PSOLHEIGHT
350
425
  3
PSOLWIDTH
350
424
  0
LAYOUT
  5
1E
102
{ACAD_REACTORS
330
1A
102
}
330
1A
100
AcDbPlotSettings
  1

  2
none_device
  4

  6

 40
0.0
 41
0.0
 42
0.0
 43
0.0
 44
0.0
 45
0.0
 46
0.0
 47
0.0
 48
0.0
 49
0.0
140
0.0
141
0.0
142
1.0
143
1.0
 70
   688
 72
     0
 73
     0
 74
     5
  7

 75
    16
147
1.0
148
0.0
149
0.0
100
AcDbLayout
  1
Layout1
 70
     1
 71
     1
 10
0.0
 20
0.0
 11
420.0
 21
297.0
 12
0.0
 22
0.0
 32
0.0
 14
1.000000000000000E+20
 24
1.000000000000000E+20
 34
1.000000000000000E+20
 15
-1.000000000000000E+20
 25
-1.000000000000000E+20
 35
-1.000000000000000E+20
146
0.0
 13
0.0
 23
0.0
 33
0.0
 16
1.0
 26
0.0
 36
0.0
 17
0.0
 27
1.0
 37
0.0
 76
     0
330
1B
  0
LAYOUT
  5
26
102
{ACAD_REACTORS
330
1A
102
}
330
1A
100
AcDbPlotSettings
  1

  2
none_device
  4

  6

 40
0.0
 41
0.0
 42
0.0
 43
0.0
 44
0.0
 45
0.0
 46
0.0
 47
0.0
 48
0.0
 49
0.0
140
0.0
141
0.0
142
1.0
143
1.0
 70
   688
 72
     0
 73
     0
 74
     5
  7

 75
    16
147
1.0
148
0.0
149
0.0
100
AcDbLayout
  1
Layout2
 70
     1
 71
     2
 10
0.0
 20
0.0
 11
0.0
 21
0.0
 12
0.0
 22
0.0
 32
0.0
 14
0.0
 24
0.0
 34
0.0
 15
0.0
 25
0.0
 35
0.0
146
0.0
 13
0.0
 23
0.0
 33
0.0
 16
1.0
 26
0.0
 36
0.0
 17
0.0
 27
1.0
 37
0.0
 76
     0
330
23
  0
LAYOUT
  5
22
102
{ACAD_REACTORS
330
1A
102
}
330
1A
100
AcDbPlotSettings
  1

  2
none_device
  4

  6

 40
0.0
 41
0.0
 42
0.0
 43
0.0
 44
0.0
 45
0.0
 46
0.0
 47
0.0
 48
0.0
 49
0.0
140
0.0
141
0.0
142
1.0
143
1.0
 70
  1712
 72
     0
 73
     0
 74
     0
  7

 75
     0
147
1.0
148
0.0
149
0.0
100
AcDbLayout
  1
Model
 70
     1
 71
     0
 10
0.0
 20
0.0
 11
420.0
 21
297.0
 12
0.0
 22
0.0
 32
0.0
 14
0.0
 24
0.0
 34
0.0
 15
420.0
 25
297.0
 35
0.0
146
0.0
 13
0.0
 23
0.0
 33
0.0
 16
1.0
 26
0.0
 36
0.0
 17
0.0
 27
1.0
 37
0.0
 76
     0
330
1F
331
29
  0
MATERIAL
  5
3D
102
{ACAD_REACTORS
330
3B
102
}
102
{ACAD_XDICTIONARY
360
44A
102
}
330
3B
100
AcDbMaterial
  1
ByBlock
  0
MATERIAL
  5
3C
102
{ACAD_REACTORS
330
3B
102
}
102
{ACAD_XDICTIONARY
360
448
102
}
330
3B
100
AcDbMaterial
  1
ByLayer
  0
MATERIAL
  5
3E
102
{ACAD_REACTORS
330
3B
102
}
102
{ACAD_XDICTIONARY
360
44C
102
}
330
3B
100
AcDbMaterial
  1
Global
  0
MLINESTYLE
  5
18
102
{ACAD_REACTORS
330
17
102
}
330
17
100
AcDbMlineStyle
  2
Standard
 70
     0
  3

 62
   256
 51
90.0
 52
90.0
 71
     2
 49
0.5
 62
   256
  6
BYLAYER
 49
-0.5
 62
   256
  6
BYLAYER
  0
ACDBPLACEHOLDER
  5
F
102
{ACAD_REACTORS
330
E
102
}
330
E
  0
VISUALSTYLE
  5
2F
102
{ACAD_REACTORS
330
2A
102
}
102
{ACAD_XDICTIONARY
360
430
102
}
330
2A
100
AcDbVisualStyle
  2
2dWireframe
 70
     4
 71
     0
 72
     2
 73
     0
 90
        0
 40
-0.6
 41
-30.0
 62
     5
 63
     7
 74
     1
 91
        4
 64
     7
 65
   257
 75
     1
175
     1
 42
1.0
 92
        0
 66
   257
 43
1.0
 76
     1
 77
     6
 78
     2
 67
     7
 79
     5
170
     0
171
     0
290
     0
174
     0
 93
        1
 44
0.0
173
     0
291
     0
 45
0.0
1001
ACAD
1000
AcDbSavedByObjectVersion
1070
     0
  0
VISUALSTYLE
  5
31
102
{ACAD_REACTORS
330
2A
102
}
102
{ACAD_XDICTIONARY
360
434
102
}
330
2A
100
AcDbVisualStyle
  2
3D Hidden
 70
     6
 71
     1
 72
     2
 73
     2
 90
        0
 40
-0.6
 41
-30.0
 62
     5
 63
     7
 74
     2
 91
        2
 64
     7
 65
   257
 75
     2
175
     1
 42
40.0
 92
        0
 66
   257
 43
1.0
 76
     1
 77
     6
 78
     2
 67
     7
 79
     3
170
     0
171
     0
290
     0
174
     0
 93
        1
 44
0.0
173
     0
291
     0
 45
0.0
1001
ACAD
1000
AcDbSavedByObjectVersion
1070
     0
  0
VISUALSTYLE
  5
30
102
{ACAD_REACTORS
330
2A
102
}
102
{ACAD_XDICTIONARY
360
432
102
}
330
2A
100
AcDbVisualStyle
  2
3dWireframe
 70
     5
 71
     0
 72
     2
 73
     0
 90
        0
 40
-0.6
 41
-30.0
 62
     5
 63
     7
 74
     1
 91
        4
 64
     7
 65
   257
 75
     1
175
     1
 42
1.0
 92
        0
 66
   257
 43
1.0
 76
     1
 77
     6
 78
     2
 67
     7
 79
     5
170
     0
171
     0
290
     0
174
     0
 93
        1
 44
0.0
173
     0
291
     0
 45
0.0
1001
ACAD
1000
AcDbSavedByObjectVersion
1070
     0
  0
VISUALSTYLE
  5
32
102
{ACAD_REACTORS
330
2A
102
}
102
{ACAD_XDICTIONARY
360
436
102
}
330
2A
100
AcDbVisualStyle
  2
Basic
 70
     7
 71
     1
 72
     0
 73
     1
 90
        0
 40
-0.6
 41
-30.0
 62
     5
 63
     7
 74
     0
 91
        4
 64
     7
 65
   257
 75
     1
175
     1
 42
1.0
 92
        8
 66
     7
 43
1.0
 76
     1
 77
     6
 78
     2
 67
     7
 79
     5
170
     0
171
     0
290
     0
174
     0
 93
        1
 44
0.0
173
     0
291
     1
 45
0.0
1001
ACAD
1000
AcDbSavedByObjectVersion
1070
     0
  0
VISUALSTYLE
  5
36
102
{ACAD_REACTORS
330
2A
102
}
102
{ACAD_XDICTIONARY
360
43E
102
}
330
2A
100
AcDbVisualStyle
  2
Brighten
 70
    12
 71
     2
 72
     2
 73
     0
 90
        0
 40
-0.6
 41
-30.0
 62
     5
 63
     7
 74
     1
 91
        4
 64
     7
 65
   257
 75
     1
175
     1
 42
1.0
 92
        8
 66
     7
 43
1.0
 76
     1
 77
     6
 78
     2
 67
     7
 79
     5
170
     0
171
     0
290
     0
174
     0
 93
        1
 44
50.0
173
     0
291
     1
 45
0.0
1001
ACAD
1000
AcDbSavedByObjectVersion
1070
     0
  0
VISUALSTYLE
  5
3A
102
{ACAD_REACTORS
330
2A
102
}
102
{ACAD_XDICTIONARY
360
446
102
}
330
2A
100
AcDbVisualStyle
  2
ColorChange
 70
    16
 71
     2
 72
     2
 73
     3
 90
        0
 40
-0.6
 41
-30.0
 62
     5
 63
     8
 74
     1
 91
        4
 64
     7
 65
   257
 75
     1
175
     1
 42
1.0
 92
        8
 66
     8
 43
1.0
 76
     1
 77
     6
 78
     2
 67
     7
 79
     5
170
     0
171
     0
290
     0
174
     0
 93
        1
 44
0.0
173
     0
291
     1
 45
0.0
1001
ACAD
1000
AcDbSavedByObjectVersion
1070
     0
  0
VISUALSTYLE
  5
34
102
{ACAD_REACTORS
330
2A
102
}
102
{ACAD_XDICTIONARY
360
43A
102
}
330
2A
100
AcDbVisualStyle
  2
Conceptual
 70
     9
 71
     3
 72
     2
 73
     0
 90
        0
 40
-0.6
 41
-30.0
 62
     5
 63
     7
 74
     2
 91
        2
 64
     7
 65
   257
 75
     1
175
     1
 42
40.0
 92
        8
 66
     7
 43
1.0
 76
     1
 77
     6
 78
     2
 67
     7
 79
     3
170
     0
171
     0
290
     0
174
     0
 93
        1
 44
0.0
173
     0
291
     0
 45
0.0
1001
ACAD
1000
AcDbSavedByObjectVersion
1070
     0
  0
VISUALSTYLE
  5
35
102
{ACAD_REACTORS
330
2A
102
}
102
{ACAD_XDICTIONARY
360
43C
102
}
330
2A
100
AcDbVisualStyle
  2
Dim
 70
    11
 71
     2
 72
     2
 73
     0
 90
        0
 40
-0.6
 41
-30.0
 62
     5
 63
     7
 74
     1
 91
        4
 64
     7
 65
   257
 75
     1
175
     1
 42
1.0
 92
        8
 66
     7
 43
1.0
 76
     1
 77
     6
 78
     2
 67
     7
 79
     5
170
     0
171
     0
290
     0
174
     0
 93
        1
 44
-50.0
173
     0
291
     1
 45
0.0
1001
ACAD
1000
AcDbSavedByObjectVersion
1070
     0
  0
VISUALSTYLE
  5
39
102
{ACAD_REACTORS
330
2A
102
}
102
{ACAD_XDICTIONARY
360
444
102
}
330
2A
100
AcDbVisualStyle
  2
Facepattern
 70
    15
 71
     2
 72
     2
 73
     0
 90
        0
 40
-0.6
 41
-30.0
 62
     5
 63
     7
 74
     1
 91
        4
 64
     7
 65
   257
 75
     1
175
     1
 42
1.0
 92
        8
 66
     7
 43
1.0
 76
     1
 77
     6
 78
     2
 67
     7
 79
     5
170
     0
171
     0
290
     0
174
     0
 93
        1
 44
0.0
173
     0
291
     1
 45
0.0
1001
ACAD
1000
AcDbSavedByObjectVersion
1070
     0
  0
VISUALSTYLE
  5
2B
102
{ACAD_REACTORS
330
2A
102
}
102
{ACAD_XDICTIONARY
360
428
102
}
330
2A
100
AcDbVisualStyle
  2
Flat
 70
     0
 71
     2
 72
     1
 73
     1
 90
        2
 40
-0.6
 41
30.0
 62
     5
 63
     7
 74
     0
 91
        4
 64
     7
 65
   257
 75
     1
175
     1
 42
1.0
 92
        8
 66
     7
 43
1.0
 76
     1
 77
     6
 78
     2
 67
     7
 79
     5
170
     0
171
     0
290
     0
174
     0
 93
       13
 44
0.0
173
     0
291
     1
 45
0.0
1001
ACAD
1000
AcDbSavedByObjectVersion
1070
     0
  0
VISUALSTYLE
  5
2C
102
{ACAD_REACTORS
330
2A
102
}
102
{ACAD_XDICTIONARY
360
42A
102
}
330
2A
100
AcDbVisualStyle
  2
FlatWithEdges
 70
     1
 71
     2
 72
     1
 73
     1
 90
        2
 40
-0.6
 41
30.0
 62
     5
 63
     7
 74
     1
 91
        4
 64
     7
 65
   257
 75
     1
175
     1
 42
1.0
 92
        0
 66
   257
 43
1.0
 76
     1
 77
     6
 78
     2
 67
     7
 79
     5
170
     0
171
     0
290
     0
174
     0
 93
       13
 44
0.0
173
     0
291
     1
 45
0.0
1001
ACAD
1000
AcDbSavedByObjectVersion
1070
     0
  0
VISUALSTYLE
  5
2D
102
{ACAD_REACTORS
330
2A
102
}
102
{ACAD_XDICTIONARY
360
42C
102
}
330
2A
100
AcDbVisualStyle
  2
Gouraud
 70
     2
 71
     2
 72
     2
 73
     1
 90
        2
 40
-0.6
 41
30.0
 62
     5
 63
     7
 74
     0
 91
        4
 64
     7
 65
   257
 75
     1
175
     1
 42
1.0
 92
        0
 66
     7
 43
1.0
 76
     1
 77
     6
 78
     2
 67
     7
 79
     5
170
     0
171
     0
290
     0
174
     0
 93
       13
 44
0.0
173
     0
291
     1
 45
0.0
1001
ACAD
1000
AcDbSavedByObjectVersion
1070
     0
  0
VISUALSTYLE
  5
2E
102
{ACAD_REACTORS
330
2A
102
}
102
{ACAD_XDICTIONARY
360
42E
102
}
330
2A
100
AcDbVisualStyle
  2
GouraudWithEdges
 70
     3
 71
     2
 72
     2
 73
     1
 90
        2
 40
-0.6
 41
30.0
 62
     5
 63
     7
 74
     1
 91
        4
 64
     7
 65
   257
 75
     1
175
     1
 42
1.0
 92
        0
 66
   257
 43
1.0
 76
     1
 77
     6
 78
     2
 67
     7
 79
     5
170
     0
171
     0
290
     0
174
     0
 93
       13
 44
0.0
173
     0
291
     1
 45
0.0
1001
ACAD
1000
AcDbSavedByObjectVersion
1070
     0
  0
VISUALSTYLE
  5
38
102
{ACAD_REACTORS
330
2A
102
}
102
{ACAD_XDICTIONARY
360
442
102
}
330
2A
100
AcDbVisualStyle
  2
Linepattern
 70
    14
 71
     2
 72
     2
 73
     0
 90
        0
 40
-0.6
 41
-30.0
 62
     5
 63
     7
 74
     1
 91
        4
 64
     7
 65
   257
 75
     7
175
     7
 42
1.0
 92
        8
 66
     7
 43
1.0
 76
     1
 77
     6
 78
     2
 67
     7
 79
     5
170
     0
171
     0
290
     0
174
     0
 93
        1
 44
0.0
173
     0
291
     1
 45
0.0
1001
ACAD
1000
AcDbSavedByObjectVersion
1070
     0
  0
VISUALSTYLE
  5
33
102
{ACAD_REACTORS
330
2A
102
}
102
{ACAD_XDICTIONARY
360
438
102
}
330
2A
100
AcDbVisualStyle
  2
Realistic
 70
     8
 71
     2
 72
     2
 73
     0
 90
        0
 40
-0.6
 41
-30.0
 62
     5
 63
     7
 74
     1
 91
        0
 64
     7
 65
   257
 75
     1
175
     1
 42
1.0
 92
        8
 66
     8
 43
1.0
 76
     1
 77
     6
 78
     2
 67
     7
 79
     5
170
     0
171
     0
290
     0
174
     0
 93
       13
 44
0.0
173
     0
291
     0
 45
0.0
1001
ACAD
1000
AcDbSavedByObjectVersion
1070
     0
  0
VISUALSTYLE
  5
37
102
{ACAD_REACTORS
330
2A
102
}
102
{ACAD_XDICTIONARY
360
440
102
}
330
2A
100
AcDbVisualStyle
  2
Thicken
 70
    13
 71
     2
 72
     2
 73
     0
 90
        0
 40
-0.6
 41
-30.0
 62
     5
 63
     7
 74
     1
 91
        4
 64
     7
 65
   257
 75
     1
175
     1
 42
1.0
 92
       12
 66
     7
 43
1.0
 76
     1
 77
     6
 78
     2
 67
     7
 79
     5
170
     0
171
     0
290
     0
174
     0
 93
        1
 44
0.0
173
     0
291
     1
 45
0.0
1001
ACAD
1000
AcDbSavedByObjectVersion
1070
     0
  0
DICTIONARYVAR
  5
426
102
{ACAD_REACTORS
330
421
102
}
330
421
100
DictionaryVariables
280
     0
  1
2
  0
DICTIONARYVAR
  5
427
102
{ACAD_REACTORS
330
421
102
}
330
421
100
DictionaryVariables
280
     0
  1
1
  0
DICTIONARYVAR
  5
425
102
{ACAD_REACTORS
330
421
102
}
330
421
100
DictionaryVariables
280
     0
  1
80.000000
  0
DICTIONARYVAR
  5
424
102
{ACAD_REACTORS
330
421
102
}
330
421
100
DictionaryVariables
280
     0
  1
5.000000
  0
DICTIONARY
  5
44A
330
3D
100
AcDbDictionary
280
     1
281
     1
  3
ACAD_XREC_ROUNDTRIP
360
44B
  0
DICTIONARY
  5
448
330
3C
100
AcDbDictionary
280
     1
281
     1
  3
ACAD_XREC_ROUNDTRIP
360
449
  0
DICTIONARY
  5
44C
330
3E
100
AcDbDictionary
280
     1
281
     1
  3
ACAD_XREC_ROUNDTRIP
360
44D
  0
DICTIONARY
  5
430
330
2F
100
AcDbDictionary
280
     1
281
     1
  3
ACAD_XREC_ROUNDTRIP
360
431
  0
DICTIONARY
  5
434
330
31
100
AcDbDictionary
280
     1
281
     1
  3
ACAD_XREC_ROUNDTRIP
360
435
  0
DICTIONARY
  5
432
330
30
100
AcDbDictionary
280
     1
281
     1
  3
ACAD_XREC_ROUNDTRIP
360
433
  0
DICTIONARY
  5
436
330
32
100
AcDbDictionary
280
     1
281
     1
  3
ACAD_XREC_ROUNDTRIP
360
437
  0
DICTIONARY
  5
43E
330
36
100
AcDbDictionary
280
     1
281
     1
  3
ACAD_XREC_ROUNDTRIP
360
43F
  0
DICTIONARY
  5
446
330
3A
100
AcDbDictionary
280
     1
281
     1
  3
ACAD_XREC_ROUNDTRIP
360
447
  0
DICTIONARY
  5
43A
330
34
100
AcDbDictionary
280
     1
281
     1
  3
ACAD_XREC_ROUNDTRIP
360
43B
  0
DICTIONARY
  5
43C
330
35
100
AcDbDictionary
280
     1
281
     1
  3
ACAD_XREC_ROUNDTRIP
360
43D
  0
DICTIONARY
  5
444
330
39
100
AcDbDictionary
280
     1
281
     1
  3
ACAD_XREC_ROUNDTRIP
360
445
  0
DICTIONARY
  5
428
330
2B
100
AcDbDictionary
280
     1
281
     1
  3
ACAD_XREC_ROUNDTRIP
360
429
  0
DICTIONARY
  5
42A
330
2C
100
AcDbDictionary
280
     1
281
     1
  3
ACAD_XREC_ROUNDTRIP
360
42B
  0
DICTIONARY
  5
42C
330
2D
100
AcDbDictionary
280
     1
281
     1
  3
ACAD_XREC_ROUNDTRIP
360
42D
  0
DICTIONARY
  5
42E
330
2E
100
AcDbDictionary
280
     1
281
     1
  3
ACAD_XREC_ROUNDTRIP
360
42F
  0
DICTIONARY
  5
442
330
38
100
AcDbDictionary
280
     1
281
     1
  3
ACAD_XREC_ROUNDTRIP
360
443
  0
DICTIONARY
  5
438
330
33
100
AcDbDictionary
280
     1
281
     1
  3
ACAD_XREC_ROUNDTRIP
360
439
  0
DICTIONARY
  5
440
330
37
100
AcDbDictionary
280
     1
281
     1
  3
ACAD_XREC_ROUNDTRIP
360
441
  0
XRECORD
  5
44B
102
{ACAD_REACTORS
330
44A
102
}
330
44A
100
AcDbXrecord
280
     1
102
MATERIAL
148
0.0
149
0.0
149
0.0
 93
        0
 94
      127
282
     0
 72
     1
 77
     1
171
     1
175
     1
179
     1
273
     0
  0
XRECORD
  5
449
102
{ACAD_REACTORS
330
448
102
}
330
448
100
AcDbXrecord
280
     1
102
MATERIAL
148
0.0
149
0.0
149
0.0
 93
        0
 94
      127
282
     0
 72
     1
 77
     1
171
     1
175
     1
179
     1
273
     0
  0
XRECORD
  5
44D
102
{ACAD_REACTORS
330
44C
102
}
330
44C
100
AcDbXrecord
280
     1
102
MATERIAL
148
0.0
149
0.0
149
0.0
 93
        0
 94
      127
282
     0
 72
     1
 77
     1
171
     1
175
     1
179
     1
273
     0
  0
XRECORD
  5
431
102
{ACAD_REACTORS
330
430
102
}
330
430
100
AcDbXrecord
280
     1
102
RTVSPropertyOp0
 70
     1
102
RTVSPropertyOp1
 70
     1
102
RTVSPropertyOp2
 70
     1
102
RTVSPropertyOp3
 70
     1
102
RTVSPropertyOp4
 70
     1
102
RTVSPropertyOp5
 70
     1
102
RTVSPropertyOp6
 70
     1
102
RTVSPropertyOp7
 70
     1
102
RTVSPropertyOp8
 70
     1
102
RTVSPropertyOp9
 70
     1
102
RTVSPropertyOp10
 70
     1
102
RTVSPropertyOp11
 70
     1
102
RTVSPropertyOp12
 70
     1
102
RTVSPropertyOp13
 70
     1
102
RTVSPropertyOp14
 70
     1
102
RTVSPropertyOp15
 70
     1
102
RTVSPropertyOp16
 70
     1
102
RTVSPropertyOp17
 70
     1
102
RTVSPropertyOp18
 70
     1
102
RTVSPropertyOp19
 70
     1
102
RTVSPropertyOp20
 70
     1
102
RTVSPropertyOp21
 70
     1
102
RTVSPropertyOp22
 70
     1
102
RTVSPropertyOp23
 70
     1
102
RTVSPropertyOp24
 70
     1
102
RTVSPropertyOp25
 70
     1
102
RTVSPropertyOp26
 70
     1
102
RTVSPropertyOp27
 70
     1
  0
XRECORD
  5
435
102
{ACAD_REACTORS
330
434
102
}
330
434
100
AcDbXrecord
280
     1
102
RTVSPropertyOp0
 70
     1
102
RTVSPropertyOp1
 70
     1
102
RTVSPropertyOp2
 70
     1
102
RTVSPropertyOp3
 70
     1
102
RTVSPropertyOp4
 70
     1
102
RTVSPropertyOp5
 70
     1
102
RTVSPropertyOp6
 70
     1
102
RTVSPropertyOp7
 70
     1
102
RTVSPropertyOp8
 70
     1
102
RTVSPropertyOp9
 70
     1
102
RTVSPropertyOp10
 70
     1
102
RTVSPropertyOp11
 70
     1
102
RTVSPropertyOp12
 70
     1
102
RTVSPropertyOp13
 70
     1
102
RTVSPropertyOp14
 70
     1
102
RTVSPropertyOp15
 70
     1
102
RTVSPropertyOp16
 70
     1
102
RTVSPropertyOp17
 70
     1
102
RTVSPropertyOp18
 70
     1
102
RTVSPropertyOp19
 70
     1
102
RTVSPropertyOp20
 70
     1
102
RTVSPropertyOp21
 70
     1
102
RTVSPropertyOp22
 70
     1
102
RTVSPropertyOp23
 70
     1
102
RTVSPropertyOp24
 70
     1
102
RTVSPropertyOp25
 70
     1
102
RTVSPropertyOp26
 70
     1
102
RTVSPropertyOp27
 70
     1
  0
XRECORD
  5
433
102
{ACAD_REACTORS
330
432
102
}
330
432
100
AcDbXrecord
280
     1
102
RTVSPropertyOp0
 70
     1
102
RTVSPropertyOp1
 70
     1
102
RTVSPropertyOp2
 70
     1
102
RTVSPropertyOp3
 70
     1
102
RTVSPropertyOp4
 70
     1
102
RTVSPropertyOp5
 70
     1
102
RTVSPropertyOp6
 70
     1
102
RTVSPropertyOp7
 70
     1
102
RTVSPropertyOp8
 70
     1
102
RTVSPropertyOp9
 70
     1
102
RTVSPropertyOp10
 70
     1
102
RTVSPropertyOp11
 70
     1
102
RTVSPropertyOp12
 70
     1
102
RTVSPropertyOp13
 70
     1
102
RTVSPropertyOp14
 70
     1
102
RTVSPropertyOp15
 70
     1
102
RTVSPropertyOp16
 70
     1
102
RTVSPropertyOp17
 70
     1
102
RTVSPropertyOp18
 70
     1
102
RTVSPropertyOp19
 70
     1
102
RTVSPropertyOp20
 70
     1
102
RTVSPropertyOp21
 70
     1
102
RTVSPropertyOp22
 70
     1
102
RTVSPropertyOp23
 70
     1
102
RTVSPropertyOp24
 70
     1
102
RTVSPropertyOp25
 70
     1
102
RTVSPropertyOp26
 70
     1
102
RTVSPropertyOp27
 70
     1
  0
XRECORD
  5
437
102
{ACAD_REACTORS
330
436
102
}
330
436
100
AcDbXrecord
280
     1
102
RTVSPropertyOp0
 70
     1
102
RTVSPropertyOp1
 70
     1
102
RTVSPropertyOp2
 70
     1
102
RTVSPropertyOp3
 70
     1
102
RTVSPropertyOp4
 70
     1
102
RTVSPropertyOp5
 70
     1
102
RTVSPropertyOp6
 70
     1
102
RTVSPropertyOp7
 70
     1
102
RTVSPropertyOp8
 70
     1
102
RTVSPropertyOp9
 70
     1
102
RTVSPropertyOp10
 70
     1
102
RTVSPropertyOp11
 70
     1
102
RTVSPropertyOp12
 70
     1
102
RTVSPropertyOp13
 70
     1
102
RTVSPropertyOp14
 70
     1
102
RTVSPropertyOp15
 70
     1
102
RTVSPropertyOp16
 70
     1
102
RTVSPropertyOp17
 70
     1
102
RTVSPropertyOp18
 70
     1
102
RTVSPropertyOp19
 70
     1
102
RTVSPropertyOp20
 70
     1
102
RTVSPropertyOp21
 70
     1
102
RTVSPropertyOp22
 70
     1
102
RTVSPropertyOp23
 70
     1
102
RTVSPropertyOp24
 70
     1
102
RTVSPropertyOp25
 70
     1
102
RTVSPropertyOp26
 70
     1
102
RTVSPropertyOp27
 70
     1
  0
XRECORD
  5
43F
102
{ACAD_REACTORS
330
43E
102
}
330
43E
100
AcDbXrecord
280
     1
102
RTVSPropertyOp0
 70
     1
102
RTVSPropertyOp1
 70
     1
102
RTVSPropertyOp2
 70
     1
102
RTVSPropertyOp3
 70
     1
102
RTVSPropertyOp4
 70
     1
102
RTVSPropertyOp5
 70
     1
102
RTVSPropertyOp6
 70
     1
102
RTVSPropertyOp7
 70
     1
102
RTVSPropertyOp8
 70
     1
102
RTVSPropertyOp9
 70
     1
102
RTVSPropertyOp10
 70
     1
102
RTVSPropertyOp11
 70
     1
102
RTVSPropertyOp12
 70
     1
102
RTVSPropertyOp13
 70
     1
102
RTVSPropertyOp14
 70
     1
102
RTVSPropertyOp15
 70
     1
102
RTVSPropertyOp16
 70
     1
102
RTVSPropertyOp17
 70
     1
102
RTVSPropertyOp18
 70
     1
102
RTVSPropertyOp19
 70
     1
102
RTVSPropertyOp20
 70
     1
102
RTVSPropertyOp21
 70
     1
102
RTVSPropertyOp22
 70
     1
102
RTVSPropertyOp23
 70
     1
102
RTVSPropertyOp24
 70
     1
102
RTVSPropertyOp25
 70
     1
102
RTVSPropertyOp26
 70
     1
102
RTVSPropertyOp27
 70
     1
  0
XRECORD
  5
447
102
{ACAD_REACTORS
330
446
102
}
330
446
100
AcDbXrecord
280
     1
102
RTVSPropertyOp0
 70
     1
102
RTVSPropertyOp1
 70
     1
102
RTVSPropertyOp2
 70
     1
102
RTVSPropertyOp3
 70
     1
102
RTVSPropertyOp4
 70
     1
102
RTVSPropertyOp5
 70
     1
102
RTVSPropertyOp6
 70
     1
102
RTVSPropertyOp7
 70
     1
102
RTVSPropertyOp8
 70
     1
102
RTVSPropertyOp9
 70
     1
102
RTVSPropertyOp10
 70
     1
102
RTVSPropertyOp11
 70
     1
102
RTVSPropertyOp12
 70
     1
102
RTVSPropertyOp13
 70
     1
102
RTVSPropertyOp14
 70
     1
102
RTVSPropertyOp15
 70
     1
102
RTVSPropertyOp16
 70
     1
102
RTVSPropertyOp17
 70
     1
102
RTVSPropertyOp18
 70
     1
102
RTVSPropertyOp19
 70
     1
102
RTVSPropertyOp20
 70
     1
102
RTVSPropertyOp21
 70
     1
102
RTVSPropertyOp22
 70
     1
102
RTVSPropertyOp23
 70
     1
102
RTVSPropertyOp24
 70
     1
102
RTVSPropertyOp25
 70
     1
102
RTVSPropertyOp26
 70
     1
102
RTVSPropertyOp27
 70
     1
  0
XRECORD
  5
43B
102
{ACAD_REACTORS
330
43A
102
}
330
43A
100
AcDbXrecord
280
     1
102
RTVSPropertyOp0
 70
     1
102
RTVSPropertyOp1
 70
     1
102
RTVSPropertyOp2
 70
     1
102
RTVSPropertyOp3
 70
     1
102
RTVSPropertyOp4
 70
     1
102
RTVSPropertyOp5
 70
     1
102
RTVSPropertyOp6
 70
     1
102
RTVSPropertyOp7
 70
     1
102
RTVSPropertyOp8
 70
     1
102
RTVSPropertyOp9
 70
     1
102
RTVSPropertyOp10
 70
     1
102
RTVSPropertyOp11
 70
     1
102
RTVSPropertyOp12
 70
     1
102
RTVSPropertyOp13
 70
     1
102
RTVSPropertyOp14
 70
     1
102
RTVSPropertyOp15
 70
     1
102
RTVSPropertyOp16
 70
     1
102
RTVSPropertyOp17
 70
     1
102
RTVSPropertyOp18
 70
     1
102
RTVSPropertyOp19
 70
     1
102
RTVSPropertyOp20
 70
     1
102
RTVSPropertyOp21
 70
     1
102
RTVSPropertyOp22
 70
     1
102
RTVSPropertyOp23
 70
     1
102
RTVSPropertyOp24
 70
     1
102
RTVSPropertyOp25
 70
     1
102
RTVSPropertyOp26
 70
     1
102
RTVSPropertyOp27
 70
     1
  0
XRECORD
  5
43D
102
{ACAD_REACTORS
330
43C
102
}
330
43C
100
AcDbXrecord
280
     1
102
RTVSPropertyOp0
 70
     1
102
RTVSPropertyOp1
 70
     1
102
RTVSPropertyOp2
 70
     1
102
RTVSPropertyOp3
 70
     1
102
RTVSPropertyOp4
 70
     1
102
RTVSPropertyOp5
 70
     1
102
RTVSPropertyOp6
 70
     1
102
RTVSPropertyOp7
 70
     1
102
RTVSPropertyOp8
 70
     1
102
RTVSPropertyOp9
 70
     1
102
RTVSPropertyOp10
 70
     1
102
RTVSPropertyOp11
 70
     1
102
RTVSPropertyOp12
 70
     1
102
RTVSPropertyOp13
 70
     1
102
RTVSPropertyOp14
 70
     1
102
RTVSPropertyOp15
 70
     1
102
RTVSPropertyOp16
 70
     1
102
RTVSPropertyOp17
 70
     1
102
RTVSPropertyOp18
 70
     1
102
RTVSPropertyOp19
 70
     1
102
RTVSPropertyOp20
 70
     1
102
RTVSPropertyOp21
 70
     1
102
RTVSPropertyOp22
 70
     1
102
RTVSPropertyOp23
 70
     1
102
RTVSPropertyOp24
 70
     1
102
RTVSPropertyOp25
 70
     1
102
RTVSPropertyOp26
 70
     1
102
RTVSPropertyOp27
 70
     1
  0
XRECORD
  5
445
102
{ACAD_REACTORS
330
444
102
}
330
444
100
AcDbXrecord
280
     1
102
RTVSPropertyOp0
 70
     1
102
RTVSPropertyOp1
 70
     1
102
RTVSPropertyOp2
 70
     1
102
RTVSPropertyOp3
 70
     1
102
RTVSPropertyOp4
 70
     1
102
RTVSPropertyOp5
 70
     1
102
RTVSPropertyOp6
 70
     1
102
RTVSPropertyOp7
 70
     1
102
RTVSPropertyOp8
 70
     1
102
RTVSPropertyOp9
 70
     1
102
RTVSPropertyOp10
 70
     1
102
RTVSPropertyOp11
 70
     1
102
RTVSPropertyOp12
 70
     1
102
RTVSPropertyOp13
 70
     1
102
RTVSPropertyOp14
 70
     1
102
RTVSPropertyOp15
 70
     1
102
RTVSPropertyOp16
 70
     1
102
RTVSPropertyOp17
 70
     1
102
RTVSPropertyOp18
 70
     1
102
RTVSPropertyOp19
 70
     1
102
RTVSPropertyOp20
 70
     1
102
RTVSPropertyOp21
 70
     1
102
RTVSPropertyOp22
 70
     1
102
RTVSPropertyOp23
 70
     1
102
RTVSPropertyOp24
 70
     1
102
RTVSPropertyOp25
 70
     1
102
RTVSPropertyOp26
 70
     1
102
RTVSPropertyOp27
 70
     1
  0
XRECORD
  5
429
102
{ACAD_REACTORS
330
428
102
}
330
428
100
AcDbXrecord
280
     1
102
RTVSPropertyOp0
 70
     1
102
RTVSPropertyOp1
 70
     1
102
RTVSPropertyOp2
 70
     1
102
RTVSPropertyOp3
 70
     1
102
RTVSPropertyOp4
 70
     1
102
RTVSPropertyOp5
 70
     1
102
RTVSPropertyOp6
 70
     1
102
RTVSPropertyOp7
 70
     1
102
RTVSPropertyOp8
 70
     1
102
RTVSPropertyOp9
 70
     1
102
RTVSPropertyOp10
 70
     1
102
RTVSPropertyOp11
 70
     1
102
RTVSPropertyOp12
 70
     1
102
RTVSPropertyOp13
 70
     1
102
RTVSPropertyOp14
 70
     1
102
RTVSPropertyOp15
 70
     1
102
RTVSPropertyOp16
 70
     1
102
RTVSPropertyOp17
 70
     1
102
RTVSPropertyOp18
 70
     1
102
RTVSPropertyOp19
 70
     1
102
RTVSPropertyOp20
 70
     1
102
RTVSPropertyOp21
 70
     1
102
RTVSPropertyOp22
 70
     1
102
RTVSPropertyOp23
 70
     1
102
RTVSPropertyOp24
 70
     1
102
RTVSPropertyOp25
 70
     1
102
RTVSPropertyOp26
 70
     1
102
RTVSPropertyOp27
 70
     1
  0
XRECORD
  5
42B
102
{ACAD_REACTORS
330
42A
102
}
330
42A
100
AcDbXrecord
280
     1
102
RTVSPropertyOp0
 70
     1
102
RTVSPropertyOp1
 70
     1
102
RTVSPropertyOp2
 70
     1
102
RTVSPropertyOp3
 70
     1
102
RTVSPropertyOp4
 70
     1
102
RTVSPropertyOp5
 70
     1
102
RTVSPropertyOp6
 70
     1
102
RTVSPropertyOp7
 70
     1
102
RTVSPropertyOp8
 70
     1
102
RTVSPropertyOp9
 70
     1
102
RTVSPropertyOp10
 70
     1
102
RTVSPropertyOp11
 70
     1
102
RTVSPropertyOp12
 70
     1
102
RTVSPropertyOp13
 70
     1
102
RTVSPropertyOp14
 70
     1
102
RTVSPropertyOp15
 70
     1
102
RTVSPropertyOp16
 70
     1
102
RTVSPropertyOp17
 70
     1
102
RTVSPropertyOp18
 70
     1
102
RTVSPropertyOp19
 70
     1
102
RTVSPropertyOp20
 70
     1
102
RTVSPropertyOp21
 70
     1
102
RTVSPropertyOp22
 70
     1
102
RTVSPropertyOp23
 70
     1
102
RTVSPropertyOp24
 70
     1
102
RTVSPropertyOp25
 70
     1
102
RTVSPropertyOp26
 70
     1
102
RTVSPropertyOp27
 70
     1
  0
XRECORD
  5
42D
102
{ACAD_REACTORS
330
42C
102
}
330
42C
100
AcDbXrecord
280
     1
102
RTVSPropertyOp0
 70
     1
102
RTVSPropertyOp1
 70
     1
102
RTVSPropertyOp2
 70
     1
102
RTVSPropertyOp3
 70
     1
102
RTVSPropertyOp4
 70
     1
102
RTVSPropertyOp5
 70
     1
102
RTVSPropertyOp6
 70
     1
102
RTVSPropertyOp7
 70
     1
102
RTVSPropertyOp8
 70
     1
102
RTVSPropertyOp9
 70
     1
102
RTVSPropertyOp10
 70
     1
102
RTVSPropertyOp11
 70
     1
102
RTVSPropertyOp12
 70
     1
102
RTVSPropertyOp13
 70
     1
102
RTVSPropertyOp14
 70
     1
102
RTVSPropertyOp15
 70
     1
102
RTVSPropertyOp16
 70
     1
102
RTVSPropertyOp17
 70
     1
102
RTVSPropertyOp18
 70
     1
102
RTVSPropertyOp19
 70
     1
102
RTVSPropertyOp20
 70
     1
102
RTVSPropertyOp21
 70
     1
102
RTVSPropertyOp22
 70
     1
102
RTVSPropertyOp23
 70
     1
102
RTVSPropertyOp24
 70
     1
102
RTVSPropertyOp25
 70
     1
102
RTVSPropertyOp26
 70
     1
102
RTVSPropertyOp27
 70
     1
  0
XRECORD
  5
42F
102
{ACAD_REACTORS
330
42E
102
}
330
42E
100
AcDbXrecord
280
     1
102
RTVSPropertyOp0
 70
     1
102
RTVSPropertyOp1
 70
     1
102
RTVSPropertyOp2
 70
     1
102
RTVSPropertyOp3
 70
     1
102
RTVSPropertyOp4
 70
     1
102
RTVSPropertyOp5
 70
     1
102
RTVSPropertyOp6
 70
     1
102
RTVSPropertyOp7
 70
     1
102
RTVSPropertyOp8
 70
     1
102
RTVSPropertyOp9
 70
     1
102
RTVSPropertyOp10
 70
     1
102
RTVSPropertyOp11
 70
     1
102
RTVSPropertyOp12
 70
     1
102
RTVSPropertyOp13
 70
     1
102
RTVSPropertyOp14
 70
     1
102
RTVSPropertyOp15
 70
     1
102
RTVSPropertyOp16
 70
     1
102
RTVSPropertyOp17
 70
     1
102
RTVSPropertyOp18
 70
     1
102
RTVSPropertyOp19
 70
     1
102
RTVSPropertyOp20
 70
     1
102
RTVSPropertyOp21
 70
     1
102
RTVSPropertyOp22
 70
     1
102
RTVSPropertyOp23
 70
     1
102
RTVSPropertyOp24
 70
     1
102
RTVSPropertyOp25
 70
     1
102
RTVSPropertyOp26
 70
     1
102
RTVSPropertyOp27
 70
     1
  0
XRECORD
  5
443
102
{ACAD_REACTORS
330
442
102
}
330
442
100
AcDbXrecord
280
     1
102
RTVSPropertyOp0
 70
     1
102
RTVSPropertyOp1
 70
     1
102
RTVSPropertyOp2
 70
     1
102
RTVSPropertyOp3
 70
     1
102
RTVSPropertyOp4
 70
     1
102
RTVSPropertyOp5
 70
     1
102
RTVSPropertyOp6
 70
     1
102
RTVSPropertyOp7
 70
     1
102
RTVSPropertyOp8
 70
     1
102
RTVSPropertyOp9
 70
     1
102
RTVSPropertyOp10
 70
     1
102
RTVSPropertyOp11
 70
     1
102
RTVSPropertyOp12
 70
     1
102
RTVSPropertyOp13
 70
     1
102
RTVSPropertyOp14
 70
     1
102
RTVSPropertyOp15
 70
     1
102
RTVSPropertyOp16
 70
     1
102
RTVSPropertyOp17
 70
     1
102
RTVSPropertyOp18
 70
     1
102
RTVSPropertyOp19
 70
     1
102
RTVSPropertyOp20
 70
     1
102
RTVSPropertyOp21
 70
     1
102
RTVSPropertyOp22
 70
     1
102
RTVSPropertyOp23
 70
     1
102
RTVSPropertyOp24
 70
     1
102
RTVSPropertyOp25
 70
     1
102
RTVSPropertyOp26
 70
     1
102
RTVSPropertyOp27
 70
     1
  0
XRECORD
  5
439
102
{ACAD_REACTORS
330
438
102
}
330
438
100
AcDbXrecord
280
     1
102
RTVSPropertyOp0
 70
     1
102
RTVSPropertyOp1
 70
     1
102
RTVSPropertyOp2
 70
     1
102
RTVSPropertyOp3
 70
     1
102
RTVSPropertyOp4
 70
     1
102
RTVSPropertyOp5
 70
     1
102
RTVSPropertyOp6
 70
     1
102
RTVSPropertyOp7
 70
     1
102
RTVSPropertyOp8
 70
     1
102
RTVSPropertyOp9
 70
     1
102
RTVSPropertyOp10
 70
     1
102
RTVSPropertyOp11
 70
     1
102
RTVSPropertyOp12
 70
     1
102
RTVSPropertyOp13
 70
     1
102
RTVSPropertyOp14
 70
     1
102
RTVSPropertyOp15
 70
     1
102
RTVSPropertyOp16
 70
     1
102
RTVSPropertyOp17
 70
     1
102
RTVSPropertyOp18
 70
     1
102
RTVSPropertyOp19
 70
     1
102
RTVSPropertyOp20
 70
     1
102
RTVSPropertyOp21
 70
     1
102
RTVSPropertyOp22
 70
     1
102
RTVSPropertyOp23
 70
     1
102
RTVSPropertyOp24
 70
     1
102
RTVSPropertyOp25
 70
     1
102
RTVSPropertyOp26
 70
     1
102
RTVSPropertyOp27
 70
     1
  0
XRECORD
  5
441
102
{ACAD_REACTORS
330
440
102
}
330
440
100
AcDbXrecord
280
     1
102
RTVSPropertyOp0
 70
     1
102
RTVSPropertyOp1
 70
     1
102
RTVSPropertyOp2
 70
     1
102
RTVSPropertyOp3
 70
     1
102
RTVSPropertyOp4
 70
     1
102
RTVSPropertyOp5
 70
     1
102
RTVSPropertyOp6
 70
     1
102
RTVSPropertyOp7
 70
     1
102
RTVSPropertyOp8
 70
     1
102
RTVSPropertyOp9
 70
     1
102
RTVSPropertyOp10
 70
     1
102
RTVSPropertyOp11
 70
     1
102
RTVSPropertyOp12
 70
     1
102
RTVSPropertyOp13
 70
     1
102
RTVSPropertyOp14
 70
     1
102
RTVSPropertyOp15
 70
     1
102
RTVSPropertyOp16
 70
     1
102
RTVSPropertyOp17
 70
     1
102
RTVSPropertyOp18
 70
     1
102
RTVSPropertyOp19
 70
     1
102
RTVSPropertyOp20
 70
     1
102
RTVSPropertyOp21
 70
     1
102
RTVSPropertyOp22
 70
     1
102
RTVSPropertyOp23
 70
     1
102
RTVSPropertyOp24
 70
     1
102
RTVSPropertyOp25
 70
     1
102
RTVSPropertyOp26
 70
     1
102
RTVSPropertyOp27
 70
     1
  0
ENDSEC
  0
EOF
