  0
SECTION
  2
HEADER
  9
$ACADVER
  1
AC1014
  9
$ACADMAINTVER
 70
     9
  9
$DWGCODEPAGE
  3
ANSI_932
  9
$INSBASE
 10
0.0
 20
0.0
 30
0.0
  9
$EXTMIN
 10
0.0
 20
0.0
 30
0.0
  9
$EXTMAX
 10
594.0
 20
420.0
 30
0.0
  9
$LIMMIN
 10
0.0
 20
0.0
  9
$LIMMAX
 10
594.0
 20
420.0
  9
$ORTHOMODE
 70
     0
  9
$REGENMODE
 70
     1
  9
$FILLMODE
 70
     1
  9
$QTEXTMODE
 70
     0
  9
$MIRRTEXT
 70
     1
  9
$DRAGMODE
 70
     2
  9
$LTSCALE
 40
1.0
  9
$OSMODE
 70
    37
  9
$ATTMODE
 70
     1
  9
$TEXTSIZE
 40
0.2
  9
$TRACEWID
 40
0.05
  9
$TEXTSTYLE
  7
STYLE1
  9
$CLAYER
  8
0
  9
$CELTYPE
  6
BYLAYER
  9
$CECOLOR
 62
   256
  9
$CELTSCALE
 40
1.0
  9
$DELOBJ
 70
     1
  9
$DISPSILH
 70
     0
  9
$DIMSCALE
 40
1.0
  9
$DIMASZ
 40
4.0
  9
$DIMEXO
 40
1.0
  9
$DIMDLI
 40
10.0
  9
$DIMRND
 40
0.0
  9
$DIMDLE
 40
6.0
  9
$DIMEXE
 40
1.0
  9
$DIMTP
 40
0.0
  9
$DIMTM
 40
0.0
  9
$DIMTXT
 40
4.0
  9
$DIMCEN
 40
2.5
  9
$DIMTSZ
 40
0.0
  9
$DIMTOL
 70
     0
  9
$DIMLIM
 70
     0
  9
$DIMTIH
 70
     0
  9
$DIMTOH
 70
     0
  9
$DIMSE1
 70
     0
  9
$DIMSE2
 70
     0
  9
$DIMTAD
 70
     1
  9
$DIMZIN
 70
     8
  9
$DIMBLK
  1

  9
$DIMASO
 70
     1
  9
$DIMSHO
 70
     1
  9
$DIMPOST
  1

  9
$DIMAPOST
  1

  9
$DIMALT
 70
     0
  9
$DIMALTD
 70
     3
  9
$DIMALTF
 40
0.03937
  9
$DIMLFAC
 40
1.0
  9
$DIMTOFL
 70
     1
  9
$DIMTVP
 40
0.0
  9
$DIMTIX
 70
     0
  9
$DIMSOXD
 70
     0
  9
$DIMSAH
 70
     1
  9
$DIMBLK1
  1

  9
$DIMBLK2
  1
FXTIP_ARROW_E
  9
$DIMSTYLE
  2
FXDIMINFO
  9
$DIMCLRD
 70
     7
  9
$DIMCLRE
 70
     7
  9
$DIMCLRT
 70
     7
  9
$DIMTFAC
 40
1.0
  9
$DIMGAP
 40
1.0
  9
$DIMJUST
 70
     0
  9
$DIMSD1
 70
     0
  9
$DIMSD2
 70
     0
  9
$DIMTOLJ
 70
     0
  9
$DIMTZIN
 70
     8
  9
$DIMALTZ
 70
     0
  9
$DIMALTTZ
 70
     0
  9
$DIMFIT
 70
     3
  9
$DIMUPT
 70
     0
  9
$DIMUNIT
 70
     2
  9
$DIMDEC
 70
     2
  9
$DIMTDEC
 70
     2
  9
$DIMALTU
 70
     2
  9
$DIMALTTD
 70
     3
  9
$DIMTXSTY
  7
STYLE1
  9
$DIMAUNIT
 70
     0
  9
$LUNITS
 70
     2
  9
$LUPREC
 70
     4
  9
$SKETCHINC
 40
0.1
  9
$FILLETRAD
 40
0.5
  9
$AUNITS
 70
     0
  9
$AUPREC
 70
     0
  9
$MENU
  1
.
  9
$ELEVATION
 40
0.0
  9
$PELEVATION
 40
0.0
  9
$THICKNESS
 40
0.0
  9
$LIMCHECK
 70
     0
  9
$CHAMFERA
 40
0.5
  9
$CHAMFERB
 40
0.5
  9
$CHAMFERC
 40
1.0
  9
$CHAMFERD
 40
0.0
  9
$SKPOLY
 70
     0
  9
$TDCREATE
 40
2455301.476292523
  9
$TDUPDATE
 40
2455301.476292535
  9
$TDINDWG
 40
0.0000000116
  9
$TDUSRTIMER
 40
0.0000000116
  9
$USRTIMER
 70
     1
  9
$ANGBASE
 50
0.0
  9
$ANGDIR
 70
     0
  9
$PDMODE
 70
     0
  9
$PDSIZE
 40
0.0
  9
$PLINEWID
 40
0.0
  9
$COORDS
 70
     1
  9
$SPLFRAME
 70
     0
  9
$SPLINETYPE
 70
     6
  9
$SPLINESEGS
 70
     8
  9
$ATTDIA
 70
     0
  9
$ATTREQ
 70
     1
  9
$HANDLING
 70
     1
  9
$HANDSEED
  5
4A5
  9
$SURFTAB1
 70
     6
  9
$SURFTAB2
 70
     6
  9
$SURFTYPE
 70
     6
  9
$SURFU
 70
     6
  9
$SURFV
 70
     6
  9
$UCSNAME
  2

  9
$UCSORG
 10
0.0
 20
0.0
 30
0.0
  9
$UCSXDIR
 10
1.0
 20
0.0
 30
0.0
  9
$UCSYDIR
 10
0.0
 20
1.0
 30
0.0
  9
$PUCSNAME
  2

  9
$PUCSORG
 10
0.0
 20
0.0
 30
0.0
  9
$PUCSXDIR
 10
1.0
 20
0.0
 30
0.0
  9
$PUCSYDIR
 10
0.0
 20
1.0
 30
0.0
  9
$USERI1
 70
     0
  9
$USERI2
 70
     0
  9
$USERI3
 70
     0
  9
$USERI4
 70
     0
  9
$USERI5
 70
     0
  9
$USERR1
 40
0.0
  9
$USERR2
 40
0.0
  9
$USERR3
 40
0.0
  9
$USERR4
 40
0.0
  9
$USERR5
 40
0.0
  9
$WORLDVIEW
 70
     1
  9
$SHADEDGE
 70
     3
  9
$SHADEDIF
 70
    70
  9
$TILEMODE
 70
     1
  9
$MAXACTVP
 70
    64
  9
$PINSBASE
 10
0.0
 20
0.0
 30
0.0
  9
$PLIMCHECK
 70
     0
  9
$PEXTMIN
 10
1.000000E+20
 20
1.000000E+20
 30
1.000000E+20
  9
$PEXTMAX
 10
-1.000000E+20
 20
-1.000000E+20
 30
-1.000000E+20
  9
$PLIMMIN
 10
0.0
 20
0.0
  9
$PLIMMAX
 10
12.0
 20
9.0
  9
$UNITMODE
 70
     0
  9
$VISRETAIN
 70
     1
  9
$PLINEGEN
 70
     0
  9
$PSLTSCALE
 70
     1
  9
$TREEDEPTH
 70
  3020
  9
$PICKSTYLE
 70
     1
  9
$CMLSTYLE
  2
STANDARD
  9
$CMLJUST
 70
     0
  9
$CMLSCALE
 40
1.0
  9
$PROXYGRAPHICS
 70
     1
  9
$MEASUREMENT
 70
     0
  0
ENDSEC
  0
SECTION
  2
CLASSES
  0
CLASS
  1
ACDBDICTIONARYWDFLT
  2
AcDbDictionaryWithDefault
  3
ObjectDBX Classes
 90
        0
280
     0
281
     0
  0
CLASS
  1
XRECORD
  2
AcDbXrecord
  3
AutoCAD 2000
 90
        0
280
     0
281
     0
  0
CLASS
  1
LWPOLYLINE
  2
AcDbPolyline
  3
AutoCAD 2000
 90
        0
280
     0
281
     1
  0
CLASS
  1
HATCH
  2
AcDbHatch
  3
AutoCAD 2000
 90
        0
280
     0
281
     1
  0
CLASS
  1
ACDBPLACEHOLDER
  2
AcDbPlaceHolder
  3
ObjectDBX Classes
 90
        0
280
     0
281
     0
  0
CLASS
  1
LAYOUT
  2
AcDbLayout
  3
ObjectDBX Classes
 90
        0
280
     0
281
     0
  0
ENDSEC
  0
SECTION
  2
TABLES
  0
TABLE
  2
VPORT
  5
8
330
0
100
AcDbSymbolTable
 70
     1
  0
VPORT
  5
29
330
8
100
AcDbSymbolTableRecord
100
AcDbViewportTableRecord
  2
*ACTIVE
 70
     0
 10
0.0
 20
0.0
 11
1.0
 21
1.0
 12
297.0
 22
210.0
 13
0.0
 23
0.0
 14
0.5
 24
0.5
 15
0.5
 25
0.5
 16
0.0
 26
0.0
 36
1.0
 17
0.0
 27
0.0
 37
0.0
 40
420.0
 41
1.414286
 42
50.0
 43
0.0
 44
0.0
 50
0.0
 51
0.0
 71
     0
 72
   100
 73
     1
 74
     3
 75
     0
 76
     0
 77
     0
 78
     0
  0
ENDTAB
  0
TABLE
  2
LTYPE
  5
5
330
0
100
AcDbSymbolTable
 70
     4
  0
LTYPE
  5
14
330
5
100
AcDbSymbolTableRecord
100
AcDbLinetypeTableRecord
  2
BYBLOCK
 70
     0
  3

 72
    65
 73
     0
 40
0.0
  0
LTYPE
  5
15
330
5
100
AcDbSymbolTableRecord
100
AcDbLinetypeTableRecord
  2
BYLAYER
 70
     0
  3

 72
    65
 73
     0
 40
0.0
  0
LTYPE
  5
16
330
5
100
AcDbSymbolTableRecord
100
AcDbLinetypeTableRecord
  2
CONTINUOUS
 70
     0
  3
--------------------
 72
    65
 73
     0
 40
0.0
  0
LTYPE
  5
2A
330
5
100
AcDbSymbolTableRecord
100
AcDbLinetypeTableRecord
  2
CENTER
 70
     0
  3
Center ____ _ ____ _ ____ _ ____ _ ____ _ ____
 72
    65
 73
     4
 40
13.0
 49
10.0
 74
     0
 49
-1.0
 74
     0
 49
1.0
 74
     0
 49
-1.0
 74
     0
  0
LTYPE
  5
2B
330
5
100
AcDbSymbolTableRecord
100
AcDbLinetypeTableRecord
  2
PHANTOM
 70
     0
  3
Phantom ______  __  __  ______  __  __  ______
 72
    65
 73
     6
 40
15.0
 49
10.0
 74
     0
 49
-1.0
 74
     0
 49
1.0
 74
     0
 49
-1.0
 74
     0
 49
1.0
 74
     0
 49
-1.0
 74
     0
  0
LTYPE
  5
2C
330
5
100
AcDbSymbolTableRecord
100
AcDbLinetypeTableRecord
  2
DASHED
 70
     0
  3
Dashed __ __ __ __ __ __ __ __ __ __ __ __ __ _
 72
    65
 73
     2
 40
4.0
 49
3.0
 74
     0
 49
-1.0
 74
     0
  0
ENDTAB
  0
TABLE
  2
LAYER
  5
2
330
0
100
AcDbSymbolTable
 70
    21
  0
LAYER
  5
10
330
2
100
AcDbSymbolTableRecord
100
AcDbLayerTableRecord
  2
0
 70
     0
 62
     7
  6
CONTINUOUS
  0
LAYER
  5
2D
330
2
100
AcDbSymbolTableRecord
100
AcDbLayerTableRecord
  2
LAYERGROUP-1
 70
     0
 62
     3
  6
CONTINUOUS
  0
LAYER
  5
3D
330
2
100
AcDbSymbolTableRecord
100
AcDbLayerTableRecord
  2
}}ﾊﾊGG血CCТ
 70
     0
 62
     3
  6
CONTINUOUS
  0
LAYER
  5
106
330
2
100
AcDbSymbolTableRecord
100
AcDbLayerTableRecord
  2
GR1-1
 70
     0
 62
     7
  6
CONTINUOUS
  0
LAYER
  5
12F
330
2
100
AcDbSymbolTableRecord
100
AcDbLayerTableRecord
  2
1-1
 70
     0
 62
     7
  6
CONTINUOUS
  0
LAYER
  5
321
330
2
100
AcDbSymbolTableRecord
100
AcDbLayerTableRecord
  2
0-1
 70
     0
 62
     7
  6
CONTINUOUS
  0
ENDTAB
  0
TABLE
  2
STYLE
  5
3
330
0
100
AcDbSymbolTable
 70
     4
  0
STYLE
  5
11
330
3
100
AcDbSymbolTableRecord
100
AcDbTextStyleTableRecord
  2
STANDARD
 70
     0
 40
0.0
 41
1.0
 50
0.0
 71
     0
 42
0.2
  3
txt
  4

  0
STYLE
  5
3F
330
3
100
AcDbSymbolTableRecord
100
AcDbTextStyleTableRecord
  2
STYLE1
 70
     0
 40
0.0
 41
1.0
 50
0.0
 71
     0
 42
0.2
  3
MONOTXT.SHX
  4
extfont.shx
  0
STYLE
  5
40
330
3
100
AcDbSymbolTableRecord
100
AcDbTextStyleTableRecord
  2
FX_VECTOR
 70
     0
 40
0.0
 41
1.0
 50
0.0
 71
     0
 42
0.2
  3
MONOTXT.SHX
  4
BIGFONT.SHX
  0
ENDTAB
  0
TABLE
  2
VIEW
  5
6
330
0
100
AcDbSymbolTable
 70
     0
  0
ENDTAB
  0
TABLE
  2
UCS
  5
7
330
0
100
AcDbSymbolTable
 70
     0
  0
ENDTAB
  0
TABLE
  2
APPID
  5
9
330
0
100
AcDbSymbolTable
 70
     1
  0
APPID
  5
12
330
9
100
AcDbSymbolTableRecord
100
AcDbRegAppTableRecord
  2
ACAD
 70
     0
  0
ENDTAB
  0
TABLE
  2
DIMSTYLE
  5
A
330
0
100
AcDbSymbolTable
 70
     2
  0
DIMSTYLE
105
27
330
A
100
AcDbSymbolTableRecord
100
AcDbDimStyleTableRecord
  2
STANDARD
 70
     0
  3

  4

  5

  6

  7

 40
1.0
 41
0.18
 42
0.0625
 43
0.38
 44
0.18
 45
0.0
 46
0.0
 47
0.0
 48
0.0
140
0.18
141
0.09
142
0.0
143
25.4
144
1.0
145
0.0
146
1.0
147
0.09
 71
     0
 72
     0
 73
     1
 74
     1
 75
     0
 76
     0
 77
     0
 78
     0
170
     0
171
     2
172
     0
173
     0
174
     0
175
     0
176
     0
177
     0
178
     0
270
     2
271
     4
272
     4
273
     2
274
     2
340
11
275
     0
280
     0
281
     0
282
     0
283
     1
284
     0
285
     0
286
     0
287
     3
288
     0
  0
DIMSTYLE
105
A7
330
A
100
AcDbSymbolTableRecord
100
AcDbDimStyleTableRecord
  2
FXDIMINFO
 70
     0
  3

  4

  5

  6

  7
FXTIP_ARROW_E
 40
1.0
 41
4.0
 42
1.0
 43
10.0
 44
1.0
 45
0.0
 46
6.0
 47
0.0
 48
0.0
140
4.0
141
2.5
142
0.0
143
0.03937
144
1.0
145
0.0
146
1.0
147
1.0
 71
     0
 72
     0
 73
     0
 74
     0
 75
     0
 76
     0
 77
     1
 78
     8
170
     0
171
     3
172
     1
173
     1
174
     0
175
     0
176
     7
177
     7
178
     7
179
     2
270
     2
271
     2
272
     2
273
     2
274
     3
340
3F
275
     0
280
     0
281
     0
282
     0
283
     0
284
     8
285
     0
286
     0
287
     3
288
     0
  0
ENDTAB
  0
TABLE
  2
BLOCK_RECORD
  5
1
330
0
100
AcDbSymbolTable
 70
    19
  0
BLOCK_RECORD
  5
1F
330
1
100
AcDbSymbolTableRecord
100
AcDbBlockTableRecord
  2
*MODEL_SPACE
  0
BLOCK_RECORD
  5
1B
330
1
100
AcDbSymbolTableRecord
100
AcDbBlockTableRecord
  2
*PAPER_SPACE
  0
BLOCK_RECORD
  5
41
330
1
100
AcDbSymbolTableRecord
100
AcDbBlockTableRecord
  2
FXTIP_ARROW_S
  0
BLOCK_RECORD
  5
47
330
1
100
AcDbSymbolTableRecord
100
AcDbBlockTableRecord
  2
FXTIP_ARROW_E
  0
BLOCK_RECORD
  5
4D
330
1
100
AcDbSymbolTableRecord
100
AcDbBlockTableRecord
  2
FXTIP_BLACKDOT_S
  0
BLOCK_RECORD
  5
53
330
1
100
AcDbSymbolTableRecord
100
AcDbBlockTableRecord
  2
FXTIP_BLACKDOT_E
  0
BLOCK_RECORD
  5
59
330
1
100
AcDbSymbolTableRecord
100
AcDbBlockTableRecord
  2
FXTIP_TRIANGLE_S
  0
BLOCK_RECORD
  5
60
330
1
100
AcDbSymbolTableRecord
100
AcDbBlockTableRecord
  2
FXTIP_TRIANGLE_E
  0
BLOCK_RECORD
  5
67
330
1
100
AcDbSymbolTableRecord
100
AcDbBlockTableRecord
  2
FXTIP_ARCHITECT_S
  0
BLOCK_RECORD
  5
6D
330
1
100
AcDbSymbolTableRecord
100
AcDbBlockTableRecord
  2
FXTIP_ARCHITECT_E
  0
BLOCK_RECORD
  5
73
330
1
100
AcDbSymbolTableRecord
100
AcDbBlockTableRecord
  2
FXTIP_CIVIL_S
  0
BLOCK_RECORD
  5
79
330
1
100
AcDbSymbolTableRecord
100
AcDbBlockTableRecord
  2
FXTIP_CIVIL_E
  0
BLOCK_RECORD
  5
7F
330
1
100
AcDbSymbolTableRecord
100
AcDbBlockTableRecord
  2
FXTIP_WHITEDOT_S
  0
BLOCK_RECORD
  5
84
330
1
100
AcDbSymbolTableRecord
100
AcDbBlockTableRecord
  2
FXTIP_WHITEDOT_E
  0
BLOCK_RECORD
  5
89
330
1
100
AcDbSymbolTableRecord
100
AcDbBlockTableRecord
  2
FXTIP_UPARROW_S
  0
BLOCK_RECORD
  5
8E
330
1
100
AcDbSymbolTableRecord
100
AcDbBlockTableRecord
  2
FXTIP_UPARROW_E
  0
BLOCK_RECORD
  5
93
330
1
100
AcDbSymbolTableRecord
100
AcDbBlockTableRecord
  2
FXTIP_DOWNARROW_S
  0
BLOCK_RECORD
  5
98
330
1
100
AcDbSymbolTableRecord
100
AcDbBlockTableRecord
  2
FXTIP_DOWNARROW_E
  0
BLOCK_RECORD
  5
9D
330
1
100
AcDbSymbolTableRecord
100
AcDbBlockTableRecord
  2
FXTIP_BLACKTRIANGLE_S
  0
BLOCK_RECORD
  5
A2
330
1
100
AcDbSymbolTableRecord
100
AcDbBlockTableRecord
  2
FXTIP_BLACKTRIANGLE_E
  0
ENDTAB
  0
ENDSEC
  0
SECTION
  2
BLOCKS
  0
BLOCK
  5
20
330
1F
100
AcDbEntity
  8
0
100
AcDbBlockBegin
  2
*MODEL_SPACE
 70
     0
 71
     0
 10
0.0
 20
0.0
 30
0.0
  3
*MODEL_SPACE
  1

  0
ENDBLK
  5
21
330
1F
100
AcDbEntity
  8
0
100
AcDbBlockEnd
  0
BLOCK
  5
1C
330
1B
100
AcDbEntity
 67
     1
  8
0
100
AcDbBlockBegin
  2
*PAPER_SPACE
 70
     0
 71
     0
 10
0.0
 20
0.0
 30
0.0
  3
*PAPER_SPACE
  1

  0
ENDBLK
  5
1D
330
1B
100
AcDbEntity
 67
     1
  8
0
100
AcDbBlockEnd
  0
BLOCK
  5
42
330
41
100
AcDbEntity
  8
0
100
AcDbBlockBegin
  2
FXTIP_ARROW_S
 70
     0
 71
     0
 10
0.0
 20
0.0
 30
0.0
  3
FXTIP_ARROW_S
  1

  0
LINE
  5
44
330
41
100
AcDbEntity
  8
0
  6
CONTINUOUS
 62
     0
100
AcDbLine
 10
0.0
 20
0.0
 30
0.0
 11
-1.0
 21
0.0
 31
0.0
  0
LINE
  5
45
330
41
100
AcDbEntity
  8
0
  6
CONTINUOUS
 62
     0
100
AcDbLine
 10
0.0
 20
0.0
 30
0.0
 11
-0.965926
 21
-0.258819
 31
0.0
  0
LINE
  5
46
330
41
100
AcDbEntity
  8
0
  6
CONTINUOUS
 62
     0
100
AcDbLine
 10
0.0
 20
0.0
 30
0.0
 11
-0.965926
 21
0.258819
 31
0.0
  0
ENDBLK
  5
43
330
41
100
AcDbEntity
  8
0
100
AcDbBlockEnd
  0
BLOCK
  5
48
330
47
100
AcDbEntity
  8
0
100
AcDbBlockBegin
  2
FXTIP_ARROW_E
 70
     0
 71
     0
 10
0.0
 20
0.0
 30
0.0
  3
FXTIP_ARROW_E
  1

  0
LINE
  5
4A
330
47
100
AcDbEntity
  8
0
  6
CONTINUOUS
 62
     0
100
AcDbLine
 10
0.0
 20
0.0
 30
0.0
 11
-1.0
 21
0.0
 31
0.0
  0
LINE
  5
4B
330
47
100
AcDbEntity
  8
0
  6
CONTINUOUS
 62
     0
100
AcDbLine
 10
0.0
 20
0.0
 30
0.0
 11
-0.965926
 21
0.258819
 31
0.0
  0
LINE
  5
4C
330
47
100
AcDbEntity
  8
0
  6
CONTINUOUS
 62
     0
100
AcDbLine
 10
0.0
 20
0.0
 30
0.0
 11
-0.965926
 21
-0.258819
 31
0.0
  0
ENDBLK
  5
49
330
47
100
AcDbEntity
  8
0
100
AcDbBlockEnd
  0
BLOCK
  5
4E
330
4D
100
AcDbEntity
  8
0
100
AcDbBlockBegin
  2
FXTIP_BLACKDOT_S
 70
     0
 71
     0
 10
0.0
 20
0.0
 30
0.0
  3
FXTIP_BLACKDOT_S
  1

  0
LINE
  5
50
330
4D
100
AcDbEntity
  8
0
  6
CONTINUOUS
 62
     0
100
AcDbLine
 10
0.0
 20
0.0
 30
0.0
 11
-1.0
 21
0.0
 31
0.0
  0
LWPOLYLINE
  5
51
330
4D
100
AcDbEntity
  8
0
  6
CONTINUOUS
 62
     0
100
AcDbPolyline
 90
        2
 70
     1
 10
-0.25
 20
0.0
 40
0.5
 41
0.5
 42
1.0
 10
0.25
 20
0.0
 40
0.5
 41
0.5
 42
1.0
  0
CIRCLE
  5
52
330
4D
100
AcDbEntity
  8
0
  6
CONTINUOUS
 62
     0
100
AcDbCircle
 10
0.0
 20
0.0
 30
0.0
 40
0.5
  0
ENDBLK
  5
4F
330
4D
100
AcDbEntity
  8
0
100
AcDbBlockEnd
  0
BLOCK
  5
54
330
53
100
AcDbEntity
  8
0
100
AcDbBlockBegin
  2
FXTIP_BLACKDOT_E
 70
     0
 71
     0
 10
0.0
 20
0.0
 30
0.0
  3
FXTIP_BLACKDOT_E
  1

  0
LINE
  5
56
330
53
100
AcDbEntity
  8
0
  6
CONTINUOUS
 62
     0
100
AcDbLine
 10
0.0
 20
0.0
 30
0.0
 11
-1.0
 21
0.0
 31
0.0
  0
LWPOLYLINE
  5
57
330
53
100
AcDbEntity
  8
0
  6
CONTINUOUS
 62
     0
100
AcDbPolyline
 90
        2
 70
     1
 10
-0.25
 20
0.0
 40
0.5
 41
0.5
 42
1.0
 10
0.25
 20
0.0
 40
0.5
 41
0.5
 42
1.0
  0
CIRCLE
  5
58
330
53
100
AcDbEntity
  8
0
  6
CONTINUOUS
 62
     0
100
AcDbCircle
 10
0.0
 20
0.0
 30
0.0
 40
0.5
  0
ENDBLK
  5
55
330
53
100
AcDbEntity
  8
0
100
AcDbBlockEnd
  0
BLOCK
  5
5A
330
59
100
AcDbEntity
  8
0
100
AcDbBlockBegin
  2
FXTIP_TRIANGLE_S
 70
     0
 71
     0
 10
0.0
 20
0.0
 30
0.0
  3
FXTIP_TRIANGLE_S
  1

  0
LINE
  5
5C
330
59
100
AcDbEntity
  8
0
  6
CONTINUOUS
 62
     0
100
AcDbLine
 10
0.0
 20
0.0
 30
0.0
 11
-1.0
 21
0.0
 31
0.0
  0
LINE
  5
5D
330
59
100
AcDbEntity
  8
0
  6
CONTINUOUS
 62
     0
100
AcDbLine
 10
0.0
 20
0.0
 30
0.0
 11
-0.965926
 21
-0.258819
 31
0.0
  0
LINE
  5
5E
330
59
100
AcDbEntity
  8
0
  6
CONTINUOUS
 62
     0
100
AcDbLine
 10
0.0
 20
0.0
 30
0.0
 11
-0.965926
 21
0.258819
 31
0.0
  0
LINE
  5
5F
330
59
100
AcDbEntity
  8
0
  6
CONTINUOUS
 62
     0
100
AcDbLine
 10
-0.965926
 20
-0.258819
 30
0.0
 11
-0.965926
 21
0.258819
 31
0.0
  0
ENDBLK
  5
5B
330
59
100
AcDbEntity
  8
0
100
AcDbBlockEnd
  0
BLOCK
  5
61
330
60
100
AcDbEntity
  8
0
100
AcDbBlockBegin
  2
FXTIP_TRIANGLE_E
 70
     0
 71
     0
 10
0.0
 20
0.0
 30
0.0
  3
FXTIP_TRIANGLE_E
  1

  0
LINE
  5
63
330
60
100
AcDbEntity
  8
0
  6
CONTINUOUS
 62
     0
100
AcDbLine
 10
0.0
 20
0.0
 30
0.0
 11
-1.0
 21
0.0
 31
0.0
  0
LINE
  5
64
330
60
100
AcDbEntity
  8
0
  6
CONTINUOUS
 62
     0
100
AcDbLine
 10
0.0
 20
0.0
 30
0.0
 11
-0.965926
 21
0.258819
 31
0.0
  0
LINE
  5
65
330
60
100
AcDbEntity
  8
0
  6
CONTINUOUS
 62
     0
100
AcDbLine
 10
0.0
 20
0.0
 30
0.0
 11
-0.965926
 21
-0.258819
 31
0.0
  0
LINE
  5
66
330
60
100
AcDbEntity
  8
0
  6
CONTINUOUS
 62
     0
100
AcDbLine
 10
-0.965926
 20
0.258819
 30
0.0
 11
-0.965926
 21
-0.258819
 31
0.0
  0
ENDBLK
  5
62
330
60
100
AcDbEntity
  8
0
100
AcDbBlockEnd
  0
BLOCK
  5
68
330
67
100
AcDbEntity
  8
0
100
AcDbBlockBegin
  2
FXTIP_ARCHITECT_S
 70
     0
 71
     0
 10
0.0
 20
0.0
 30
0.0
  3
FXTIP_ARCHITECT_S
  1

  0
LINE
  5
6A
330
67
100
AcDbEntity
  8
0
  6
CONTINUOUS
 62
     0
100
AcDbLine
 10
0.0
 20
0.0
 30
0.0
 11
-1.0
 21
0.0
 31
0.0
  0
LINE
  5
6B
330
67
100
AcDbEntity
  8
0
  6
CONTINUOUS
 62
     0
100
AcDbLine
 10
0.0
 20
0.0
 30
0.0
 11
-0.707107
 21
-0.707107
 31
0.0
  0
LINE
  5
6C
330
67
100
AcDbEntity
  8
0
  6
CONTINUOUS
 62
     0
100
AcDbLine
 10
0.0
 20
0.0
 30
0.0
 11
0.707107
 21
0.707107
 31
0.0
  0
ENDBLK
  5
69
330
67
100
AcDbEntity
  8
0
100
AcDbBlockEnd
  0
BLOCK
  5
6E
330
6D
100
AcDbEntity
  8
0
100
AcDbBlockBegin
  2
FXTIP_ARCHITECT_E
 70
     0
 71
     0
 10
0.0
 20
0.0
 30
0.0
  3
FXTIP_ARCHITECT_E
  1

  0
LINE
  5
70
330
6D
100
AcDbEntity
  8
0
  6
CONTINUOUS
 62
     0
100
AcDbLine
 10
0.0
 20
0.0
 30
0.0
 11
-1.0
 21
0.0
 31
0.0
  0
LINE
  5
71
330
6D
100
AcDbEntity
  8
0
  6
CONTINUOUS
 62
     0
100
AcDbLine
 10
0.0
 20
0.0
 30
0.0
 11
0.707107
 21
0.707107
 31
0.0
  0
LINE
  5
72
330
6D
100
AcDbEntity
  8
0
  6
CONTINUOUS
 62
     0
100
AcDbLine
 10
0.0
 20
0.0
 30
0.0
 11
-0.707107
 21
-0.707107
 31
0.0
  0
ENDBLK
  5
6F
330
6D
100
AcDbEntity
  8
0
100
AcDbBlockEnd
  0
BLOCK
  5
74
330
73
100
AcDbEntity
  8
0
100
AcDbBlockBegin
  2
FXTIP_CIVIL_S
 70
     0
 71
     0
 10
0.0
 20
0.0
 30
0.0
  3
FXTIP_CIVIL_S
  1

  0
LINE
  5
76
330
73
100
AcDbEntity
  8
0
  6
CONTINUOUS
 62
     0
100
AcDbLine
 10
0.0
 20
0.0
 30
0.0
 11
-1.0
 21
0.0
 31
0.0
  0
LINE
  5
77
330
73
100
AcDbEntity
  8
0
  6
CONTINUOUS
 62
     0
100
AcDbLine
 10
0.0
 20
-0.0625
 30
0.0
 11
-1.0
 21
-0.0625
 31
0.0
  0
LINE
  5
78
330
73
100
AcDbEntity
  8
0
  6
CONTINUOUS
 62
     0
100
AcDbLine
 10
0.0
 20
-0.125
 30
0.0
 11
-1.0
 21
-0.125
 31
0.0
  0
ENDBLK
  5
75
330
73
100
AcDbEntity
  8
0
100
AcDbBlockEnd
  0
BLOCK
  5
7A
330
79
100
AcDbEntity
  8
0
100
AcDbBlockBegin
  2
FXTIP_CIVIL_E
 70
     0
 71
     0
 10
0.0
 20
0.0
 30
0.0
  3
FXTIP_CIVIL_E
  1

  0
LINE
  5
7C
330
79
100
AcDbEntity
  8
0
  6
CONTINUOUS
 62
     0
100
AcDbLine
 10
0.0
 20
0.0
 30
0.0
 11
-1.0
 21
0.0
 31
0.0
  0
LINE
  5
7D
330
79
100
AcDbEntity
  8
0
  6
CONTINUOUS
 62
     0
100
AcDbLine
 10
0.0
 20
0.0625
 30
0.0
 11
-1.0
 21
0.0625
 31
0.0
  0
LINE
  5
7E
330
79
100
AcDbEntity
  8
0
  6
CONTINUOUS
 62
     0
100
AcDbLine
 10
0.0
 20
0.125
 30
0.0
 11
-1.0
 21
0.125
 31
0.0
  0
ENDBLK
  5
7B
330
79
100
AcDbEntity
  8
0
100
AcDbBlockEnd
  0
BLOCK
  5
80
330
7F
100
AcDbEntity
  8
0
100
AcDbBlockBegin
  2
FXTIP_WHITEDOT_S
 70
     0
 71
     0
 10
0.0
 20
0.0
 30
0.0
  3
FXTIP_WHITEDOT_S
  1

  0
LINE
  5
82
330
7F
100
AcDbEntity
  8
0
  6
CONTINUOUS
 62
     0
100
AcDbLine
 10
0.0
 20
0.0
 30
0.0
 11
-1.0
 21
0.0
 31
0.0
  0
CIRCLE
  5
83
330
7F
100
AcDbEntity
  8
0
  6
CONTINUOUS
 62
     0
100
AcDbCircle
 10
0.0
 20
0.0
 30
0.0
 40
0.5
  0
ENDBLK
  5
81
330
7F
100
AcDbEntity
  8
0
100
AcDbBlockEnd
  0
BLOCK
  5
85
330
84
100
AcDbEntity
  8
0
100
AcDbBlockBegin
  2
FXTIP_WHITEDOT_E
 70
     0
 71
     0
 10
0.0
 20
0.0
 30
0.0
  3
FXTIP_WHITEDOT_E
  1

  0
LINE
  5
87
330
84
100
AcDbEntity
  8
0
  6
CONTINUOUS
 62
     0
100
AcDbLine
 10
0.0
 20
0.0
 30
0.0
 11
-1.0
 21
0.0
 31
0.0
  0
CIRCLE
  5
88
330
84
100
AcDbEntity
  8
0
  6
CONTINUOUS
 62
     0
100
AcDbCircle
 10
0.0
 20
0.0
 30
0.0
 40
0.5
  0
ENDBLK
  5
86
330
84
100
AcDbEntity
  8
0
100
AcDbBlockEnd
  0
BLOCK
  5
8A
330
89
100
AcDbEntity
  8
0
100
AcDbBlockBegin
  2
FXTIP_UPARROW_S
 70
     0
 71
     0
 10
0.0
 20
0.0
 30
0.0
  3
FXTIP_UPARROW_S
  1

  0
LINE
  5
8C
330
89
100
AcDbEntity
  8
0
  6
CONTINUOUS
 62
     0
100
AcDbLine
 10
0.0
 20
0.0
 30
0.0
 11
-1.0
 21
0.0
 31
0.0
  0
LINE
  5
8D
330
89
100
AcDbEntity
  8
0
  6
CONTINUOUS
 62
     0
100
AcDbLine
 10
0.0
 20
0.0
 30
0.0
 11
-0.965926
 21
-0.258819
 31
0.0
  0
ENDBLK
  5
8B
330
89
100
AcDbEntity
  8
0
100
AcDbBlockEnd
  0
BLOCK
  5
8F
330
8E
100
AcDbEntity
  8
0
100
AcDbBlockBegin
  2
FXTIP_UPARROW_E
 70
     0
 71
     0
 10
0.0
 20
0.0
 30
0.0
  3
FXTIP_UPARROW_E
  1

  0
LINE
  5
91
330
8E
100
AcDbEntity
  8
0
  6
CONTINUOUS
 62
     0
100
AcDbLine
 10
0.0
 20
0.0
 30
0.0
 11
-1.0
 21
0.0
 31
0.0
  0
LINE
  5
92
330
8E
100
AcDbEntity
  8
0
  6
CONTINUOUS
 62
     0
100
AcDbLine
 10
0.0
 20
0.0
 30
0.0
 11
-0.965926
 21
0.258819
 31
0.0
  0
ENDBLK
  5
90
330
8E
100
AcDbEntity
  8
0
100
AcDbBlockEnd
  0
BLOCK
  5
94
330
93
100
AcDbEntity
  8
0
100
AcDbBlockBegin
  2
FXTIP_DOWNARROW_S
 70
     0
 71
     0
 10
0.0
 20
0.0
 30
0.0
  3
FXTIP_DOWNARROW_S
  1

  0
LINE
  5
96
330
93
100
AcDbEntity
  8
0
  6
CONTINUOUS
 62
     0
100
AcDbLine
 10
0.0
 20
0.0
 30
0.0
 11
-1.0
 21
0.0
 31
0.0
  0
LINE
  5
97
330
93
100
AcDbEntity
  8
0
  6
CONTINUOUS
 62
     0
100
AcDbLine
 10
0.0
 20
0.0
 30
0.0
 11
-0.965926
 21
0.258819
 31
0.0
  0
ENDBLK
  5
95
330
93
100
AcDbEntity
  8
0
100
AcDbBlockEnd
  0
BLOCK
  5
99
330
98
100
AcDbEntity
  8
0
100
AcDbBlockBegin
  2
FXTIP_DOWNARROW_E
 70
     0
 71
     0
 10
0.0
 20
0.0
 30
0.0
  3
FXTIP_DOWNARROW_E
  1

  0
LINE
  5
9B
330
98
100
AcDbEntity
  8
0
  6
CONTINUOUS
 62
     0
100
AcDbLine
 10
0.0
 20
0.0
 30
0.0
 11
-1.0
 21
0.0
 31
0.0
  0
LINE
  5
9C
330
98
100
AcDbEntity
  8
0
  6
CONTINUOUS
 62
     0
100
AcDbLine
 10
0.0
 20
0.0
 30
0.0
 11
-0.965926
 21
-0.258819
 31
0.0
  0
ENDBLK
  5
9A
330
98
100
AcDbEntity
  8
0
100
AcDbBlockEnd
  0
BLOCK
  5
9E
330
9D
100
AcDbEntity
  8
0
100
AcDbBlockBegin
  2
FXTIP_BLACKTRIANGLE_S
 70
     0
 71
     0
 10
0.0
 20
0.0
 30
0.0
  3
FXTIP_BLACKTRIANGLE_S
  1

  0
LINE
  5
A0
330
9D
100
AcDbEntity
  8
0
  6
CONTINUOUS
 62
     0
100
AcDbLine
 10
0.0
 20
0.0
 30
0.0
 11
-1.0
 21
0.0
 31
0.0
  0
SOLID
  5
A1
330
9D
100
AcDbEntity
  8
0
  6
CONTINUOUS
 62
     0
100
AcDbTrace
 10
0.0
 20
0.0
 30
0.0
 11
-0.965926
 21
-0.258819
 31
0.0
 12
-0.965926
 22
0.258819
 32
0.0
 13
-0.965926
 23
0.258819
 33
0.0
  0
ENDBLK
  5
9F
330
9D
100
AcDbEntity
  8
0
100
AcDbBlockEnd
  0
BLOCK
  5
A3
330
A2
100
AcDbEntity
  8
0
100
AcDbBlockBegin
  2
FXTIP_BLACKTRIANGLE_E
 70
     0
 71
     0
 10
0.0
 20
0.0
 30
0.0
  3
FXTIP_BLACKTRIANGLE_E
  1

  0
LINE
  5
A5
330
A2
100
AcDbEntity
  8
0
  6
CONTINUOUS
 62
     0
100
AcDbLine
 10
0.0
 20
0.0
 30
0.0
 11
-1.0
 21
0.0
 31
0.0
  0
SOLID
  5
A6
330
A2
100
AcDbEntity
  8
0
  6
CONTINUOUS
 62
     0
100
AcDbTrace
 10
0.0
 20
0.0
 30
0.0
 11
-0.965926
 21
0.258819
 31
0.0
 12
-0.965926
 22
-0.258819
 32
0.0
 13
-0.965926
 23
-0.258819
 33
0.0
  0
ENDBLK
  5
A4
330
A2
100
AcDbEntity
  8
0
100
AcDbBlockEnd
  0
ENDSEC
  0
SECTION
  2
ENTITIES
  0
LINE
  5
A8
330
1F
100
AcDbEntity
  8
LAYERGROUP-1
  6
CENTER
 62
     6
100
AcDbLine
 10
397.617723
 20
317.763933
 30
0.0
 11
397.617723
 21
102.236067
 31
0.0
  0
LINE
  5
A9
330
1F
100
AcDbEntity
  8
LAYERGROUP-1
  6
CENTER
 62
     6
100
AcDbLine
 10
505.381657
 20
210.0
 30
0.0
 11
289.85379
 21
210.0
 31
0.0
  0
TEXT
  5
AA
330
1F
100
AcDbEntity
  8
LAYERGROUP-1
  6
CONTINUOUS
 62
     7
100
AcDbText
 10
329.660492
 20
11.8347
 30
0.0
 40
6.0
  1
Ｗ－２００　ＲＢ
 41
0.794326
  7
FX_VECTOR
 72
     5
 11
361.660492
 21
11.8347
 31
0.0
100
AcDbText
  0
CIRCLE
  5
AB
330
1F
100
AcDbEntity
  8
LAYERGROUP-1
  6
CONTINUOUS
 62
     6
100
AcDbCircle
 10
397.617723
 20
210.0
 30
0.0
 40
83.0
  0
CIRCLE
  5
AC
330
1F
100
AcDbEntity
  8
LAYERGROUP-1
  6
CONTINUOUS
 62
     6
100
AcDbCircle
 10
397.617723
 20
210.0
 30
0.0
 40
73.0
  0
CIRCLE
  5
AD
330
1F
100
AcDbEntity
  8
LAYERGROUP-1
  6
CONTINUOUS
 62
     6
100
AcDbCircle
 10
397.617723
 20
210.0
 30
0.0
 40
31.5
  0
LINE
  5
AE
330
1F
100
AcDbEntity
  8
LAYERGROUP-1
  6
CONTINUOUS
 62
     6
100
AcDbLine
 10
407.042433
 20
245.173496
 30
0.0
 11
414.282823
 21
272.194998
 31
0.0
  0
LINE
  5
AF
330
1F
100
AcDbEntity
  8
LAYERGROUP-1
  6
CONTINUOUS
 62
     6
100
AcDbLine
 10
388.193014
 20
245.173496
 30
0.0
 11
380.952624
 21
272.194998
 31
0.0
  0
LINE
  5
B0
330
1F
100
AcDbEntity
  8
LAYERGROUP-1
  6
CONTINUOUS
 62
     6
100
AcDbLine
 10
367.078136
 20
229.83264
 30
0.0
 11
344.551077
 21
244.461883
 31
0.0
  0
LINE
  5
B1
330
1F
100
AcDbEntity
  8
LAYERGROUP-1
  6
CONTINUOUS
 62
     6
100
AcDbLine
 10
361.253345
 20
211.905776
 30
0.0
 11
334.429718
 21
213.311543
 31
0.0
  0
LINE
  5
B2
330
1F
100
AcDbEntity
  8
LAYERGROUP-1
  6
CONTINUOUS
 62
     6
100
AcDbLine
 10
369.318511
 20
187.083749
 30
0.0
 11
348.44403
 21
170.179928
 31
0.0
  0
LINE
  5
B3
330
1F
100
AcDbEntity
  8
LAYERGROUP-1
  6
CONTINUOUS
 62
     6
100
AcDbLine
 10
384.747623
 20
176.472243
 30
0.0
 11
374.942092
 21
150.927959
 31
0.0
  0
LINE
  5
B4
330
1F
100
AcDbEntity
  8
LAYERGROUP-1
  6
CONTINUOUS
 62
     6
100
AcDbLine
 10
410.487824
 20
176.472243
 30
0.0
 11
420.293355
 21
150.927959
 31
0.0
  0
LINE
  5
B5
330
1F
100
AcDbEntity
  8
LAYERGROUP-1
  6
CONTINUOUS
 62
     6
100
AcDbLine
 10
425.916936
 20
187.083749
 30
0.0
 11
446.791417
 21
170.179928
 31
0.0
  0
LINE
  5
B6
330
1F
100
AcDbEntity
  8
LAYERGROUP-1
  6
CONTINUOUS
 62
     6
100
AcDbLine
 10
433.982102
 20
211.905776
 30
0.0
 11
460.805729
 21
213.311543
 31
0.0
  0
LINE
  5
B7
330
1F
100
AcDbEntity
  8
LAYERGROUP-1
  6
CONTINUOUS
 62
     6
100
AcDbLine
 10
428.157311
 20
229.83264
 30
0.0
 11
450.68437
 21
244.461883
 31
0.0
  0
LINE
  5
B8
330
1F
100
AcDbEntity
  8
LAYERGROUP-1
  6
DASHED
 62
     6
100
AcDbLine
 10
403.329992
 20
240.977734
 30
0.0
 11
414.089607
 21
281.133164
 31
0.0
  0
LINE
  5
B9
330
1F
100
AcDbEntity
  8
LAYERGROUP-1
  6
DASHED
 62
     6
100
AcDbLine
 10
391.905455
 20
240.977734
 30
0.0
 11
381.14584
 21
281.133164
 31
0.0
  0
ARC
  5
BA
330
1F
100
AcDbEntity
  8
LAYERGROUP-1
  6
CONTINUOUS
 62
     6
100
AcDbCircle
 10
395.369918
 20
276.344475
 30
0.0
 40
15.0
100
AcDbArc
 50
161.44269
 51
196.05648
  0
ARC
  5
BB
330
1F
100
AcDbEntity
  8
LAYERGROUP-1
  6
CONTINUOUS
 62
     6
100
AcDbCircle
 10
399.865529
 20
276.344475
 30
0.0
 40
15.0
100
AcDbArc
 50
-16.05648
 51
18.55731
  0
LINE
  5
BC
330
1F
100
AcDbEntity
  8
LAYERGROUP-1
  6
DASHED
 62
     6
100
AcDbLine
 10
369.921336
 20
225.005336
 30
0.0
 11
335.056156
 21
247.647049
 31
0.0
  0
ARC
  5
BD
330
1F
100
AcDbEntity
  8
LAYERGROUP-1
  6
CONTINUOUS
 62
     6
100
AcDbCircle
 10
333.658297
 20
227.688472
 30
0.0
 40
20.0
100
AcDbArc
 50
57.0
 51
85.955024
  0
LINE
  5
BE
330
1F
100
AcDbEntity
  8
LAYERGROUP-1
  6
DASHED
 62
     6
100
AcDbLine
 10
366.39096
 20
214.139956
 30
0.0
 11
324.891369
 21
216.314858
 31
0.0
  0
ARC
  5
BF
330
1F
100
AcDbEntity
  8
LAYERGROUP-1
  6
CONTINUOUS
 62
     6
100
AcDbCircle
 10
335.476438
 20
233.284134
 30
0.0
 40
20.0
100
AcDbArc
 50
238.044976
 51
267.0
  0
LINE
  5
C0
330
1F
100
AcDbEntity
  8
LAYERGROUP-1
  6
DASHED
 62
     6
100
AcDbLine
 10
374.788146
 20
188.296074
 30
0.0
 11
342.492647
 21
162.143695
 31
0.0
  0
LINE
  5
C1
330
1F
100
AcDbEntity
  8
LAYERGROUP-1
  6
DASHED
 62
     6
100
AcDbLine
 10
384.030791
 20
181.5809
 30
0.0
 11
369.138258
 21
142.784525
 31
0.0
  0
ARC
  5
C2
330
1F
100
AcDbEntity
  8
LAYERGROUP-1
  6
CONTINUOUS
 62
     6
100
AcDbCircle
 10
361.030438
 20
154.637009
 30
0.0
 40
20.0
100
AcDbArc
 50
129.0
 51
157.955024
  0
ARC
  5
C3
330
1F
100
AcDbEntity
  8
LAYERGROUP-1
  6
CONTINUOUS
 62
     6
100
AcDbCircle
 10
356.270483
 20
158.095318
 30
0.0
 40
20.0
100
AcDbArc
 50
310.044976
 51
339.0
  0
LINE
  5
C4
330
1F
100
AcDbEntity
  8
LAYERGROUP-1
  6
DASHED
 62
     6
100
AcDbLine
 10
411.204656
 20
181.5809
 30
0.0
 11
426.097189
 21
142.784525
 31
0.0
  0
LINE
  5
C5
330
1F
100
AcDbEntity
  8
LAYERGROUP-1
  6
DASHED
 62
     6
100
AcDbLine
 10
420.447301
 20
188.296074
 30
0.0
 11
452.7428
 21
162.143695
 31
0.0
  0
ARC
  5
C6
330
1F
100
AcDbEntity
  8
LAYERGROUP-1
  6
CONTINUOUS
 62
     6
100
AcDbCircle
 10
434.205009
 20
154.637009
 30
0.0
 40
20.0
100
AcDbArc
 50
22.044976
 51
51.0
  0
ARC
  5
C7
330
1F
100
AcDbEntity
  8
LAYERGROUP-1
  6
CONTINUOUS
 62
     6
100
AcDbCircle
 10
438.964964
 20
158.095318
 30
0.0
 40
20.0
100
AcDbArc
 50
201.0
 51
229.955024
  0
LINE
  5
C8
330
1F
100
AcDbEntity
  8
LAYERGROUP-1
  6
DASHED
 62
     6
100
AcDbLine
 10
428.844487
 20
214.139956
 30
0.0
 11
470.344078
 21
216.314858
 31
0.0
  0
LINE
  5
C9
330
1F
100
AcDbEntity
  8
LAYERGROUP-1
  6
DASHED
 62
     6
100
AcDbLine
 10
425.314111
 20
225.005336
 30
0.0
 11
460.16636
 21
247.638651
 31
0.0
  0
ARC
  5
CA
330
1F
100
AcDbEntity
  8
LAYERGROUP-1
  6
CONTINUOUS
 62
     6
100
AcDbCircle
 10
461.57715
 20
227.688472
 30
0.0
 40
20.0
100
AcDbArc
 50
94.044976
 51
123.0
  0
ARC
  5
CB
330
1F
100
AcDbEntity
  8
LAYERGROUP-1
  6
CONTINUOUS
 62
     6
100
AcDbCircle
 10
459.759009
 20
233.284134
 30
0.0
 40
20.0
100
AcDbArc
 50
273.0
 51
301.955024
  0
ARC
  5
CC
330
1F
100
AcDbEntity
  8
LAYERGROUP-1
  6
CONTINUOUS
 62
     6
100
AcDbCircle
 10
397.617723
 20
210.0
 30
0.0
 40
34.0
100
AcDbArc
 50
180.982079
 51
215.072557
  0
ARC
  5
CD
330
1F
100
AcDbEntity
  8
LAYERGROUP-1
  6
CONTINUOUS
 62
     6
100
AcDbCircle
 10
361.122505
 20
209.409202
 30
0.0
 40
2.5
100
AcDbArc
 50
0.927443
 51
87.0
  0
ARC
  5
CE
330
1F
100
AcDbEntity
  8
LAYERGROUP-1
  6
CONTINUOUS
 62
     6
100
AcDbCircle
 10
367.74521
 20
189.026614
 30
0.0
 40
2.5
100
AcDbArc
 50
-51.0
 51
35.072557
  0
LINE
  5
CF
330
1F
100
AcDbEntity
  8
LAYERGROUP-1
  6
CONTINUOUS
 62
     6
100
AcDbLine
 10
361.253345
 20
211.905776
 30
0.0
 11
366.39096
 21
214.139956
 31
0.0
  0
LINE
  5
D0
330
1F
100
AcDbEntity
  8
LAYERGROUP-1
  6
CONTINUOUS
 62
     6
100
AcDbLine
 10
366.39096
 20
214.139956
 30
0.0
 11
363.622718
 21
209.417251
 31
0.0
  0
LINE
  5
D1
330
1F
100
AcDbEntity
  8
LAYERGROUP-1
  6
CONTINUOUS
 62
     6
100
AcDbLine
 10
369.318511
 20
187.083749
 30
0.0
 11
374.788146
 21
188.296074
 31
0.0
  0
LINE
  5
D2
330
1F
100
AcDbEntity
  8
LAYERGROUP-1
  6
CONTINUOUS
 62
     6
100
AcDbLine
 10
374.788146
 20
188.296074
 30
0.0
 11
369.791272
 21
190.463147
 31
0.0
  0
ARC
  5
D3
330
1F
100
AcDbEntity
  8
LAYERGROUP-1
  6
CONTINUOUS
 62
     6
100
AcDbCircle
 10
397.617723
 20
210.0
 30
0.0
 40
34.0
100
AcDbArc
 50
252.982079
 51
287.017921
  0
ARC
  5
D4
330
1F
100
AcDbEntity
  8
LAYERGROUP-1
  6
CONTINUOUS
 62
     6
100
AcDbCircle
 10
397.617723
 20
210.0
 30
0.0
 40
34.0
100
AcDbArc
 50
324.982079
 51
359.017921
  0
ARC
  5
D5
330
1F
100
AcDbEntity
  8
LAYERGROUP-1
  6
CONTINUOUS
 62
     6
100
AcDbCircle
 10
408.333484
 20
175.108418
 30
0.0
 40
2.5
100
AcDbArc
 50
21.0
 51
107.072557
  0
ARC
  5
D6
330
1F
100
AcDbEntity
  8
LAYERGROUP-1
  6
CONTINUOUS
 62
     6
100
AcDbCircle
 10
386.901963
 20
175.108418
 30
0.0
 40
2.5
100
AcDbArc
 50
72.927443
 51
159.0
  0
ARC
  5
D7
330
1F
100
AcDbEntity
  8
LAYERGROUP-1
  6
CONTINUOUS
 62
     6
100
AcDbCircle
 10
427.490237
 20
189.026614
 30
0.0
 40
2.5
100
AcDbArc
 50
144.927443
 51
231.0
  0
ARC
  5
D8
330
1F
100
AcDbEntity
  8
LAYERGROUP-1
  6
CONTINUOUS
 62
     6
100
AcDbCircle
 10
434.112942
 20
209.409202
 30
0.0
 40
2.5
100
AcDbArc
 50
93.0
 51
179.072557
  0
LINE
  5
D9
330
1F
100
AcDbEntity
  8
LAYERGROUP-1
  6
CONTINUOUS
 62
     6
100
AcDbLine
 10
433.982102
 20
211.905776
 30
0.0
 11
428.844487
 21
214.139956
 31
0.0
  0
LINE
  5
DA
330
1F
100
AcDbEntity
  8
LAYERGROUP-1
  6
CONTINUOUS
 62
     6
100
AcDbLine
 10
428.844487
 20
214.139956
 30
0.0
 11
431.612729
 21
209.417251
 31
0.0
  0
LINE
  5
DB
330
1F
100
AcDbEntity
  8
LAYERGROUP-1
  6
CONTINUOUS
 62
     6
100
AcDbLine
 10
425.462792
 20
190.489691
 30
0.0
 11
420.447301
 21
188.296074
 31
0.0
  0
LINE
  5
DC
330
1F
100
AcDbEntity
  8
LAYERGROUP-1
  6
CONTINUOUS
 62
     6
100
AcDbLine
 10
420.447301
 20
188.296074
 30
0.0
 11
425.916936
 21
187.083749
 31
0.0
  0
ARC
  5
DD
330
1F
100
AcDbEntity
  8
LAYERGROUP-1
  6
CONTINUOUS
 62
     6
100
AcDbCircle
 10
397.617723
 20
210.0
 30
0.0
 40
34.0
100
AcDbArc
 50
36.982079
 51
71.072557
  0
ARC
  5
DE
330
1F
100
AcDbEntity
  8
LAYERGROUP-1
  6
CONTINUOUS
 62
     6
100
AcDbCircle
 10
397.617723
 20
210.0
 30
0.0
 40
34.0
100
AcDbArc
 50
108.982079
 51
143.017921
  0
ARC
  5
DF
330
1F
100
AcDbEntity
  8
LAYERGROUP-1
  6
CONTINUOUS
 62
     6
100
AcDbCircle
 10
368.439734
 20
231.929316
 30
0.0
 40
2.5
100
AcDbArc
 50
237.0
 51
323.072557
  0
ARC
  5
E0
330
1F
100
AcDbEntity
  8
LAYERGROUP-1
  6
CONTINUOUS
 62
     6
100
AcDbCircle
 10
385.778199
 20
244.526449
 30
0.0
 40
2.5
100
AcDbArc
 50
-71.072557
 51
15.0
  0
ARC
  5
E1
330
1F
100
AcDbEntity
  8
LAYERGROUP-1
  6
CONTINUOUS
 62
     6
100
AcDbCircle
 10
409.457248
 20
244.526449
 30
0.0
 40
2.5
100
AcDbArc
 50
165.0
 51
251.072557
  0
ARC
  5
E2
330
1F
100
AcDbEntity
  8
LAYERGROUP-1
  6
CONTINUOUS
 62
     6
100
AcDbCircle
 10
426.795713
 20
231.929316
 30
0.0
 40
2.5
100
AcDbArc
 50
216.927443
 51
303.0
  0
LINE
  5
E3
330
1F
100
AcDbEntity
  8
LAYERGROUP-1
  6
CONTINUOUS
 62
     6
100
AcDbLine
 10
367.078136
 20
229.83264
 30
0.0
 11
369.921336
 21
225.005336
 31
0.0
  0
LINE
  5
E4
330
1F
100
AcDbEntity
  8
LAYERGROUP-1
  6
CONTINUOUS
 62
     6
100
AcDbLine
 10
369.921336
 20
225.005336
 30
0.0
 11
370.457717
 21
230.453216
 31
0.0
  0
LINE
  5
E5
330
1F
100
AcDbEntity
  8
LAYERGROUP-1
  6
CONTINUOUS
 62
     6
100
AcDbLine
 10
386.589125
 20
242.161623
 30
0.0
 11
391.905455
 21
240.977734
 31
0.0
  0
LINE
  5
E6
330
1F
100
AcDbEntity
  8
LAYERGROUP-1
  6
CONTINUOUS
 62
     6
100
AcDbLine
 10
391.905455
 20
240.977734
 30
0.0
 11
388.193014
 21
245.173496
 31
0.0
  0
LINE
  5
E7
330
1F
100
AcDbEntity
  8
LAYERGROUP-1
  6
CONTINUOUS
 62
     6
100
AcDbLine
 10
407.042433
 20
245.173496
 30
0.0
 11
403.329992
 21
240.977734
 31
0.0
  0
LINE
  5
E8
330
1F
100
AcDbEntity
  8
LAYERGROUP-1
  6
CONTINUOUS
 62
     6
100
AcDbLine
 10
403.329992
 20
240.977734
 30
0.0
 11
408.646322
 21
242.161623
 31
0.0
  0
LINE
  5
E9
330
1F
100
AcDbEntity
  8
LAYERGROUP-1
  6
CONTINUOUS
 62
     6
100
AcDbLine
 10
424.797221
 20
230.427308
 30
0.0
 11
425.314111
 21
225.005336
 31
0.0
  0
LINE
  5
EA
330
1F
100
AcDbEntity
  8
LAYERGROUP-1
  6
CONTINUOUS
 62
     6
100
AcDbLine
 10
425.314111
 20
225.005336
 30
0.0
 11
428.157311
 21
229.83264
 31
0.0
  0
ARC
  5
EB
330
1F
100
AcDbEntity
  8
LAYERGROUP-1
  6
CONTINUOUS
 62
     6
100
AcDbCircle
 10
397.617723
 20
210.0
 30
0.0
 40
66.0
100
AcDbArc
 50
293.170814
 51
318.829186
  0
ARC
  5
EC
330
1F
100
AcDbEntity
  8
LAYERGROUP-1
  6
CONTINUOUS
 62
     6
100
AcDbCircle
 10
397.617723
 20
210.0
 30
0.0
 40
66.0
100
AcDbArc
 50
221.170814
 51
246.829186
  0
ARC
  5
ED
330
1F
100
AcDbEntity
  8
LAYERGROUP-1
  6
CONTINUOUS
 62
     6
100
AcDbCircle
 10
397.617723
 20
210.0
 30
0.0
 40
66.0
100
AcDbArc
 50
149.170814
 51
174.829186
  0
ARC
  5
EE
330
1F
100
AcDbEntity
  8
LAYERGROUP-1
  6
CONTINUOUS
 62
     6
100
AcDbCircle
 10
397.617723
 20
210.0
 30
0.0
 40
66.0
100
AcDbArc
 50
77.170814
 51
102.829186
  0
ARC
  5
EF
330
1F
100
AcDbEntity
  8
LAYERGROUP-1
  6
CONTINUOUS
 62
     6
100
AcDbCircle
 10
397.617723
 20
210.0
 30
0.0
 40
66.0
100
AcDbArc
 50
5.170814
 51
30.829186
  0
LINE
  5
F0
330
1F
100
AcDbEntity
  8
LAYERGROUP-1
  6
CONTINUOUS
 62
     6
100
AcDbLine
 10
384.568012
 20
176.004338
 30
0.0
 11
384.030791
 21
181.5809
 31
0.0
  0
LINE
  5
F1
330
1F
100
AcDbEntity
  8
LAYERGROUP-1
  6
CONTINUOUS
 62
     6
100
AcDbLine
 10
384.030791
 20
181.5809
 30
0.0
 11
387.666916
 21
177.488749
 31
0.0
  0
LINE
  5
F2
330
1F
100
AcDbEntity
  8
LAYERGROUP-1
  6
CONTINUOUS
 62
     6
100
AcDbLine
 10
407.568531
 20
177.488749
 30
0.0
 11
411.204656
 21
181.5809
 31
0.0
  0
LINE
  5
F3
330
1F
100
AcDbEntity
  8
LAYERGROUP-1
  6
CONTINUOUS
 62
     6
100
AcDbLine
 10
411.204656
 20
181.5809
 30
0.0
 11
410.667435
 21
176.004338
 31
0.0
  0
ARC
  5
F4
330
1F
100
AcDbEntity
  8
LAYERGROUP-1
  6
CONTINUOUS
 62
     6
100
AcDbCircle
 10
397.617723
 20
210.0
 30
0.0
 40
64.56659999999999
100
AcDbArc
 50
248.92333
 51
291.07667
  0
ARC
  5
F5
330
1F
100
AcDbEntity
  8
LAYERGROUP-1
  6
CONTINUOUS
 62
     6
100
AcDbCircle
 10
397.617723
 20
210.0
 30
0.0
 40
64.56659999999999
100
AcDbArc
 50
-39.07667
 51
3.07667
  0
ARC
  5
F6
330
1F
100
AcDbEntity
  8
LAYERGROUP-1
  6
CONTINUOUS
 62
     6
100
AcDbCircle
 10
397.617723
 20
210.0
 30
0.0
 40
64.56659999999999
100
AcDbArc
 50
32.92333
 51
75.07667
  0
ARC
  5
F7
330
1F
100
AcDbEntity
  8
LAYERGROUP-1
  6
CONTINUOUS
 62
     6
100
AcDbCircle
 10
397.617723
 20
210.0
 30
0.0
 40
64.56659999999999
100
AcDbArc
 50
105.0
 51
147.07667
  0
ARC
  5
F8
330
1F
100
AcDbEntity
  8
LAYERGROUP-1
  6
CONTINUOUS
 62
     6
100
AcDbCircle
 10
397.617723
 20
210.0
 30
0.0
 40
64.56659999999999
100
AcDbArc
 50
176.92333
 51
219.07667
  0
TEXT
  5
F9
330
1F
100
AcDbEntity
  8
LAYERGROUP-1
  6
CONTINUOUS
 62
     7
100
AcDbText
 10
366.156677
 20
248.470108
 30
0.0
 40
6.855022
  1
２
 50
35.5
 41
1.167945
  7
FX_VECTOR
 72
     5
 11
370.812424
 21
251.79102
 31
0.0
100
AcDbText
  0
TEXT
  5
FA
330
1F
100
AcDbEntity
  8
LAYERGROUP-1
  6
CONTINUOUS
 62
     7
100
AcDbText
 10
371.202606
 20
251.992737
 30
0.0
 40
7.194537
  1
０
 50
28.5
 41
1.124146
  7
FX_VECTOR
 72
     5
 11
376.279477
 21
254.749253
 31
0.0
100
AcDbText
  0
TEXT
  5
FB
330
1F
100
AcDbEntity
  8
LAYERGROUP-1
  6
CONTINUOUS
 62
     7
100
AcDbText
 10
362.983124
 20
245.169632
 30
0.0
 40
6.374589
  1
-
 50
42.5
 41
0.855818
  7
FX_VECTOR
 72
     5
 11
367.196867
 21
249.030816
 31
0.0
100
AcDbText
  0
TEXT
  5
FC
330
1F
100
AcDbEntity
  8
LAYERGROUP-1
  6
CONTINUOUS
 62
     7
100
AcDbText
 10
358.03241
 20
240.282379
 30
0.0
 40
6.531599
  1
W
 50
49.5
 41
0.941319
  7
FX_VECTOR
 72
     5
 11
362.215568
 21
245.180228
 31
0.0
100
AcDbText
  0
TEXT
  5
FD
330
1F
100
AcDbEntity
  8
LAYERGROUP-1
  6
CONTINUOUS
 62
     7
100
AcDbText
 10
376.51712
 20
254.898926
 30
0.0
 40
7.194537
  1
０
 50
21.5
 41
1.124146
  7
FX_VECTOR
 72
     5
 11
381.892084
 21
257.01618
 31
0.0
100
AcDbText
  0
CIRCLE
  5
FE
330
1F
100
AcDbEntity
  8
LAYERGROUP-1
  6
CONTINUOUS
 62
     3
100
AcDbCircle
 10
397.617723
 20
210.0
 30
0.0
 40
100.0
  0
CIRCLE
  5
FF
330
1F
100
AcDbEntity
  8
LAYERGROUP-1
  6
CONTINUOUS
 62
     3
100
AcDbCircle
 10
397.617723
 20
210.0
 30
0.0
 40
9.999999999999943
  0
CIRCLE
  5
100
330
1F
100
AcDbEntity
  8
LAYERGROUP-1
  6
CONTINUOUS
 62
     3
100
AcDbCircle
 10
397.617723
 20
210.0
 30
0.0
 40
14.49999999999994
  0
CIRCLE
  5
101
330
1F
100
AcDbEntity
  8
LAYERGROUP-1
  6
CONTINUOUS
 62
     3
100
AcDbCircle
 10
397.617723
 20
210.0
 30
0.0
 40
23.49999999999994
  0
CIRCLE
  5
102
330
1F
100
AcDbEntity
  8
LAYERGROUP-1
  6
CONTINUOUS
 62
     6
100
AcDbCircle
 10
397.617723
 20
210.0
 30
0.0
 40
19.72499999999999
  0
CIRCLE
  5
103
330
1F
100
AcDbEntity
  8
LAYERGROUP-1
  6
CONTINUOUS
 62
     6
100
AcDbCircle
 10
397.617723
 20
210.0
 30
0.0
 40
13.99999999999994
  0
CIRCLE
  5
104
330
1F
100
AcDbEntity
  8
LAYERGROUP-1
  6
DASHED
 62
     6
100
AcDbCircle
 10
397.617723
 20
210.0
 30
0.0
 40
10.69999999999993
  0
CIRCLE
  5
105
330
1F
100
AcDbEntity
  8
LAYERGROUP-1
  6
DASHED
 62
     6
100
AcDbCircle
 10
397.617723
 20
210.0
 30
0.0
 40
22.49999999999992
  0
TEXT
  5
107
330
1F
100
AcDbEntity
  8
GR1-1
  6
CONTINUOUS
 62
     7
100
AcDbText
 10
362.081299
 20
289.411316
 30
0.0
 40
7.0
  1
G
 50
19.0
 41
1.166667
  7
FX_VECTOR
 72
     5
 11
368.699929
 21
291.690293
 31
0.0
100
AcDbText
  0
TEXT
  5
108
330
1F
100
AcDbEntity
  8
GR1-1
  6
CONTINUOUS
 62
     7
100
AcDbText
 10
369.984467
 20
292.494843
 30
0.0
 40
7.0
  1
O
 50
13.5
 41
1.105263
  7
FX_VECTOR
 72
     5
 11
376.791056
 21
294.12896
 31
0.0
100
AcDbText
  0
TEXT
  5
109
330
1F
100
AcDbEntity
  8
GR1-1
  6
CONTINUOUS
 62
     7
100
AcDbText
 10
377.636719
 20
294.674438
 30
0.0
 40
7.0
  1
L
 50
8.0
 41
1.3125
  7
FX_VECTOR
 72
     5
 11
384.568595
 21
295.64865
 31
0.0
100
AcDbText
  0
TEXT
  5
10A
330
1F
100
AcDbEntity
  8
GR1-1
  6
CONTINUOUS
 62
     7
100
AcDbText
 10
385.937134
 20
296.212311
 30
0.0
 40
7.0
  1
D
 50
2.5
 41
1.166667
  7
FX_VECTOR
 72
     5
 11
392.930471
 21
296.517647
 31
0.0
100
AcDbText
  0
TEXT
  5
10B
330
1F
100
AcDbEntity
  8
GR1-1
  6
CONTINUOUS
 62
     7
100
AcDbText
 10
402.181702
 20
296.880188
 30
0.0
 40
7.0
  1
C
 50
351.5
 41
1.166667
  7
FX_VECTOR
 72
     5
 11
409.104813
 21
295.845522
 31
0.0
100
AcDbText
  0
TEXT
  5
10C
330
1F
100
AcDbEntity
  8
GR1-1
  6
CONTINUOUS
 62
     7
100
AcDbText
 10
410.757111
 20
296.002075
 30
0.0
 40
7.0
  1
A
 50
346.0
 41
1.235294
  7
FX_VECTOR
 72
     5
 11
417.549181
 21
294.308622
 31
0.0
100
AcDbText
  0
TEXT
  5
10D
330
1F
100
AcDbEntity
  8
GR1-1
  6
CONTINUOUS
 62
     7
100
AcDbText
 10
419.065979
 20
294.314728
 30
0.0
 40
7.0
  1
S
 50
340.5
 41
1.235294
  7
FX_VECTOR
 72
     5
 11
425.664469
 21
291.97808
 31
0.0
100
AcDbText
  0
TEXT
  5
10E
330
1F
100
AcDbEntity
  8
GR1-1
  6
CONTINUOUS
 62
     7
100
AcDbText
 10
426.912598
 20
291.919525
 30
0.0
 40
7.0
  1
T
 50
335.0
 41
1.4
  7
FX_VECTOR
 72
     5
 11
433.256752
 21
288.961197
 31
0.0
100
AcDbText
  0
TEXT
  5
10F
330
1F
100
AcDbEntity
  8
GR1-1
  6
CONTINUOUS
 62
     7
100
AcDbText
 10
434.564758
 20
288.764954
 30
0.0
 40
7.0
  1
E
 50
329.5
 41
1.235294
  7
FX_VECTOR
 72
     5
 11
440.596162
 21
285.212185
 31
0.0
100
AcDbText
  0
TEXT
  5
110
330
1F
100
AcDbEntity
  8
GR1-1
  6
CONTINUOUS
 62
     7
100
AcDbText
 10
442.284363
 20
284.658508
 30
0.0
 40
7.0
  1
R
 50
324.0
 41
1.166667
  7
FX_VECTOR
 72
     5
 11
447.947482
 21
280.544012
 31
0.0
100
AcDbText
  0
TEXT
  5
111
330
1F
100
AcDbEntity
  8
GR1-1
  6
CONTINUOUS
 62
     7
100
AcDbText
 10
423.040039
 20
126.797195
 30
0.0
 40
7.0
  1
2
 50
195.0
 41
1.235294
  7
FX_VECTOR
 72
     5
 11
416.278558
 21
124.985462
 31
0.0
100
AcDbText
  0
TEXT
  5
112
330
1F
100
AcDbEntity
  8
GR1-1
  6
CONTINUOUS
 62
     7
100
AcDbText
 10
414.177338
 20
124.590515
 30
0.0
 40
7.0
  1
0
 50
189.0
 41
1.235294
  7
FX_VECTOR
 72
     5
 11
407.263519
 21
123.495474
 31
0.0
100
AcDbText
  0
TEXT
  5
113
330
1F
100
AcDbEntity
  8
GR1-1
  6
CONTINUOUS
 62
     7
100
AcDbText
 10
405.339081
 20
123.343323
 30
0.0
 40
7.0
  1
0
 50
183.0
 41
1.235294
  7
FX_VECTOR
 72
     5
 11
398.348674
 21
122.976971
 31
0.0
100
AcDbText
  0
TEXT
  5
114
330
1F
100
AcDbEntity
  8
GR1-1
  6
CONTINUOUS
 62
     7
100
AcDbText
 10
396.244812
 20
123.010834
 30
0.0
 40
7.0
  1
X
 50
177.0
 41
1.235294
  7
FX_VECTOR
 72
     5
 11
389.254405
 21
123.377185
 31
0.0
100
AcDbText
  0
TEXT
  5
115
330
1F
100
AcDbEntity
  8
GR1-1
  6
CONTINUOUS
 62
     7
100
AcDbText
 10
387.195221
 20
123.626556
 30
0.0
 40
7.0
  1
4
 50
171.0
 41
1.166667
  7
FX_VECTOR
 72
     5
 11
380.281403
 21
124.721598
 31
0.0
100
AcDbText
  0
TEXT
  5
116
330
1F
100
AcDbEntity
  8
GR1-1
  6
CONTINUOUS
 62
     7
100
AcDbText
 10
377.969727
 20
125.247681
 30
0.0
 40
7.0
  1
5
 50
165.0
 41
1.235294
  7
FX_VECTOR
 72
     5
 11
371.208246
 21
127.059414
 31
0.0
100
AcDbText
  0
LINE
  5
117
330
1F
100
AcDbEntity
  8
GR1-1
  6
CONTINUOUS
 62
     7
100
AcDbLine
 10
344.450282
 20
286.362446
 30
0.0
 11
349.482305
 21
289.63028
 31
0.0
  0
LINE
  5
118
330
1F
100
AcDbEntity
  8
GR1-1
  6
CONTINUOUS
 62
     7
100
AcDbLine
 10
349.482305
 20
289.63028
 30
0.0
 11
352.750139
 21
284.598257
 31
0.0
  0
LINE
  5
119
330
1F
100
AcDbEntity
  8
GR1-1
  6
CONTINUOUS
 62
     7
100
AcDbLine
 10
352.750139
 20
284.598257
 30
0.0
 11
347.718116
 21
281.330422
 31
0.0
  0
LINE
  5
11A
330
1F
100
AcDbEntity
  8
GR1-1
  6
CONTINUOUS
 62
     7
100
AcDbLine
 10
347.718116
 20
281.330422
 30
0.0
 11
344.450282
 21
286.362446
 31
0.0
  0
LINE
  5
11B
330
1F
100
AcDbEntity
  8
GR1-1
  6
CONTINUOUS
 62
     7
100
AcDbLine
 10
346.228092
 20
283.939879
 30
0.0
 11
347.059739
 21
287.85247
 31
0.0
  0
LINE
  5
11C
330
1F
100
AcDbEntity
  8
GR1-1
  6
CONTINUOUS
 62
     7
100
AcDbLine
 10
347.059739
 20
287.85247
 30
0.0
 11
350.557336
 21
287.109032
 31
0.0
  0
LINE
  5
11D
330
1F
100
AcDbEntity
  8
GR1-1
  6
CONTINUOUS
 62
     7
100
AcDbLine
 10
350.557336
 20
287.109032
 30
0.0
 11
349.371277
 21
286.338796
 31
0.0
  0
LINE
  5
11E
330
1F
100
AcDbEntity
  8
GR1-1
  6
CONTINUOUS
 62
     7
100
AcDbLine
 10
349.371277
 20
286.338796
 30
0.0
 11
347.829974
 21
286.66641
 31
0.0
  0
LINE
  5
11F
330
1F
100
AcDbEntity
  8
GR1-1
  6
CONTINUOUS
 62
     7
100
AcDbLine
 10
347.829974
 20
286.66641
 30
0.0
 11
347.414151
 21
284.710115
 31
0.0
  0
LINE
  5
120
330
1F
100
AcDbEntity
  8
GR1-1
  6
CONTINUOUS
 62
     7
100
AcDbLine
 10
347.414151
 20
284.710115
 30
0.0
 11
349.370446
 21
284.294292
 31
0.0
  0
LINE
  5
121
330
1F
100
AcDbEntity
  8
GR1-1
  6
CONTINUOUS
 62
     7
100
AcDbLine
 10
349.370446
 20
284.294292
 30
0.0
 11
349.58906
 21
285.322787
 31
0.0
  0
ARC
  5
122
330
1F
100
AcDbEntity
  8
GR1-1
  6
CONTINUOUS
 62
     7
100
AcDbCircle
 10
349.491245
 20
285.343578
 30
0.0
 40
0.1
100
AcDbArc
 50
-12.0
 51
123.0
  0
LINE
  5
123
330
1F
100
AcDbEntity
  8
GR1-1
  6
CONTINUOUS
 62
     7
100
AcDbLine
 10
349.436781
 20
285.427445
 30
0.0
 11
348.87253
 21
285.061016
 31
0.0
  0
LINE
  5
124
330
1F
100
AcDbEntity
  8
GR1-1
  6
CONTINUOUS
 62
     7
100
AcDbLine
 10
348.87253
 20
285.061016
 30
0.0
 11
348.60021
 21
285.480351
 31
0.0
  0
LINE
  5
125
330
1F
100
AcDbEntity
  8
GR1-1
  6
CONTINUOUS
 62
     7
100
AcDbLine
 10
348.60021
 20
285.480351
 30
0.0
 11
350.972329
 21
287.020823
 31
0.0
  0
LINE
  5
126
330
1F
100
AcDbEntity
  8
GR1-1
  6
CONTINUOUS
 62
     7
100
AcDbLine
 10
350.972329
 20
287.020823
 30
0.0
 11
352.074853
 21
285.323085
 31
0.0
  0
LINE
  5
127
330
1F
100
AcDbEntity
  8
GR1-1
  6
CONTINUOUS
 62
     7
100
AcDbLine
 10
352.074853
 20
285.323085
 30
0.0
 11
351.236182
 21
284.778446
 31
0.0
  0
LINE
  5
128
330
1F
100
AcDbEntity
  8
GR1-1
  6
CONTINUOUS
 62
     7
100
AcDbLine
 10
351.236182
 20
284.778446
 30
0.0
 11
350.809785
 21
285.43504
 31
0.0
  0
ARC
  5
129
330
1F
100
AcDbEntity
  8
GR1-1
  6
CONTINUOUS
 62
     7
100
AcDbCircle
 10
350.725918
 20
285.380576
 30
0.0
 40
0.1
100
AcDbArc
 50
33.0
 51
168.0
  0
LINE
  5
12A
330
1F
100
AcDbEntity
  8
GR1-1
  6
CONTINUOUS
 62
     7
100
AcDbLine
 10
350.628103
 20
285.401368
 30
0.0
 11
350.140682
 21
283.108233
 31
0.0
  0
LINE
  5
12B
330
1F
100
AcDbEntity
  8
GR1-1
  6
CONTINUOUS
 62
     7
100
AcDbLine
 10
350.140682
 20
283.108233
 30
0.0
 11
346.228092
 21
283.939879
 31
0.0
  0
CIRCLE
  5
12C
330
1F
100
AcDbEntity
  8
LAYERGROUP-1
  6
CONTINUOUS
 62
     3
100
AcDbCircle
 10
397.617723
 20
210.0
 30
0.0
 40
79.0
  0
LINE
  5
12D
330
1F
100
AcDbEntity
  8
GR1-1
  6
CENTER
 62
     6
100
AcDbLine
 10
157.462925
 20
317.763933
 30
0.0
 11
157.462925
 21
102.236067
 31
0.0
  0
LINE
  5
12E
330
1F
100
AcDbEntity
  8
GR1-1
  6
CONTINUOUS
 62
     3
100
AcDbLine
 10
134.962925
 20
284.6217
 30
0.0
 11
134.962925
 21
289.5
 31
0.0
  0
ARC
  5
130
330
1F
100
AcDbEntity
  8
1-1
  6
CONTINUOUS
 62
     3
100
AcDbCircle
 10
166.237263
 20
300.773544
 30
0.0
 40
8.0
100
AcDbArc
 50
30.0
 51
74.08577
  0
LINE
  5
131
330
1F
100
AcDbEntity
  8
1-1
  6
CONTINUOUS
 62
     3
100
AcDbLine
 10
173.165467
 20
304.773544
 30
0.0
 11
179.962925
 21
293.0
 31
0.0
  0
ARC
  5
132
330
1F
100
AcDbEntity
  8
1-1
  6
CONTINUOUS
 62
     3
100
AcDbCircle
 10
148.688587
 20
300.773544
 30
0.0
 40
8.0
100
AcDbArc
 50
105.91423
 51
150.0
  0
LINE
  5
133
330
1F
100
AcDbEntity
  8
1-1
  6
CONTINUOUS
 62
     3
100
AcDbLine
 10
141.760384
 20
304.773544
 30
0.0
 11
134.962925
 21
293.0
 31
0.0
  0
ARC
  5
134
330
1F
100
AcDbEntity
  8
1-1
  6
CONTINUOUS
 62
     3
100
AcDbCircle
 10
157.462925
 20
270.0
 30
0.0
 40
40.0
100
AcDbArc
 50
74.08577
 51
105.91423
  0
ARC
  5
135
330
1F
100
AcDbEntity
  8
1-1
  6
CONTINUOUS
 62
     3
100
AcDbCircle
 10
166.237263
 20
119.226456
 30
0.0
 40
8.0
100
AcDbArc
 50
285.91423
 51
330.0
  0
LINE
  5
136
330
1F
100
AcDbEntity
  8
1-1
  6
CONTINUOUS
 62
     3
100
AcDbLine
 10
173.165467
 20
115.226456
 30
0.0
 11
179.962925
 21
127.0
 31
0.0
  0
ARC
  5
137
330
1F
100
AcDbEntity
  8
1-1
  6
CONTINUOUS
 62
     3
100
AcDbCircle
 10
148.688587
 20
119.226456
 30
0.0
 40
8.0
100
AcDbArc
 50
210.0
 51
254.08577
  0
LINE
  5
138
330
1F
100
AcDbEntity
  8
1-1
  6
CONTINUOUS
 62
     3
100
AcDbLine
 10
141.760384
 20
115.226456
 30
0.0
 11
134.962925
 21
127.0
 31
0.0
  0
ARC
  5
139
330
1F
100
AcDbEntity
  8
1-1
  6
CONTINUOUS
 62
     3
100
AcDbCircle
 10
157.462925
 20
150.0
 30
0.0
 40
40.0
100
AcDbArc
 50
254.08577
 51
285.91423
  0
LINE
  5
13A
330
1F
100
AcDbEntity
  8
GR1-1
  6
CONTINUOUS
 62
     3
100
AcDbLine
 10
179.962925
 20
284.6217
 30
0.0
 11
179.962925
 21
289.9
 31
0.0
  0
LINE
  5
13B
330
1F
100
AcDbEntity
  8
GR1-1
  6
CONTINUOUS
 62
     3
100
AcDbLine
 10
160.562925
 20
127.0
 30
0.0
 11
176.362925
 21
127.0
 31
0.0
  0
LINE
  5
13C
330
1F
100
AcDbEntity
  8
GR1-1
  6
CONTINUOUS
 62
     3
100
AcDbLine
 10
154.362925
 20
127.0
 30
0.0
 11
138.562925
 21
127.0
 31
0.0
  0
LINE
  5
13D
330
1F
100
AcDbEntity
  8
GR1-1
  6
CONTINUOUS
 62
     3
100
AcDbLine
 10
146.212925
 20
186.55
 30
0.0
 11
136.062925
 21
186.55
 31
0.0
  0
LINE
  5
13E
330
1F
100
AcDbEntity
  8
GR1-1
  6
CONTINUOUS
 62
     3
100
AcDbLine
 10
134.962925
 20
134.769074
 30
0.0
 11
134.962925
 21
130.6
 31
0.0
  0
LINE
  5
13F
330
1F
100
AcDbEntity
  8
GR1-1
  6
CONTINUOUS
 62
     3
100
AcDbLine
 10
179.962925
 20
134.769074
 30
0.0
 11
179.962925
 21
130.6
 31
0.0
  0
LINE
  5
140
330
1F
100
AcDbEntity
  8
GR1-1
  6
CONTINUOUS
 62
     3
100
AcDbLine
 10
160.562925
 20
128.6
 30
0.0
 11
176.362925
 21
128.6
 31
0.0
  0
LINE
  5
141
330
1F
100
AcDbEntity
  8
GR1-1
  6
CONTINUOUS
 62
     3
100
AcDbLine
 10
178.362925
 20
134.769074
 30
0.0
 11
178.362925
 21
130.6
 31
0.0
  0
LINE
  5
142
330
1F
100
AcDbEntity
  8
GR1-1
  6
CONTINUOUS
 62
     3
100
AcDbLine
 10
146.212925
 20
184.95
 30
0.0
 11
136.062925
 21
184.95
 31
0.0
  0
LINE
  5
143
330
1F
100
AcDbEntity
  8
GR1-1
  6
CONTINUOUS
 62
     3
100
AcDbLine
 10
154.362925
 20
128.6
 30
0.0
 11
138.562925
 21
128.6
 31
0.0
  0
LINE
  5
144
330
1F
100
AcDbEntity
  8
GR1-1
  6
CONTINUOUS
 62
     3
100
AcDbLine
 10
136.562925
 20
134.769074
 30
0.0
 11
136.562925
 21
130.6
 31
0.0
  0
LINE
  5
145
330
1F
100
AcDbEntity
  8
GR1-1
  6
CONTINUOUS
 62
     3
100
AcDbLine
 10
159.062925
 20
125.5
 30
0.0
 11
159.062925
 21
123.1
 31
0.0
  0
LINE
  5
146
330
1F
100
AcDbEntity
  8
GR1-1
  6
CONTINUOUS
 62
     3
100
AcDbLine
 10
155.862925
 20
125.5
 30
0.0
 11
155.862925
 21
123.8
 31
0.0
  0
LINE
  5
147
330
1F
100
AcDbEntity
  8
GR1-1
  6
CONTINUOUS
 62
     3
100
AcDbLine
 10
160.562925
 20
293.0
 30
0.0
 11
176.862925
 21
293.0
 31
0.0
  0
ARC
  5
148
330
1F
100
AcDbEntity
  8
LAYERGROUP-1
  6
CONTINUOUS
 62
     3
100
AcDbCircle
 10
138.462925
 20
289.5
 30
0.0
 40
3.5
100
AcDbArc
 50
90.0
 51
180.0
  0
LINE
  5
149
330
1F
100
AcDbEntity
  8
GR1-1
  6
CONTINUOUS
 62
     3
100
AcDbLine
 10
154.362925
 20
293.0
 30
0.0
 11
138.462925
 21
293.0
 31
0.0
  0
LINE
  5
14A
330
1F
100
AcDbEntity
  8
GR1-1
  6
CONTINUOUS
 62
     3
100
AcDbLine
 10
146.212925
 20
233.45
 30
0.0
 11
136.562925
 21
233.45
 31
0.0
  0
ARC
  5
14B
330
1F
100
AcDbEntity
  8
LAYERGROUP-1
  6
CONTINUOUS
 62
     3
100
AcDbCircle
 10
146.212925
 20
232.7
 30
0.0
 40
0.75
100
AcDbArc
 50
0.0
 51
90.0
  0
LINE
  5
14C
330
1F
100
AcDbEntity
  8
GR1-1
  6
CONTINUOUS
 62
     3
100
AcDbLine
 10
160.562925
 20
291.4
 30
0.0
 11
176.862925
 21
291.4
 31
0.0
  0
LINE
  5
14D
330
1F
100
AcDbEntity
  8
GR1-1
  6
CONTINUOUS
 62
     3
100
AcDbLine
 10
178.362925
 20
284.6217
 30
0.0
 11
178.362925
 21
289.9
 31
0.0
  0
ARC
  5
14E
330
1F
100
AcDbEntity
  8
LAYERGROUP-1
  6
CONTINUOUS
 62
     3
100
AcDbCircle
 10
176.862925
 20
289.9
 30
0.0
 40
1.5
100
AcDbArc
 50
0.0
 51
90.0
  0
ARC
  5
14F
330
1F
100
AcDbEntity
  8
LAYERGROUP-1
  6
CONTINUOUS
 62
     3
100
AcDbCircle
 10
176.862925
 20
289.9
 30
0.0
 40
3.1
100
AcDbArc
 50
0.0
 51
90.0
  0
LINE
  5
150
330
1F
100
AcDbEntity
  8
GR1-1
  6
CONTINUOUS
 62
     3
100
AcDbLine
 10
146.212925
 20
235.05
 30
0.0
 11
136.062925
 21
235.05
 31
0.0
  0
ARC
  5
151
330
1F
100
AcDbEntity
  8
LAYERGROUP-1
  6
CONTINUOUS
 62
     3
100
AcDbCircle
 10
146.212925
 20
232.7
 30
0.0
 40
2.35
100
AcDbArc
 50
0.0
 51
90.0
  0
LINE
  5
152
330
1F
100
AcDbEntity
  8
GR1-1
  6
CONTINUOUS
 62
     3
100
AcDbLine
 10
154.362925
 20
291.4
 30
0.0
 11
138.062925
 21
291.4
 31
0.0
  0
LINE
  5
153
330
1F
100
AcDbEntity
  8
GR1-1
  6
CONTINUOUS
 62
     3
100
AcDbLine
 10
136.562925
 20
284.6217
 30
0.0
 11
136.562925
 21
289.9
 31
0.0
  0
ARC
  5
154
330
1F
100
AcDbEntity
  8
LAYERGROUP-1
  6
CONTINUOUS
 62
     3
100
AcDbCircle
 10
138.062925
 20
289.9
 30
0.0
 40
1.5
100
AcDbArc
 50
90.0
 51
180.0
  0
LINE
  5
155
330
1F
100
AcDbEntity
  8
GR1-1
  6
CONTINUOUS
 62
     3
100
AcDbLine
 10
159.062925
 20
294.5
 30
0.0
 11
159.062925
 21
296.9
 31
0.0
  0
LINE
  5
156
330
1F
100
AcDbEntity
  8
GR1-1
  6
CONTINUOUS
 62
     3
100
AcDbLine
 10
157.462925
 20
294.5
 30
0.0
 11
157.462925
 21
296.9
 31
0.0
  0
LINE
  5
157
330
1F
100
AcDbEntity
  8
GR1-1
  6
CONTINUOUS
 62
     3
100
AcDbLine
 10
155.862925
 20
294.5
 30
0.0
 11
155.862925
 21
296.2
 31
0.0
  0
ARC
  5
158
330
1F
100
AcDbEntity
  8
LAYERGROUP-1
  6
CONTINUOUS
 62
     3
100
AcDbCircle
 10
138.562925
 20
130.6
 30
0.0
 40
2.0
100
AcDbArc
 50
180.0
 51
270.0
  0
ARC
  5
159
330
1F
100
AcDbEntity
  8
LAYERGROUP-1
  6
CONTINUOUS
 62
     3
100
AcDbCircle
 10
176.362925
 20
130.6
 30
0.0
 40
2.0
100
AcDbArc
 50
270.0
 51
360.0
  0
ARC
  5
15A
330
1F
100
AcDbEntity
  8
LAYERGROUP-1
  6
CONTINUOUS
 62
     3
100
AcDbCircle
 10
138.562925
 20
130.6
 30
0.0
 40
3.6
100
AcDbArc
 50
180.0
 51
270.0
  0
ARC
  5
15B
330
1F
100
AcDbEntity
  8
LAYERGROUP-1
  6
CONTINUOUS
 62
     3
100
AcDbCircle
 10
176.362925
 20
130.6
 30
0.0
 40
3.6
100
AcDbArc
 50
270.0
 51
360.0
  0
LINE
  5
15C
330
1F
100
AcDbEntity
  8
GR1-1
  6
CONTINUOUS
 62
     3
100
AcDbLine
 10
148.562925
 20
230.0
 30
0.0
 11
146.962925
 21
230.0
 31
0.0
  0
LINE
  5
15D
330
1F
100
AcDbEntity
  8
GR1-1
  6
CONTINUOUS
 62
     3
100
AcDbLine
 10
146.962925
 20
232.7
 30
0.0
 11
146.962925
 21
230.0
 31
0.0
  0
LINE
  5
15E
330
1F
100
AcDbEntity
  8
GR1-1
  6
CONTINUOUS
 62
     3
100
AcDbLine
 10
148.562925
 20
232.7
 30
0.0
 11
148.562925
 21
230.0
 31
0.0
  0
ARC
  5
15F
330
1F
100
AcDbEntity
  8
LAYERGROUP-1
  6
CONTINUOUS
 62
     3
100
AcDbCircle
 10
146.212925
 20
187.3
 30
0.0
 40
0.75
100
AcDbArc
 50
270.0
 51
360.0
  0
ARC
  5
160
330
1F
100
AcDbEntity
  8
LAYERGROUP-1
  6
CONTINUOUS
 62
     3
100
AcDbCircle
 10
146.212925
 20
187.3
 30
0.0
 40
2.35
100
AcDbArc
 50
270.0
 51
360.0
  0
LINE
  5
161
330
1F
100
AcDbEntity
  8
GR1-1
  6
CONTINUOUS
 62
     3
100
AcDbLine
 10
148.562925
 20
190.0
 30
0.0
 11
146.962925
 21
190.0
 31
0.0
  0
LINE
  5
162
330
1F
100
AcDbEntity
  8
GR1-1
  6
CONTINUOUS
 62
     3
100
AcDbLine
 10
146.962925
 20
187.3
 30
0.0
 11
146.962925
 21
190.0
 31
0.0
  0
LINE
  5
163
330
1F
100
AcDbEntity
  8
GR1-1
  6
CONTINUOUS
 62
     3
100
AcDbLine
 10
148.562925
 20
187.3
 30
0.0
 11
148.562925
 21
190.0
 31
0.0
  0
LINE
  5
164
330
1F
100
AcDbEntity
  8
GR1-1
  6
CONTINUOUS
 62
     3
100
AcDbLine
 10
168.712925
 20
186.55
 30
0.0
 11
178.862925
 21
186.55
 31
0.0
  0
LINE
  5
165
330
1F
100
AcDbEntity
  8
GR1-1
  6
CONTINUOUS
 62
     3
100
AcDbLine
 10
168.712925
 20
184.95
 30
0.0
 11
178.862925
 21
184.95
 31
0.0
  0
ARC
  5
166
330
1F
100
AcDbEntity
  8
LAYERGROUP-1
  6
CONTINUOUS
 62
     3
100
AcDbCircle
 10
168.712925
 20
187.3
 30
0.0
 40
0.75
100
AcDbArc
 50
180.0
 51
270.0
  0
ARC
  5
167
330
1F
100
AcDbEntity
  8
LAYERGROUP-1
  6
CONTINUOUS
 62
     3
100
AcDbCircle
 10
168.712925
 20
187.3
 30
0.0
 40
2.35
100
AcDbArc
 50
180.0
 51
270.0
  0
LINE
  5
168
330
1F
100
AcDbEntity
  8
GR1-1
  6
CONTINUOUS
 62
     3
100
AcDbLine
 10
166.362925
 20
190.0
 30
0.0
 11
167.962925
 21
190.0
 31
0.0
  0
LINE
  5
169
330
1F
100
AcDbEntity
  8
GR1-1
  6
CONTINUOUS
 62
     3
100
AcDbLine
 10
167.962925
 20
187.3
 30
0.0
 11
167.962925
 21
190.0
 31
0.0
  0
LINE
  5
16A
330
1F
100
AcDbEntity
  8
GR1-1
  6
CONTINUOUS
 62
     3
100
AcDbLine
 10
166.362925
 20
187.3
 30
0.0
 11
166.362925
 21
190.0
 31
0.0
  0
ARC
  5
16B
330
1F
100
AcDbEntity
  8
LAYERGROUP-1
  6
PHANTOM
 62
     7
100
AcDbCircle
 10
131.032102
 20
143.967685
 30
0.0
 40
8.0
100
AcDbArc
 50
-60.570464
 51
9.334998
  0
ARC
  5
16C
330
1F
100
AcDbEntity
  8
LAYERGROUP-1
  6
CONTINUOUS
 62
     3
100
AcDbCircle
 10
131.032102
 20
276.032315
 30
0.0
 40
8.0
100
AcDbArc
 50
-10.173686
 51
50.698034
  0
LINE
  5
16D
330
1F
100
AcDbEntity
  8
LAYERGROUP-1
  6
CONTINUOUS
 62
     3
100
AcDbLine
 10
132.962925
 20
241.5
 30
0.0
 11
132.962925
 21
236.55
 31
0.0
  0
LINE
  5
16E
330
1F
100
AcDbEntity
  8
LAYERGROUP-1
  6
CONTINUOUS
 62
     3
100
AcDbLine
 10
134.562925
 20
241.36937
 30
0.0
 11
134.562925
 21
236.55
 31
0.0
  0
ARC
  5
16F
330
1F
100
AcDbEntity
  8
LAYERGROUP-1
  6
CONTINUOUS
 62
     3
100
AcDbCircle
 10
136.062925
 20
236.55
 30
0.0
 40
1.5
100
AcDbArc
 50
180.0
 51
270.0
  0
ARC
  5
170
330
1F
100
AcDbEntity
  8
LAYERGROUP-1
  6
CONTINUOUS
 62
     3
100
AcDbCircle
 10
136.062925
 20
236.55
 30
0.0
 40
3.1
100
AcDbArc
 50
180.0
 51
270.0
  0
ARC
  5
171
330
1F
100
AcDbEntity
  8
LAYERGROUP-1
  6
CONTINUOUS
 62
     3
100
AcDbCircle
 10
131.032102
 20
276.032315
 30
0.0
 40
9.6
100
AcDbArc
 50
-10.173686
 51
50.698034
  0
LINE
  5
172
330
1F
100
AcDbEntity
  8
GR1-1
  6
CONTINUOUS
 62
     3
100
AcDbLine
 10
168.712925
 20
233.45
 30
0.0
 11
178.862925
 21
233.45
 31
0.0
  0
ARC
  5
173
330
1F
100
AcDbEntity
  8
LAYERGROUP-1
  6
CONTINUOUS
 62
     3
100
AcDbCircle
 10
168.712925
 20
232.7
 30
0.0
 40
0.75
100
AcDbArc
 50
90.0
 51
180.0
  0
LINE
  5
174
330
1F
100
AcDbEntity
  8
GR1-1
  6
CONTINUOUS
 62
     3
100
AcDbLine
 10
168.712925
 20
235.05
 30
0.0
 11
178.862925
 21
235.05
 31
0.0
  0
ARC
  5
175
330
1F
100
AcDbEntity
  8
LAYERGROUP-1
  6
CONTINUOUS
 62
     3
100
AcDbCircle
 10
168.712925
 20
232.7
 30
0.0
 40
2.35
100
AcDbArc
 50
90.0
 51
180.0
  0
LINE
  5
176
330
1F
100
AcDbEntity
  8
GR1-1
  6
CONTINUOUS
 62
     3
100
AcDbLine
 10
166.362925
 20
230.0
 30
0.0
 11
167.962925
 21
230.0
 31
0.0
  0
LINE
  5
177
330
1F
100
AcDbEntity
  8
GR1-1
  6
CONTINUOUS
 62
     3
100
AcDbLine
 10
167.962925
 20
232.7
 30
0.0
 11
167.962925
 21
230.0
 31
0.0
  0
LINE
  5
178
330
1F
100
AcDbEntity
  8
GR1-1
  6
CONTINUOUS
 62
     3
100
AcDbLine
 10
166.362925
 20
232.7
 30
0.0
 11
166.362925
 21
230.0
 31
0.0
  0
ARC
  5
179
330
1F
100
AcDbEntity
  8
LAYERGROUP-1
  6
CONTINUOUS
 62
     3
100
AcDbCircle
 10
183.893747
 20
276.032315
 30
0.0
 40
8.0
100
AcDbArc
 50
129.301966
 51
190.173686
  0
ARC
  5
17A
330
1F
100
AcDbEntity
  8
LAYERGROUP-1
  6
CONTINUOUS
 62
     3
100
AcDbCircle
 10
183.893747
 20
276.032315
 30
0.0
 40
9.6
100
AcDbArc
 50
129.301966
 51
190.173686
  0
LINE
  5
17B
330
1F
100
AcDbEntity
  8
LAYERGROUP-1
  6
CONTINUOUS
 62
     6
100
AcDbLine
 10
167.962925
 20
230.0
 30
0.0
 11
167.962925
 21
190.0
 31
0.0
  0
ARC
  5
17C
330
1F
100
AcDbEntity
  8
LAYERGROUP-1
  6
CONTINUOUS
 62
     3
100
AcDbCircle
 10
154.362925
 20
294.5
 30
0.0
 40
1.5
100
AcDbArc
 50
270.0
 51
360.0
  0
ARC
  5
17D
330
1F
100
AcDbEntity
  8
LAYERGROUP-1
  6
CONTINUOUS
 62
     3
100
AcDbCircle
 10
154.362925
 20
294.5
 30
0.0
 40
3.1
100
AcDbArc
 50
270.0
 51
360.0
  0
ARC
  5
17E
330
1F
100
AcDbEntity
  8
LAYERGROUP-1
  6
CONTINUOUS
 62
     3
100
AcDbCircle
 10
160.562925
 20
294.5
 30
0.0
 40
1.5
100
AcDbArc
 50
180.0
 51
270.0
  0
ARC
  5
17F
330
1F
100
AcDbEntity
  8
LAYERGROUP-1
  6
CONTINUOUS
 62
     3
100
AcDbCircle
 10
160.562925
 20
294.5
 30
0.0
 40
3.1
100
AcDbArc
 50
180.0
 51
270.0
  0
ARC
  5
180
330
1F
100
AcDbEntity
  8
LAYERGROUP-1
  6
CONTINUOUS
 62
     3
100
AcDbCircle
 10
160.562925
 20
125.5
 30
0.0
 40
1.5
100
AcDbArc
 50
90.0
 51
180.0
  0
ARC
  5
181
330
1F
100
AcDbEntity
  8
LAYERGROUP-1
  6
CONTINUOUS
 62
     3
100
AcDbCircle
 10
160.562925
 20
125.5
 30
0.0
 40
3.1
100
AcDbArc
 50
90.0
 51
180.0
  0
ARC
  5
182
330
1F
100
AcDbEntity
  8
LAYERGROUP-1
  6
CONTINUOUS
 62
     3
100
AcDbCircle
 10
154.362925
 20
125.5
 30
0.0
 40
1.5
100
AcDbArc
 50
0.0
 51
90.0
  0
ARC
  5
183
330
1F
100
AcDbEntity
  8
LAYERGROUP-1
  6
CONTINUOUS
 62
     3
100
AcDbCircle
 10
154.362925
 20
125.5
 30
0.0
 40
3.1
100
AcDbArc
 50
0.0
 51
90.0
  0
LINE
  5
184
330
1F
100
AcDbEntity
  8
LAYERGROUP-1
  6
CONTINUOUS
 62
     3
100
AcDbLine
 10
130.462925
 20
224.5
 30
0.0
 11
136.06581
 21
224.5
 31
0.0
  0
LINE
  5
185
330
1F
100
AcDbEntity
  8
LAYERGROUP-1
  6
CONTINUOUS
 62
     3
100
AcDbLine
 10
130.462925
 20
195.5
 30
0.0
 11
136.06581
 21
195.5
 31
0.0
  0
LINE
  5
186
330
1F
100
AcDbEntity
  8
LAYERGROUP-1
  6
CONTINUOUS
 62
     3
100
AcDbLine
 10
129.962925
 20
196.0
 30
0.0
 11
129.962925
 21
224.0
 31
0.0
  0
LINE
  5
187
330
1F
100
AcDbEntity
  8
LAYERGROUP-1
  6
CONTINUOUS
 62
     3
100
AcDbLine
 10
130.662925
 20
200.0
 30
0.0
 11
146.462925
 21
200.0
 31
0.0
  0
LINE
  5
188
330
1F
100
AcDbEntity
  8
LAYERGROUP-1
  6
CONTINUOUS
 62
     3
100
AcDbLine
 10
130.662925
 20
220.0
 30
0.0
 11
146.462925
 21
220.0
 31
0.0
  0
ARC
  5
189
330
1F
100
AcDbEntity
  8
LAYERGROUP-1
  6
CONTINUOUS
 62
     3
100
AcDbCircle
 10
130.662925
 20
199.3
 30
0.0
 40
0.7
100
AcDbArc
 50
90.0
 51
180.0
  0
ARC
  5
18A
330
1F
100
AcDbEntity
  8
LAYERGROUP-1
  6
CONTINUOUS
 62
     3
100
AcDbCircle
 10
130.662925
 20
220.7
 30
0.0
 40
0.7
100
AcDbArc
 50
180.0
 51
270.0
  0
LINE
  5
18B
330
1F
100
AcDbEntity
  8
LAYERGROUP-1
  6
CONTINUOUS
 62
     3
100
AcDbLine
 10
130.462925
 20
195.5
 30
0.0
 11
129.962925
 21
196.0
 31
0.0
  0
LINE
  5
18C
330
1F
100
AcDbEntity
  8
LAYERGROUP-1
  6
CONTINUOUS
 62
     3
100
AcDbLine
 10
129.962925
 20
224.0
 30
0.0
 11
130.462925
 21
224.5
 31
0.0
  0
LINE
  5
18D
330
1F
100
AcDbEntity
  8
LAYERGROUP-1
  6
CONTINUOUS
 62
     3
100
AcDbLine
 10
146.962925
 20
187.5
 30
0.0
 11
146.962925
 21
232.5
 31
0.0
  0
ARC
  5
18E
330
1F
100
AcDbEntity
  8
LAYERGROUP-1
  6
CONTINUOUS
 62
     3
100
AcDbCircle
 10
146.462925
 20
199.5
 30
0.0
 40
0.5
100
AcDbArc
 50
0.0
 51
90.0
  0
ARC
  5
18F
330
1F
100
AcDbEntity
  8
LAYERGROUP-1
  6
CONTINUOUS
 62
     3
100
AcDbCircle
 10
146.462925
 20
220.5
 30
0.0
 40
0.5
100
AcDbArc
 50
270.0
 51
360.0
  0
LINE
  5
190
330
1F
100
AcDbEntity
  8
LAYERGROUP-1
  6
CONTINUOUS
 62
     3
100
AcDbLine
 10
132.962925
 20
241.5
 30
0.0
 11
138.906317
 21
274.619253
 31
0.0
  0
LINE
  5
191
330
1F
100
AcDbEntity
  8
LAYERGROUP-1
  6
CONTINUOUS
 62
     3
100
AcDbLine
 10
134.562925
 20
241.357574
 30
0.0
 11
140.48116
 21
274.336641
 31
0.0
  0
LINE
  5
192
330
1F
100
AcDbEntity
  8
LAYERGROUP-1
  6
PHANTOM
 62
     7
100
AcDbLine
 10
136.015634
 20
244.357403
 30
0.0
 11
141.288167
 21
273.738328
 31
0.0
  0
LINE
  5
193
330
1F
100
AcDbEntity
  8
LAYERGROUP-1
  6
PHANTOM
 62
     7
100
AcDbLine
 10
135.672983
 20
243.767018
 30
0.0
 11
133.894698
 21
242.279447
 31
0.0
  0
ARC
  5
194
330
1F
100
AcDbEntity
  8
LAYERGROUP-1
  6
PHANTOM
 62
     7
100
AcDbCircle
 10
135.562925
 20
240.2852
 30
0.0
 40
2.6
100
AcDbArc
 50
129.913157
 51
180.0
  0
ARC
  5
195
330
1F
100
AcDbEntity
  8
LAYERGROUP-1
  6
PHANTOM
 62
     7
100
AcDbCircle
 10
135.031357
 20
244.534036
 30
0.0
 40
1.0
100
AcDbArc
 50
309.913157
 51
349.826314
  0
ARC
  5
196
330
1F
100
AcDbEntity
  8
LAYERGROUP-1
  6
PHANTOM
 62
     7
100
AcDbCircle
 10
133.413952
 20
275.15139
 30
0.0
 40
8.0
100
AcDbArc
 50
-10.173686
 51
78.83579
  0
LINE
  5
197
330
1F
100
AcDbEntity
  8
LAYERGROUP-1
  6
CONTINUOUS
 62
     3
100
AcDbLine
 10
181.962925
 20
241.5
 30
0.0
 11
181.962925
 21
236.55
 31
0.0
  0
LINE
  5
198
330
1F
100
AcDbEntity
  8
LAYERGROUP-1
  6
CONTINUOUS
 62
     3
100
AcDbLine
 10
180.362925
 20
241.36937
 30
0.0
 11
180.362925
 21
236.55
 31
0.0
  0
ARC
  5
199
330
1F
100
AcDbEntity
  8
LAYERGROUP-1
  6
CONTINUOUS
 62
     3
100
AcDbCircle
 10
178.862925
 20
236.55
 30
0.0
 40
1.5
100
AcDbArc
 50
270.0
 51
360.0
  0
ARC
  5
19A
330
1F
100
AcDbEntity
  8
LAYERGROUP-1
  6
CONTINUOUS
 62
     3
100
AcDbCircle
 10
178.862925
 20
236.55
 30
0.0
 40
3.1
100
AcDbArc
 50
270.0
 51
360.0
  0
LINE
  5
19B
330
1F
100
AcDbEntity
  8
LAYERGROUP-1
  6
CONTINUOUS
 62
     3
100
AcDbLine
 10
181.962925
 20
241.5
 30
0.0
 11
176.019532
 21
274.619253
 31
0.0
  0
LINE
  5
19C
330
1F
100
AcDbEntity
  8
LAYERGROUP-1
  6
CONTINUOUS
 62
     3
100
AcDbLine
 10
180.362925
 20
241.357574
 30
0.0
 11
174.44469
 21
274.336641
 31
0.0
  0
LINE
  5
19D
330
1F
100
AcDbEntity
  8
LAYERGROUP-1
  6
CONTINUOUS
 62
     3
100
AcDbLine
 10
136.015634
 20
175.642597
 30
0.0
 11
141.288167
 21
146.261672
 31
0.0
  0
LINE
  5
19E
330
1F
100
AcDbEntity
  8
LAYERGROUP-1
  6
CONTINUOUS
 62
     3
100
AcDbLine
 10
135.672983
 20
176.232982
 30
0.0
 11
133.894698
 21
177.720553
 31
0.0
  0
ARC
  5
19F
330
1F
100
AcDbEntity
  8
LAYERGROUP-1
  6
CONTINUOUS
 62
     3
100
AcDbCircle
 10
135.562925
 20
179.7148
 30
0.0
 40
2.6
100
AcDbArc
 50
180.0
 51
230.086843
  0
ARC
  5
1A0
330
1F
100
AcDbEntity
  8
LAYERGROUP-1
  6
CONTINUOUS
 62
     3
100
AcDbCircle
 10
135.031357
 20
175.465964
 30
0.0
 40
1.0
100
AcDbArc
 50
10.173686
 51
50.086843
  0
ARC
  5
1A1
330
1F
100
AcDbEntity
  8
LAYERGROUP-1
  6
CONTINUOUS
 62
     3
100
AcDbCircle
 10
133.413952
 20
144.84861
 30
0.0
 40
8.0
100
AcDbArc
 50
-65.239488
 51
10.173686
  0
LINE
  5
1A2
330
1F
100
AcDbEntity
  8
LAYERGROUP-1
  6
CONTINUOUS
 62
     3
100
AcDbLine
 10
134.562925
 20
179.7148
 30
0.0
 11
134.562925
 21
183.45
 31
0.0
  0
ARC
  5
1A3
330
1F
100
AcDbEntity
  8
LAYERGROUP-1
  6
CONTINUOUS
 62
     3
100
AcDbCircle
 10
136.062925
 20
183.45
 30
0.0
 40
1.5
100
AcDbArc
 50
90.0
 51
180.0
  0
ARC
  5
1A4
330
1F
100
AcDbEntity
  8
LAYERGROUP-1
  6
CONTINUOUS
 62
     3
100
AcDbCircle
 10
136.062925
 20
183.45
 30
0.0
 40
3.1
100
AcDbArc
 50
90.0
 51
180.0
  0
LINE
  5
1A5
330
1F
100
AcDbEntity
  8
LAYERGROUP-1
  6
CONTINUOUS
 62
     3
100
AcDbLine
 10
132.962925
 20
179.7148
 30
0.0
 11
132.962925
 21
183.45
 31
0.0
  0
LINE
  5
1A6
330
1F
100
AcDbEntity
  8
LAYERGROUP-1
  6
PHANTOM
 62
     7
100
AcDbLine
 10
132.962925
 20
178.5
 30
0.0
 11
138.927
 21
145.265489
 31
0.0
  0
ARC
  5
1A7
330
1F
100
AcDbEntity
  8
LAYERGROUP-1
  6
CONTINUOUS
 62
     3
100
AcDbCircle
 10
138.062925
 20
134.769074
 30
0.0
 40
3.1
100
AcDbArc
 50
114.760512
 51
180.0
  0
LINE
  5
1A8
330
1F
100
AcDbEntity
  8
LAYERGROUP-1
  6
CONTINUOUS
 62
     3
100
AcDbLine
 10
137.590477
 20
175.925209
 30
0.0
 11
142.86301
 21
146.544284
 31
0.0
  0
ARC
  5
1A9
330
1F
100
AcDbEntity
  8
LAYERGROUP-1
  6
CONTINUOUS
 62
     3
100
AcDbCircle
 10
138.062925
 20
134.769074
 30
0.0
 40
1.5
100
AcDbArc
 50
114.760512
 51
180.0
  0
LINE
  5
1AA
330
1F
100
AcDbEntity
  8
LAYERGROUP-1
  6
CONTINUOUS
 62
     3
100
AcDbLine
 10
136.699584
 20
177.460211
 30
0.0
 11
134.921299
 21
178.947782
 31
0.0
  0
ARC
  5
1AB
330
1F
100
AcDbEntity
  8
LAYERGROUP-1
  6
PHANTOM
 62
     7
100
AcDbCircle
 10
135.562925
 20
179.7148
 30
0.0
 40
1.0
100
AcDbArc
 50
180.0
 51
230.086843
  0
ARC
  5
1AC
330
1F
100
AcDbEntity
  8
LAYERGROUP-1
  6
CONTINUOUS
 62
     3
100
AcDbCircle
 10
135.031357
 20
175.465964
 30
0.0
 40
2.6
100
AcDbArc
 50
10.173686
 51
50.086843
  0
ARC
  5
1AD
330
1F
100
AcDbEntity
  8
LAYERGROUP-1
  6
CONTINUOUS
 62
     3
100
AcDbCircle
 10
135.562925
 20
179.7148
 30
0.0
 40
1.0
100
AcDbArc
 50
180.0
 51
230.086843
  0
LINE
  5
1AE
330
1F
100
AcDbEntity
  8
LAYERGROUP-1
  6
CONTINUOUS
 62
     3
100
AcDbLine
 10
178.910216
 20
175.642597
 30
0.0
 11
173.637682
 21
146.261672
 31
0.0
  0
ARC
  5
1AF
330
1F
100
AcDbEntity
  8
LAYERGROUP-1
  6
CONTINUOUS
 62
     3
100
AcDbCircle
 10
181.511897
 20
144.84861
 30
0.0
 40
8.0
100
AcDbArc
 50
169.826314
 51
245.239488
  0
ARC
  5
1B0
330
1F
100
AcDbEntity
  8
LAYERGROUP-1
  6
CONTINUOUS
 62
     3
100
AcDbCircle
 10
181.511897
 20
144.84861
 30
0.0
 40
9.6
100
AcDbArc
 50
169.826314
 51
245.239488
  0
LINE
  5
1B1
330
1F
100
AcDbEntity
  8
LAYERGROUP-1
  6
CONTINUOUS
 62
     3
100
AcDbLine
 10
177.335373
 20
175.925209
 30
0.0
 11
172.06284
 21
146.544284
 31
0.0
  0
LINE
  5
1B2
330
1F
100
AcDbEntity
  8
LAYERGROUP-1
  6
CONTINUOUS
 62
     3
100
AcDbLine
 10
179.252867
 20
176.232982
 30
0.0
 11
181.031152
 21
177.720553
 31
0.0
  0
ARC
  5
1B3
330
1F
100
AcDbEntity
  8
LAYERGROUP-1
  6
CONTINUOUS
 62
     3
100
AcDbCircle
 10
179.362925
 20
179.7148
 30
0.0
 40
2.6
100
AcDbArc
 50
309.913157
 51
360.0
  0
ARC
  5
1B4
330
1F
100
AcDbEntity
  8
LAYERGROUP-1
  6
CONTINUOUS
 62
     3
100
AcDbCircle
 10
179.894493
 20
175.465964
 30
0.0
 40
1.0
100
AcDbArc
 50
129.913157
 51
169.826314
  0
LINE
  5
1B5
330
1F
100
AcDbEntity
  8
LAYERGROUP-1
  6
CONTINUOUS
 62
     3
100
AcDbLine
 10
180.362925
 20
179.7148
 30
0.0
 11
180.362925
 21
183.45
 31
0.0
  0
ARC
  5
1B6
330
1F
100
AcDbEntity
  8
LAYERGROUP-1
  6
CONTINUOUS
 62
     3
100
AcDbCircle
 10
178.862925
 20
183.45
 30
0.0
 40
1.5
100
AcDbArc
 50
0.0
 51
90.0
  0
ARC
  5
1B7
330
1F
100
AcDbEntity
  8
LAYERGROUP-1
  6
CONTINUOUS
 62
     3
100
AcDbCircle
 10
178.862925
 20
183.45
 30
0.0
 40
3.1
100
AcDbArc
 50
0.0
 51
90.0
  0
LINE
  5
1B8
330
1F
100
AcDbEntity
  8
LAYERGROUP-1
  6
CONTINUOUS
 62
     3
100
AcDbLine
 10
181.962925
 20
179.7148
 30
0.0
 11
181.962925
 21
183.45
 31
0.0
  0
LINE
  5
1B9
330
1F
100
AcDbEntity
  8
LAYERGROUP-1
  6
CONTINUOUS
 62
     3
100
AcDbLine
 10
178.226265
 20
177.460211
 30
0.0
 11
180.004551
 21
178.947782
 31
0.0
  0
ARC
  5
1BA
330
1F
100
AcDbEntity
  8
LAYERGROUP-1
  6
PHANTOM
 62
     7
100
AcDbCircle
 10
179.362925
 20
179.7148
 30
0.0
 40
1.0
100
AcDbArc
 50
309.913157
 51
360.0
  0
ARC
  5
1BB
330
1F
100
AcDbEntity
  8
LAYERGROUP-1
  6
CONTINUOUS
 62
     3
100
AcDbCircle
 10
179.894493
 20
175.465964
 30
0.0
 40
2.6
100
AcDbArc
 50
129.913157
 51
169.826314
  0
ARC
  5
1BC
330
1F
100
AcDbEntity
  8
LAYERGROUP-1
  6
CONTINUOUS
 62
     3
100
AcDbCircle
 10
179.362925
 20
179.7148
 30
0.0
 40
1.0
100
AcDbArc
 50
309.913157
 51
360.0
  0
ARC
  5
1BD
330
1F
100
AcDbEntity
  8
LAYERGROUP-1
  6
CONTINUOUS
 62
     3
100
AcDbCircle
 10
176.862925
 20
134.769074
 30
0.0
 40
3.1
100
AcDbArc
 50
0.0
 51
65.239488
  0
ARC
  5
1BE
330
1F
100
AcDbEntity
  8
LAYERGROUP-1
  6
CONTINUOUS
 62
     3
100
AcDbCircle
 10
176.862925
 20
134.769074
 30
0.0
 40
1.5
100
AcDbArc
 50
0.0
 51
65.239488
  0
ARC
  5
1BF
330
1F
100
AcDbEntity
  8
LAYERGROUP-1
  6
CONTINUOUS
 62
     3
100
AcDbCircle
 10
133.413952
 20
144.84861
 30
0.0
 40
9.6
100
AcDbArc
 50
-65.239488
 51
10.173686
  0
LINE
  5
1C0
330
1F
100
AcDbEntity
  8
GR1-1
  6
CONTINUOUS
 62
     3
100
AcDbLine
 10
158.162925
 20
298.5
 30
0.0
 11
158.385973
 21
298.5
 31
0.0
  0
ARC
  5
1C1
330
1F
100
AcDbEntity
  8
LAYERGROUP-1
  6
CONTINUOUS
 62
     3
100
AcDbCircle
 10
158.162925
 20
296.2
 30
0.0
 40
2.3
100
AcDbArc
 50
90.0
 51
180.0
  0
LINE
  5
1C2
330
1F
100
AcDbEntity
  8
LAYERGROUP-1
  6
CONTINUOUS
 62
     3
100
AcDbLine
 10
157.462925
 20
296.9
 30
0.0
 11
159.062925
 21
296.9
 31
0.0
  0
LINE
  5
1C3
330
1F
100
AcDbEntity
  8
LAYERGROUP-1
  6
CONTINUOUS
 62
     3
100
AcDbLine
 10
161.212925
 20
293.758824
 30
0.0
 11
159.732174
 21
293.51929
 31
0.0
  0
LINE
  5
1C4
330
1F
100
AcDbEntity
  8
LAYERGROUP-1
  6
CONTINUOUS
 62
     3
100
AcDbLine
 10
159.732174
 20
293.51929
 30
0.0
 11
159.062925
 21
296.9
 31
0.0
  0
LINE
  5
1C5
330
1F
100
AcDbEntity
  8
LAYERGROUP-1
  6
CONTINUOUS
 62
     3
100
AcDbLine
 10
161.213829
 20
293.759003
 30
0.0
 11
160.642189
 21
296.646643
 31
0.0
  0
ARC
  5
1C6
330
1F
100
AcDbEntity
  8
LAYERGROUP-1
  6
CONTINUOUS
 62
     3
100
AcDbCircle
 10
158.385973
 20
296.2
 30
0.0
 40
2.3
100
AcDbArc
 50
11.197559
 51
90.0
  0
LINE
  5
1C7
330
1F
100
AcDbEntity
  8
GR1-1
  6
CONTINUOUS
 62
     3
100
AcDbLine
 10
158.162925
 20
121.5
 30
0.0
 11
158.385973
 21
121.5
 31
0.0
  0
ARC
  5
1C8
330
1F
100
AcDbEntity
  8
LAYERGROUP-1
  6
CONTINUOUS
 62
     3
100
AcDbCircle
 10
158.162925
 20
123.8
 30
0.0
 40
2.3
100
AcDbArc
 50
180.0
 51
270.0
  0
LINE
  5
1C9
330
1F
100
AcDbEntity
  8
LAYERGROUP-1
  6
CONTINUOUS
 62
     3
100
AcDbLine
 10
157.462925
 20
123.1
 30
0.0
 11
159.062925
 21
123.1
 31
0.0
  0
LINE
  5
1CA
330
1F
100
AcDbEntity
  8
LAYERGROUP-1
  6
CONTINUOUS
 62
     3
100
AcDbLine
 10
161.212925
 20
126.241176
 30
0.0
 11
159.732174
 21
126.48071
 31
0.0
  0
LINE
  5
1CB
330
1F
100
AcDbEntity
  8
LAYERGROUP-1
  6
CONTINUOUS
 62
     3
100
AcDbLine
 10
159.732174
 20
126.48071
 30
0.0
 11
159.062925
 21
123.1
 31
0.0
  0
LINE
  5
1CC
330
1F
100
AcDbEntity
  8
LAYERGROUP-1
  6
CONTINUOUS
 62
     3
100
AcDbLine
 10
161.213829
 20
126.240997
 30
0.0
 11
160.642189
 21
123.353357
 31
0.0
  0
ARC
  5
1CD
330
1F
100
AcDbEntity
  8
LAYERGROUP-1
  6
CONTINUOUS
 62
     3
100
AcDbCircle
 10
158.385973
 20
123.8
 30
0.0
 40
2.3
100
AcDbArc
 50
270.0
 51
348.802441
  0
LINE
  5
1CE
330
1F
100
AcDbEntity
  8
LAYERGROUP-1
  6
CONTINUOUS
 62
     7
100
AcDbLine
 10
134.962925
 20
284.63202
 30
0.0
 11
134.962925
 21
283.0
 31
0.0
  0
LINE
  5
1CF
330
1F
100
AcDbEntity
  8
GR1-1
  6
CONTINUOUS
 62
     7
100
AcDbLine
 10
134.962925
 20
137.0
 30
0.0
 11
134.962925
 21
134.769074
 31
0.0
  0
LINE
  5
1D0
330
1F
100
AcDbEntity
  8
LAYERGROUP-1
  6
CONTINUOUS
 62
     7
100
AcDbLine
 10
132.962925
 20
179.7148
 30
0.0
 11
132.962925
 21
178.5
 31
0.0
  0
LINE
  5
1D1
330
1F
100
AcDbEntity
  8
LAYERGROUP-1
  6
CONTINUOUS
 62
     3
100
AcDbLine
 10
134.962925
 20
289.5
 30
0.0
 11
134.962925
 21
293.0
 31
0.0
  0
LINE
  5
1D2
330
1F
100
AcDbEntity
  8
LAYERGROUP-1
  6
CONTINUOUS
 62
     3
100
AcDbLine
 10
179.962925
 20
284.63202
 30
0.0
 11
179.962925
 21
293.0
 31
0.0
  0
LINE
  5
1D3
330
1F
100
AcDbEntity
  8
LAYERGROUP-1
  6
CONTINUOUS
 62
     3
100
AcDbLine
 10
179.962925
 20
127.0
 30
0.0
 11
179.962925
 21
130.6
 31
0.0
  0
LINE
  5
1D4
330
1F
100
AcDbEntity
  8
LAYERGROUP-1
  6
CONTINUOUS
 62
     3
100
AcDbLine
 10
134.962925
 20
127.0
 30
0.0
 11
134.962925
 21
130.6
 31
0.0
  0
LINE
  5
1D5
330
1F
100
AcDbEntity
  8
LAYERGROUP-1
  6
CONTINUOUS
 62
     3
100
AcDbLine
 10
184.462925
 20
224.5
 30
0.0
 11
178.860039
 21
224.5
 31
0.0
  0
LINE
  5
1D6
330
1F
100
AcDbEntity
  8
LAYERGROUP-1
  6
CONTINUOUS
 62
     3
100
AcDbLine
 10
184.462925
 20
195.5
 30
0.0
 11
178.860039
 21
195.5
 31
0.0
  0
LINE
  5
1D7
330
1F
100
AcDbEntity
  8
LAYERGROUP-1
  6
CONTINUOUS
 62
     3
100
AcDbLine
 10
184.962925
 20
196.0
 30
0.0
 11
184.962925
 21
224.0
 31
0.0
  0
LINE
  5
1D8
330
1F
100
AcDbEntity
  8
LAYERGROUP-1
  6
CONTINUOUS
 62
     3
100
AcDbLine
 10
184.262925
 20
200.0
 30
0.0
 11
168.462925
 21
200.0
 31
0.0
  0
LINE
  5
1D9
330
1F
100
AcDbEntity
  8
LAYERGROUP-1
  6
CONTINUOUS
 62
     3
100
AcDbLine
 10
184.262925
 20
220.0
 30
0.0
 11
168.462925
 21
220.0
 31
0.0
  0
ARC
  5
1DA
330
1F
100
AcDbEntity
  8
LAYERGROUP-1
  6
CONTINUOUS
 62
     3
100
AcDbCircle
 10
184.262925
 20
199.3
 30
0.0
 40
0.7
100
AcDbArc
 50
0.0
 51
90.0
  0
ARC
  5
1DB
330
1F
100
AcDbEntity
  8
LAYERGROUP-1
  6
CONTINUOUS
 62
     3
100
AcDbCircle
 10
184.262925
 20
220.7
 30
0.0
 40
0.7
100
AcDbArc
 50
270.0
 51
360.0
  0
LINE
  5
1DC
330
1F
100
AcDbEntity
  8
LAYERGROUP-1
  6
CONTINUOUS
 62
     3
100
AcDbLine
 10
184.462925
 20
195.5
 30
0.0
 11
184.962925
 21
196.0
 31
0.0
  0
LINE
  5
1DD
330
1F
100
AcDbEntity
  8
LAYERGROUP-1
  6
CONTINUOUS
 62
     3
100
AcDbLine
 10
184.962925
 20
224.0
 30
0.0
 11
184.462925
 21
224.5
 31
0.0
  0
LINE
  5
1DE
330
1F
100
AcDbEntity
  8
LAYERGROUP-1
  6
CONTINUOUS
 62
     3
100
AcDbLine
 10
167.962925
 20
187.5
 30
0.0
 11
167.962925
 21
232.5
 31
0.0
  0
ARC
  5
1DF
330
1F
100
AcDbEntity
  8
LAYERGROUP-1
  6
CONTINUOUS
 62
     3
100
AcDbCircle
 10
168.462925
 20
199.5
 30
0.0
 40
0.5
100
AcDbArc
 50
90.0
 51
180.0
  0
ARC
  5
1E0
330
1F
100
AcDbEntity
  8
LAYERGROUP-1
  6
CONTINUOUS
 62
     3
100
AcDbCircle
 10
168.462925
 20
220.5
 30
0.0
 40
0.5
100
AcDbArc
 50
180.0
 51
270.0
  0
LINE
  5
1E1
330
1F
100
AcDbEntity
  8
LAYERGROUP-1
  6
CONTINUOUS
 62
     6
100
AcDbLine
 10
166.362925
 20
190.0
 30
0.0
 11
166.362925
 21
230.0
 31
0.0
  0
LINE
  5
1E2
330
1F
100
AcDbEntity
  8
LAYERGROUP-1
  6
CONTINUOUS
 62
     6
100
AcDbLine
 10
146.962925
 20
230.0
 30
0.0
 11
146.962925
 21
190.0
 31
0.0
  0
LINE
  5
1E3
330
1F
100
AcDbEntity
  8
LAYERGROUP-1
  6
CONTINUOUS
 62
     6
100
AcDbLine
 10
148.562925
 20
190.0
 30
0.0
 11
148.562925
 21
230.0
 31
0.0
  0
LINE
  5
1E4
330
1F
100
AcDbEntity
  8
LAYERGROUP-1
  6
CENTER
 62
     6
100
AcDbLine
 10
120.494198
 20
210.0
 30
0.0
 11
192.417284
 21
210.0
 31
0.0
  0
ARC
  5
1E5
330
1F
100
AcDbEntity
  8
LAYERGROUP-1
  6
CONTINUOUS
 62
     3
100
AcDbCircle
 10
176.862925
 20
284.6217
 30
0.0
 40
3.1
100
AcDbArc
 50
309.301966
 51
360.0
  0
ARC
  5
1E6
330
1F
100
AcDbEntity
  8
LAYERGROUP-1
  6
CONTINUOUS
 62
     3
100
AcDbCircle
 10
176.862925
 20
284.6217
 30
0.0
 40
1.5
100
AcDbArc
 50
309.301966
 51
360.0
  0
ARC
  5
1E7
330
1F
100
AcDbEntity
  8
LAYERGROUP-1
  6
CONTINUOUS
 62
     3
100
AcDbCircle
 10
138.062925
 20
284.6217
 30
0.0
 40
1.5
100
AcDbArc
 50
180.0
 51
230.698034
  0
ARC
  5
1E8
330
1F
100
AcDbEntity
  8
LAYERGROUP-1
  6
CONTINUOUS
 62
     3
100
AcDbCircle
 10
138.062925
 20
284.6217
 30
0.0
 40
3.1
100
AcDbArc
 50
180.0
 51
230.698034
  0
TEXT
  5
1E9
330
1F
100
AcDbEntity
  8
}}ﾊﾊGG血CCТ
  6
CONTINUOUS
 62
     7
100
AcDbText
 10
429.0
 20
12.0
 30
0.0
 40
6.0
  1
1W50FALA-C01
 41
0.72103
  7
FX_VECTOR
 72
     5
 11
477.0
 21
12.0
 31
0.0
100
AcDbText
  0
LINE
  5
1EA
330
1F
100
AcDbEntity
  8
GR1-1
  6
CONTINUOUS
 62
     7
100
AcDbLine
 10
352.512927
 20
284.444209
 30
0.0
 11
352.596092
 21
284.835468
 31
0.0
  0
LINE
  5
1EB
330
1F
100
AcDbEntity
  8
GR1-1
  6
CONTINUOUS
 62
     7
100
AcDbLine
 10
352.275715
 20
284.290162
 30
0.0
 11
352.442045
 21
285.07268
 31
0.0
  0
LINE
  5
1EC
330
1F
100
AcDbEntity
  8
GR1-1
  6
CONTINUOUS
 62
     7
100
AcDbLine
 10
352.038504
 20
284.136115
 30
0.0
 11
352.287998
 21
285.309892
 31
0.0
  0
LINE
  5
1ED
330
1F
100
AcDbEntity
  8
GR1-1
  6
CONTINUOUS
 62
     7
100
AcDbLine
 10
351.801292
 20
283.982068
 30
0.0
 11
352.13395
 21
285.547104
 31
0.0
  0
LINE
  5
1EE
330
1F
100
AcDbEntity
  8
GR1-1
  6
CONTINUOUS
 62
     7
100
AcDbLine
 10
351.56408
 20
283.828021
 30
0.0
 11
351.85096
 21
285.177687
 31
0.0
  0
LINE
  5
1EF
330
1F
100
AcDbEntity
  8
GR1-1
  6
CONTINUOUS
 62
     7
100
AcDbLine
 10
351.929455
 20
285.546977
 30
0.0
 11
351.979903
 21
285.784316
 31
0.0
  0
LINE
  5
1F0
330
1F
100
AcDbEntity
  8
GR1-1
  6
CONTINUOUS
 62
     7
100
AcDbLine
 10
351.326868
 20
283.673973
 30
0.0
 11
351.613749
 21
285.02364
 31
0.0
  0
LINE
  5
1F1
330
1F
100
AcDbEntity
  8
GR1-1
  6
CONTINUOUS
 62
     7
100
AcDbLine
 10
351.775408
 20
285.784189
 30
0.0
 11
351.825856
 21
286.021528
 31
0.0
  0
LINE
  5
1F2
330
1F
100
AcDbEntity
  8
GR1-1
  6
CONTINUOUS
 62
     7
100
AcDbLine
 10
351.089656
 20
283.519926
 30
0.0
 11
351.376537
 21
284.869593
 31
0.0
  0
LINE
  5
1F3
330
1F
100
AcDbEntity
  8
GR1-1
  6
CONTINUOUS
 62
     7
100
AcDbLine
 10
351.621361
 20
286.021401
 30
0.0
 11
351.671809
 21
286.25874
 31
0.0
  0
LINE
  5
1F4
330
1F
100
AcDbEntity
  8
GR1-1
  6
CONTINUOUS
 62
     7
100
AcDbLine
 10
350.852444
 20
283.365879
 30
0.0
 11
351.173282
 21
284.875303
 31
0.0
  0
LINE
  5
1F5
330
1F
100
AcDbEntity
  8
GR1-1
  6
CONTINUOUS
 62
     7
100
AcDbLine
 10
351.467314
 20
286.258613
 30
0.0
 11
351.517762
 21
286.495951
 31
0.0
  0
LINE
  5
1F6
330
1F
100
AcDbEntity
  8
GR1-1
  6
CONTINUOUS
 62
     7
100
AcDbLine
 10
350.615232
 20
283.211832
 30
0.0
 11
351.019235
 21
285.112515
 31
0.0
  0
LINE
  5
1F7
330
1F
100
AcDbEntity
  8
GR1-1
  6
CONTINUOUS
 62
     7
100
AcDbLine
 10
351.313267
 20
286.495825
 30
0.0
 11
351.363715
 21
286.733163
 31
0.0
  0
LINE
  5
1F8
330
1F
100
AcDbEntity
  8
GR1-1
  6
CONTINUOUS
 62
     7
100
AcDbLine
 10
350.378021
 20
283.057785
 30
0.0
 11
350.865188
 21
285.349727
 31
0.0
  0
LINE
  5
1F9
330
1F
100
AcDbEntity
  8
GR1-1
  6
CONTINUOUS
 62
     7
100
AcDbLine
 10
351.15922
 20
286.733037
 30
0.0
 11
351.209667
 21
286.970375
 31
0.0
  0
LINE
  5
1FA
330
1F
100
AcDbEntity
  8
GR1-1
  6
CONTINUOUS
 62
     7
100
AcDbLine
 10
350.140809
 20
282.903738
 30
0.0
 11
350.686843
 21
285.472626
 31
0.0
  0
LINE
  5
1FB
330
1F
100
AcDbEntity
  8
GR1-1
  6
CONTINUOUS
 62
     7
100
AcDbLine
 10
351.005172
 20
286.970249
 30
0.0
 11
351.05562
 21
287.207587
 31
0.0
  0
LINE
  5
1FC
330
1F
100
AcDbEntity
  8
GR1-1
  6
CONTINUOUS
 62
     7
100
AcDbLine
 10
349.903597
 20
282.74969
 30
0.0
 11
349.986762
 21
283.140949
 31
0.0
  0
LINE
  5
1FD
330
1F
100
AcDbEntity
  8
GR1-1
  6
CONTINUOUS
 62
     7
100
AcDbLine
 10
350.785691
 20
286.899619
 30
0.0
 11
350.901573
 21
287.444799
 31
0.0
  0
LINE
  5
1FE
330
1F
100
AcDbEntity
  8
GR1-1
  6
CONTINUOUS
 62
     7
100
AcDbLine
 10
349.666385
 20
282.595643
 30
0.0
 11
349.791132
 21
283.182532
 31
0.0
  0
LINE
  5
1FF
330
1F
100
AcDbEntity
  8
GR1-1
  6
CONTINUOUS
 62
     7
100
AcDbLine
 10
350.54848
 20
286.745572
 30
0.0
 11
350.747526
 21
287.682011
 31
0.0
  0
LINE
  5
200
330
1F
100
AcDbEntity
  8
GR1-1
  6
CONTINUOUS
 62
     7
100
AcDbLine
 10
349.429173
 20
282.441596
 30
0.0
 11
349.595502
 21
283.224114
 31
0.0
  0
LINE
  5
201
330
1F
100
AcDbEntity
  8
GR1-1
  6
CONTINUOUS
 62
     7
100
AcDbLine
 10
350.311268
 20
286.591525
 30
0.0
 11
350.399477
 21
287.006518
 31
0.0
  0
LINE
  5
202
330
1F
100
AcDbEntity
  8
GR1-1
  6
CONTINUOUS
 62
     7
100
AcDbLine
 10
350.427149
 20
287.136704
 30
0.0
 11
350.593479
 21
287.919223
 31
0.0
  0
LINE
  5
203
330
1F
100
AcDbEntity
  8
GR1-1
  6
CONTINUOUS
 62
     7
100
AcDbLine
 10
349.191961
 20
282.287549
 30
0.0
 11
349.399873
 21
283.265696
 31
0.0
  0
LINE
  5
204
330
1F
100
AcDbEntity
  8
GR1-1
  6
CONTINUOUS
 62
     7
100
AcDbLine
 10
350.074056
 20
286.437478
 30
0.0
 11
350.162265
 21
286.85247
 31
0.0
  0
LINE
  5
205
330
1F
100
AcDbEntity
  8
GR1-1
  6
CONTINUOUS
 62
     7
100
AcDbLine
 10
350.23152
 20
287.178287
 30
0.0
 11
350.439431
 21
288.156434
 31
0.0
  0
LINE
  5
206
330
1F
100
AcDbEntity
  8
GR1-1
  6
CONTINUOUS
 62
     7
100
AcDbLine
 10
348.954749
 20
282.133502
 30
0.0
 11
349.204243
 21
283.307279
 31
0.0
  0
LINE
  5
207
330
1F
100
AcDbEntity
  8
GR1-1
  6
CONTINUOUS
 62
     7
100
AcDbLine
 10
349.836844
 20
286.28343
 30
0.0
 11
349.925053
 21
286.698423
 31
0.0
  0
LINE
  5
208
330
1F
100
AcDbEntity
  8
GR1-1
  6
CONTINUOUS
 62
     7
100
AcDbLine
 10
350.03589
 20
287.219869
 30
0.0
 11
350.285384
 21
288.393646
 31
0.0
  0
LINE
  5
209
330
1F
100
AcDbEntity
  8
GR1-1
  6
CONTINUOUS
 62
     7
100
AcDbLine
 10
348.717538
 20
281.979454
 30
0.0
 11
349.008614
 21
283.348861
 31
0.0
  0
LINE
  5
20A
330
1F
100
AcDbEntity
  8
GR1-1
  6
CONTINUOUS
 62
     7
100
AcDbLine
 10
349.216526
 20
284.327009
 30
0.0
 11
349.45217
 21
285.435627
 31
0.0
  0
LINE
  5
20B
330
1F
100
AcDbEntity
  8
GR1-1
  6
CONTINUOUS
 62
     7
100
AcDbLine
 10
349.599632
 20
286.129383
 30
0.0
 11
349.687842
 21
286.544376
 31
0.0
  0
LINE
  5
20C
330
1F
100
AcDbEntity
  8
GR1-1
  6
CONTINUOUS
 62
     7
100
AcDbLine
 10
349.840261
 20
287.261451
 30
0.0
 11
350.131337
 21
288.630858
 31
0.0
  0
LINE
  5
20D
330
1F
100
AcDbEntity
  8
GR1-1
  6
CONTINUOUS
 62
     7
100
AcDbLine
 10
348.480326
 20
281.825407
 30
0.0
 11
348.812984
 21
283.390443
 31
0.0
  0
LINE
  5
20E
330
1F
100
AcDbEntity
  8
GR1-1
  6
CONTINUOUS
 62
     7
100
AcDbLine
 10
349.020896
 20
284.368591
 30
0.0
 11
349.215405
 21
285.283681
 31
0.0
  0
LINE
  5
20F
330
1F
100
AcDbEntity
  8
GR1-1
  6
CONTINUOUS
 62
     7
100
AcDbLine
 10
349.36242
 20
285.975336
 30
0.0
 11
349.45063
 21
286.390329
 31
0.0
  0
LINE
  5
210
330
1F
100
AcDbEntity
  8
GR1-1
  6
CONTINUOUS
 62
     7
100
AcDbLine
 10
349.644631
 20
287.303034
 30
0.0
 11
349.97729
 21
288.86807
 31
0.0
  0
LINE
  5
211
330
1F
100
AcDbEntity
  8
GR1-1
  6
CONTINUOUS
 62
     7
100
AcDbLine
 10
348.243114
 20
281.67136
 30
0.0
 11
348.617355
 21
283.432026
 31
0.0
  0
LINE
  5
212
330
1F
100
AcDbEntity
  8
GR1-1
  6
CONTINUOUS
 62
     7
100
AcDbLine
 10
348.825267
 20
284.410173
 30
0.0
 11
348.978193
 21
285.129634
 31
0.0
  0
LINE
  5
213
330
1F
100
AcDbEntity
  8
GR1-1
  6
CONTINUOUS
 62
     7
100
AcDbLine
 10
349.125208
 20
285.821289
 30
0.0
 11
349.24109
 21
286.366469
 31
0.0
  0
LINE
  5
214
330
1F
100
AcDbEntity
  8
GR1-1
  6
CONTINUOUS
 62
     7
100
AcDbLine
 10
349.449002
 20
287.344616
 30
0.0
 11
349.823243
 21
289.105282
 31
0.0
  0
LINE
  5
215
330
1F
100
AcDbEntity
  8
GR1-1
  6
CONTINUOUS
 62
     7
100
AcDbLine
 10
348.005902
 20
281.517313
 30
0.0
 11
348.421725
 21
283.473608
 31
0.0
  0
LINE
  5
216
330
1F
100
AcDbEntity
  8
GR1-1
  6
CONTINUOUS
 62
     7
100
AcDbLine
 10
348.629637
 20
284.451756
 30
0.0
 11
348.787101
 21
285.192565
 31
0.0
  0
LINE
  5
217
330
1F
100
AcDbEntity
  8
GR1-1
  6
CONTINUOUS
 62
     7
100
AcDbLine
 10
348.887997
 20
285.667242
 30
0.0
 11
349.04546
 21
286.408051
 31
0.0
  0
LINE
  5
218
330
1F
100
AcDbEntity
  8
GR1-1
  6
CONTINUOUS
 62
     7
100
AcDbLine
 10
349.253372
 20
287.386198
 30
0.0
 11
349.669196
 21
289.342494
 31
0.0
  0
LINE
  5
219
330
1F
100
AcDbEntity
  8
GR1-1
  6
CONTINUOUS
 62
     7
100
AcDbLine
 10
347.76869
 20
281.363266
 30
0.0
 11
348.226096
 21
283.51519
 31
0.0
  0
LINE
  5
21A
330
1F
100
AcDbEntity
  8
GR1-1
  6
CONTINUOUS
 62
     7
100
AcDbLine
 10
348.434008
 20
284.493338
 30
0.0
 11
348.633054
 21
285.429777
 31
0.0
  0
LINE
  5
21B
330
1F
100
AcDbEntity
  8
GR1-1
  6
CONTINUOUS
 62
     7
100
AcDbLine
 10
348.650785
 20
285.513195
 30
0.0
 11
348.849831
 21
286.449633
 31
0.0
  0
LINE
  5
21C
330
1F
100
AcDbEntity
  8
GR1-1
  6
CONTINUOUS
 62
     7
100
AcDbLine
 10
349.057743
 20
287.427781
 30
0.0
 11
349.515148
 21
289.579706
 31
0.0
  0
LINE
  5
21D
330
1F
100
AcDbEntity
  8
GR1-1
  6
CONTINUOUS
 62
     7
100
AcDbLine
 10
347.596912
 20
281.51706
 30
0.0
 11
348.030466
 21
283.556773
 31
0.0
  0
LINE
  5
21E
330
1F
100
AcDbEntity
  8
GR1-1
  6
CONTINUOUS
 62
     7
100
AcDbLine
 10
348.238378
 20
284.53492
 30
0.0
 11
348.654201
 21
286.491216
 31
0.0
  0
LINE
  5
21F
330
1F
100
AcDbEntity
  8
GR1-1
  6
CONTINUOUS
 62
     7
100
AcDbLine
 10
348.862113
 20
287.469363
 30
0.0
 11
349.295667
 21
289.509076
 31
0.0
  0
LINE
  5
220
330
1F
100
AcDbEntity
  8
GR1-1
  6
CONTINUOUS
 62
     7
100
AcDbLine
 10
347.442865
 20
281.754272
 30
0.0
 11
347.834837
 21
283.598355
 31
0.0
  0
LINE
  5
221
330
1F
100
AcDbEntity
  8
GR1-1
  6
CONTINUOUS
 62
     7
100
AcDbLine
 10
348.042749
 20
284.576503
 30
0.0
 11
348.458572
 21
286.532798
 31
0.0
  0
LINE
  5
222
330
1F
100
AcDbEntity
  8
GR1-1
  6
CONTINUOUS
 62
     7
100
AcDbLine
 10
348.666484
 20
287.510946
 30
0.0
 11
349.058456
 21
289.355029
 31
0.0
  0
LINE
  5
223
330
1F
100
AcDbEntity
  8
GR1-1
  6
CONTINUOUS
 62
     7
100
AcDbLine
 10
347.288818
 20
281.991484
 30
0.0
 11
347.639207
 21
283.639937
 31
0.0
  0
LINE
  5
224
330
1F
100
AcDbEntity
  8
GR1-1
  6
CONTINUOUS
 62
     7
100
AcDbLine
 10
347.847119
 20
284.618085
 30
0.0
 11
348.262942
 21
286.57438
 31
0.0
  0
LINE
  5
225
330
1F
100
AcDbEntity
  8
GR1-1
  6
CONTINUOUS
 62
     7
100
AcDbLine
 10
348.470854
 20
287.552528
 30
0.0
 11
348.821244
 21
289.200982
 31
0.0
  0
LINE
  5
226
330
1F
100
AcDbEntity
  8
GR1-1
  6
CONTINUOUS
 62
     7
100
AcDbLine
 10
347.13477
 20
282.228695
 30
0.0
 11
347.443578
 21
283.68152
 31
0.0
  0
LINE
  5
227
330
1F
100
AcDbEntity
  8
GR1-1
  6
CONTINUOUS
 62
     7
100
AcDbLine
 10
347.651489
 20
284.659667
 30
0.0
 11
348.067313
 21
286.615963
 31
0.0
  0
LINE
  5
228
330
1F
100
AcDbEntity
  8
GR1-1
  6
CONTINUOUS
 62
     7
100
AcDbLine
 10
348.275225
 20
287.59411
 30
0.0
 11
348.584032
 21
289.046935
 31
0.0
  0
LINE
  5
229
330
1F
100
AcDbEntity
  8
GR1-1
  6
CONTINUOUS
 62
     7
100
AcDbLine
 10
346.980723
 20
282.465907
 30
0.0
 11
347.247948
 21
283.723102
 31
0.0
  0
LINE
  5
22A
330
1F
100
AcDbEntity
  8
GR1-1
  6
CONTINUOUS
 62
     7
100
AcDbLine
 10
347.45586
 20
284.70125
 30
0.0
 11
347.871683
 21
286.657545
 31
0.0
  0
LINE
  5
22B
330
1F
100
AcDbEntity
  8
GR1-1
  6
CONTINUOUS
 62
     7
100
AcDbLine
 10
348.079595
 20
287.635693
 30
0.0
 11
348.34682
 21
288.892887
 31
0.0
  0
LINE
  5
22C
330
1F
100
AcDbEntity
  8
GR1-1
  6
CONTINUOUS
 62
     7
100
AcDbLine
 10
346.826676
 20
282.703119
 30
0.0
 11
347.052319
 21
283.764684
 31
0.0
  0
LINE
  5
22D
330
1F
100
AcDbEntity
  8
GR1-1
  6
CONTINUOUS
 62
     7
100
AcDbLine
 10
347.883965
 20
287.677275
 30
0.0
 11
348.109608
 21
288.73884
 31
0.0
  0
LINE
  5
22E
330
1F
100
AcDbEntity
  8
GR1-1
  6
CONTINUOUS
 62
     7
100
AcDbLine
 10
346.672629
 20
282.940331
 30
0.0
 11
346.856689
 21
283.806267
 31
0.0
  0
LINE
  5
22F
330
1F
100
AcDbEntity
  8
GR1-1
  6
CONTINUOUS
 62
     7
100
AcDbLine
 10
347.688336
 20
287.718857
 30
0.0
 11
347.872396
 21
288.584793
 31
0.0
  0
LINE
  5
230
330
1F
100
AcDbEntity
  8
GR1-1
  6
CONTINUOUS
 62
     7
100
AcDbLine
 10
346.518582
 20
283.177543
 30
0.0
 11
346.66106
 21
283.847849
 31
0.0
  0
LINE
  5
231
330
1F
100
AcDbEntity
  8
GR1-1
  6
CONTINUOUS
 62
     7
100
AcDbLine
 10
347.492706
 20
287.76044
 30
0.0
 11
347.635184
 21
288.430746
 31
0.0
  0
LINE
  5
232
330
1F
100
AcDbEntity
  8
GR1-1
  6
CONTINUOUS
 62
     7
100
AcDbLine
 10
346.364535
 20
283.414755
 30
0.0
 11
346.46543
 21
283.889431
 31
0.0
  0
LINE
  5
233
330
1F
100
AcDbEntity
  8
GR1-1
  6
CONTINUOUS
 62
     7
100
AcDbLine
 10
347.297077
 20
287.802022
 30
0.0
 11
347.397973
 21
288.276699
 31
0.0
  0
LINE
  5
234
330
1F
100
AcDbEntity
  8
GR1-1
  6
CONTINUOUS
 62
     7
100
AcDbLine
 10
346.210487
 20
283.651967
 30
0.0
 11
346.269801
 21
283.931014
 31
0.0
  0
LINE
  5
235
330
1F
100
AcDbEntity
  8
GR1-1
  6
CONTINUOUS
 62
     7
100
AcDbLine
 10
347.101447
 20
287.843604
 30
0.0
 11
347.160761
 21
288.122652
 31
0.0
  0
LINE
  5
236
330
1F
100
AcDbEntity
  8
GR1-1
  6
CONTINUOUS
 62
     7
100
AcDbLine
 10
346.05644
 20
283.889178
 30
0.0
 11
346.923549
 21
287.968604
 31
0.0
  0
LINE
  5
237
330
1F
100
AcDbEntity
  8
GR1-1
  6
CONTINUOUS
 62
     7
100
AcDbLine
 10
345.902393
 20
284.12639
 30
0.0
 11
346.686337
 21
287.814557
 31
0.0
  0
LINE
  5
238
330
1F
100
AcDbEntity
  8
GR1-1
  6
CONTINUOUS
 62
     7
100
AcDbLine
 10
345.748346
 20
284.363602
 30
0.0
 11
346.449125
 21
287.66051
 31
0.0
  0
LINE
  5
239
330
1F
100
AcDbEntity
  8
GR1-1
  6
CONTINUOUS
 62
     7
100
AcDbLine
 10
345.594299
 20
284.600814
 30
0.0
 11
346.211913
 21
287.506463
 31
0.0
  0
LINE
  5
23A
330
1F
100
AcDbEntity
  8
GR1-1
  6
CONTINUOUS
 62
     7
100
AcDbLine
 10
345.440251
 20
284.838026
 30
0.0
 11
345.974701
 21
287.352416
 31
0.0
  0
LINE
  5
23B
330
1F
100
AcDbEntity
  8
GR1-1
  6
CONTINUOUS
 62
     7
100
AcDbLine
 10
345.286204
 20
285.075238
 30
0.0
 11
345.73749
 21
287.198368
 31
0.0
  0
LINE
  5
23C
330
1F
100
AcDbEntity
  8
GR1-1
  6
CONTINUOUS
 62
     7
100
AcDbLine
 10
345.132157
 20
285.31245
 30
0.0
 11
345.500278
 21
287.044321
 31
0.0
  0
LINE
  5
23D
330
1F
100
AcDbEntity
  8
GR1-1
  6
CONTINUOUS
 62
     7
100
AcDbLine
 10
344.97811
 20
285.549661
 30
0.0
 11
345.263066
 21
286.890274
 31
0.0
  0
LINE
  5
23E
330
1F
100
AcDbEntity
  8
GR1-1
  6
CONTINUOUS
 62
     7
100
AcDbLine
 10
344.824063
 20
285.786873
 30
0.0
 11
345.025854
 21
286.736227
 31
0.0
  0
LINE
  5
23F
330
1F
100
AcDbEntity
  8
GR1-1
  6
CONTINUOUS
 62
     7
100
AcDbLine
 10
344.670016
 20
286.024085
 30
0.0
 11
344.788642
 21
286.58218
 31
0.0
  0
LINE
  5
240
330
1F
100
AcDbEntity
  8
GR1-1
  6
CONTINUOUS
 62
     7
100
AcDbLine
 10
344.515968
 20
286.261297
 30
0.0
 11
344.55143
 21
286.428132
 31
0.0
  0
TEXT
  5
241
330
1F
100
AcDbEntity
  8
LAYERGROUP-1
  6
CONTINUOUS
 62
     7
100
AcDbText
 10
199.524246
 20
205.5
 30
0.0
 40
4.0
  1
%%c20
 50
90.0
 41
0.84375
  7
FX_VECTOR
 72
     5
 11
199.524246
 21
214.5
 31
0.0
100
AcDbText
  0
LINE
  5
242
330
1F
100
AcDbEntity
  8
LAYERGROUP-1
  6
CONTINUOUS
 62
     7
100
AcDbLine
 10
200.524241
 20
200.0
 30
0.0
 11
200.524241
 21
220.0
 31
0.0
  0
INSERT
  5
243
330
1F
100
AcDbEntity
  8
LAYERGROUP-1
  6
CONTINUOUS
 62
     7
100
AcDbBlockReference
  2
FXTIP_ARROW_S
 10
200.524241
 20
200.0
 30
0.0
 41
4.0
 42
4.0
 50
270.0
  0
INSERT
  5
244
330
1F
100
AcDbEntity
  8
LAYERGROUP-1
  6
CONTINUOUS
 62
     7
100
AcDbBlockReference
  2
FXTIP_ARROW_E
 10
200.524241
 20
220.0
 30
0.0
 41
4.0
 42
4.0
 50
90.0
  0
LINE
  5
245
330
1F
100
AcDbEntity
  8
LAYERGROUP-1
  6
CONTINUOUS
 62
     7
100
AcDbLine
 10
185.262925
 20
200.0
 30
0.0
 11
201.524241
 21
200.0
 31
0.0
  0
LINE
  5
246
330
1F
100
AcDbEntity
  8
LAYERGROUP-1
  6
CONTINUOUS
 62
     7
100
AcDbLine
 10
185.262925
 20
220.0
 30
0.0
 11
201.524241
 21
220.0
 31
0.0
  0
TEXT
  5
247
330
1F
100
AcDbEntity
  8
LAYERGROUP-1
  6
CONTINUOUS
 62
     7
100
AcDbText
 10
210.989563
 20
204.0
 30
0.0
 40
4.0
  1
%%c158
 50
90.0
 41
0.828947
  7
FX_VECTOR
 72
     5
 11
210.989563
 21
216.0
 31
0.0
100
AcDbText
  0
LINE
  5
248
330
1F
100
AcDbEntity
  8
LAYERGROUP-1
  6
CONTINUOUS
 62
     7
100
AcDbLine
 10
211.989552
 20
131.0
 30
0.0
 11
211.989552
 21
289.0
 31
0.0
  0
INSERT
  5
249
330
1F
100
AcDbEntity
  8
LAYERGROUP-1
  6
CONTINUOUS
 62
     7
100
AcDbBlockReference
  2
FXTIP_ARROW_S
 10
211.989552
 20
131.0
 30
0.0
 41
4.0
 42
4.0
 50
270.0
  0
INSERT
  5
24A
330
1F
100
AcDbEntity
  8
LAYERGROUP-1
  6
CONTINUOUS
 62
     7
100
AcDbBlockReference
  2
FXTIP_ARROW_E
 10
211.989552
 20
289.0
 30
0.0
 41
4.0
 42
4.0
 50
90.0
  0
LINE
  5
24B
330
1F
100
AcDbEntity
  8
LAYERGROUP-1
  6
CONTINUOUS
 62
     7
100
AcDbLine
 10
180.962925
 20
131.0
 30
0.0
 11
212.989552
 21
131.0
 31
0.0
  0
LINE
  5
24C
330
1F
100
AcDbEntity
  8
LAYERGROUP-1
  6
CONTINUOUS
 62
     7
100
AcDbLine
 10
180.962925
 20
289.0
 30
0.0
 11
212.989552
 21
289.0
 31
0.0
  0
TEXT
  5
24D
330
1F
100
AcDbEntity
  8
LAYERGROUP-1
  6
CONTINUOUS
 62
     7
100
AcDbText
 10
223.57933
 20
204.0
 30
0.0
 40
4.0
  1
%%c200
 50
90.0
 41
0.828947
  7
FX_VECTOR
 72
     5
 11
223.57933
 21
216.0
 31
0.0
100
AcDbText
  0
LINE
  5
24E
330
1F
100
AcDbEntity
  8
LAYERGROUP-1
  6
CONTINUOUS
 62
     7
100
AcDbLine
 10
224.579324
 20
110.0
 30
0.0
 11
224.579324
 21
310.0
 31
0.0
  0
INSERT
  5
24F
330
1F
100
AcDbEntity
  8
LAYERGROUP-1
  6
CONTINUOUS
 62
     7
100
AcDbBlockReference
  2
FXTIP_ARROW_S
 10
224.579324
 20
110.0
 30
0.0
 41
4.0
 42
4.0
 50
270.0
  0
INSERT
  5
250
330
1F
100
AcDbEntity
  8
LAYERGROUP-1
  6
CONTINUOUS
 62
     7
100
AcDbBlockReference
  2
FXTIP_ARROW_E
 10
224.579324
 20
310.0
 30
0.0
 41
4.0
 42
4.0
 50
90.0
  0
LINE
  5
251
330
1F
100
AcDbEntity
  8
LAYERGROUP-1
  6
CONTINUOUS
 62
     7
100
AcDbLine
 10
158.462925
 20
110.0
 30
0.0
 11
225.579324
 21
110.0
 31
0.0
  0
LINE
  5
252
330
1F
100
AcDbEntity
  8
LAYERGROUP-1
  6
CONTINUOUS
 62
     7
100
AcDbLine
 10
158.462925
 20
310.0
 30
0.0
 11
225.579324
 21
310.0
 31
0.0
  0
TEXT
  5
253
330
1F
100
AcDbEntity
  8
LAYERGROUP-1
  6
CONTINUOUS
 62
     7
100
AcDbText
 10
154.462936
 20
88.317245
 30
0.0
 40
4.0
  1
45
 41
0.851351
  7
FX_VECTOR
 72
     5
 11
160.462936
 21
88.317245
 31
0.0
100
AcDbText
  0
LINE
  5
254
330
1F
100
AcDbEntity
  8
LAYERGROUP-1
  6
CONTINUOUS
 62
     7
100
AcDbLine
 10
134.962925
 20
87.317245
 30
0.0
 11
179.962925
 21
87.317245
 31
0.0
  0
INSERT
  5
255
330
1F
100
AcDbEntity
  8
LAYERGROUP-1
  6
CONTINUOUS
 62
     7
100
AcDbBlockReference
  2
FXTIP_ARROW_S
 10
134.962925
 20
87.317245
 30
0.0
 41
4.0
 42
4.0
 50
180.0
  0
INSERT
  5
256
330
1F
100
AcDbEntity
  8
LAYERGROUP-1
  6
CONTINUOUS
 62
     7
100
AcDbBlockReference
  2
FXTIP_ARROW_E
 10
179.962925
 20
87.317245
 30
0.0
 41
4.0
 42
4.0
 50
360.0
  0
LINE
  5
257
330
1F
100
AcDbEntity
  8
LAYERGROUP-1
  6
CONTINUOUS
 62
     7
100
AcDbLine
 10
134.962925
 20
126.0
 30
0.0
 11
134.962925
 21
86.317245
 31
0.0
  0
LINE
  5
258
330
1F
100
AcDbEntity
  8
LAYERGROUP-1
  6
CONTINUOUS
 62
     7
100
AcDbLine
 10
179.962925
 20
126.0
 30
0.0
 11
179.962925
 21
86.317245
 31
0.0
  0
LINE
  5
259
330
1F
100
AcDbEntity
  8
LAYERGROUP-1
  6
CONTINUOUS
 62
     3
100
AcDbLine
 10
145.962925
 20
186.5
 30
0.0
 11
133.962925
 21
186.5
 31
0.0
  0
LINE
  5
25A
330
1F
100
AcDbEntity
  8
LAYERGROUP-1
  6
CONTINUOUS
 62
     3
100
AcDbLine
 10
132.962925
 20
187.5
 30
0.0
 11
132.962925
 21
195.5
 31
0.0
  0
LINE
  5
25B
330
1F
100
AcDbEntity
  8
LAYERGROUP-1
  6
CONTINUOUS
 62
     3
100
AcDbLine
 10
146.962925
 20
195.5
 30
0.0
 11
143.860039
 21
195.5
 31
0.0
  0
CIRCLE
  5
25C
330
1F
100
AcDbEntity
  8
LAYERGROUP-1
  6
CONTINUOUS
 62
     3
100
AcDbCircle
 10
139.962925
 20
193.25
 30
0.0
 40
4.5
  0
ARC
  5
25D
330
1F
100
AcDbEntity
  8
LAYERGROUP-1
  6
CONTINUOUS
 62
     3
100
AcDbCircle
 10
145.962925
 20
187.5
 30
0.0
 40
1.0
100
AcDbArc
 50
270.0
 51
360.0
  0
ARC
  5
25E
330
1F
100
AcDbEntity
  8
LAYERGROUP-1
  6
CONTINUOUS
 62
     3
100
AcDbCircle
 10
133.962925
 20
187.5
 30
0.0
 40
1.0
100
AcDbArc
 50
180.0
 51
270.0
  0
LINE
  5
25F
330
1F
100
AcDbEntity
  8
LAYERGROUP-1
  6
CONTINUOUS
 62
     3
100
AcDbLine
 10
132.962925
 20
224.5
 30
0.0
 11
132.962925
 21
232.5
 31
0.0
  0
LINE
  5
260
330
1F
100
AcDbEntity
  8
LAYERGROUP-1
  6
CONTINUOUS
 62
     3
100
AcDbLine
 10
146.962925
 20
224.5
 30
0.0
 11
143.860039
 21
224.5
 31
0.0
  0
CIRCLE
  5
261
330
1F
100
AcDbEntity
  8
LAYERGROUP-1
  6
CONTINUOUS
 62
     3
100
AcDbCircle
 10
139.962925
 20
226.75
 30
0.0
 40
4.5
  0
LINE
  5
262
330
1F
100
AcDbEntity
  8
LAYERGROUP-1
  6
CONTINUOUS
 62
     3
100
AcDbLine
 10
145.962925
 20
233.5
 30
0.0
 11
133.962925
 21
233.5
 31
0.0
  0
ARC
  5
263
330
1F
100
AcDbEntity
  8
LAYERGROUP-1
  6
CONTINUOUS
 62
     3
100
AcDbCircle
 10
145.962925
 20
232.5
 30
0.0
 40
1.0
100
AcDbArc
 50
0.0
 51
90.0
  0
ARC
  5
264
330
1F
100
AcDbEntity
  8
LAYERGROUP-1
  6
CONTINUOUS
 62
     3
100
AcDbCircle
 10
133.962925
 20
232.5
 30
0.0
 40
1.0
100
AcDbArc
 50
90.0
 51
180.0
  0
LINE
  5
265
330
1F
100
AcDbEntity
  8
LAYERGROUP-1
  6
CONTINUOUS
 62
     3
100
AcDbLine
 10
145.087925
 20
195.125
 30
0.0
 11
145.712925
 21
195.125
 31
0.0
  0
LINE
  5
266
330
1F
100
AcDbEntity
  8
LAYERGROUP-1
  6
CONTINUOUS
 62
     3
100
AcDbLine
 10
145.712925
 20
195.125
 30
0.0
 11
145.712925
 21
191.625
 31
0.0
  0
LINE
  5
267
330
1F
100
AcDbEntity
  8
LAYERGROUP-1
  6
CONTINUOUS
 62
     3
100
AcDbLine
 10
145.712925
 20
191.625
 30
0.0
 11
145.087925
 21
191.0
 31
0.0
  0
LINE
  5
268
330
1F
100
AcDbEntity
  8
LAYERGROUP-1
  6
CONTINUOUS
 62
     3
100
AcDbLine
 10
145.087925
 20
191.0
 30
0.0
 11
145.087925
 21
190.275
 31
0.0
  0
LINE
  5
269
330
1F
100
AcDbEntity
  8
LAYERGROUP-1
  6
CONTINUOUS
 62
     3
100
AcDbLine
 10
146.337925
 20
190.275
 30
0.0
 11
146.337925
 21
190.6375
 31
0.0
  0
LINE
  5
26A
330
1F
100
AcDbEntity
  8
LAYERGROUP-1
  6
CONTINUOUS
 62
     3
100
AcDbLine
 10
146.337925
 20
190.275
 30
0.0
 11
146.962925
 21
190.275
 31
0.0
  0
LINE
  5
26B
330
1F
100
AcDbEntity
  8
LAYERGROUP-1
  6
CONTINUOUS
 62
     3
100
AcDbLine
 10
143.860039
 20
191.0
 30
0.0
 11
145.087925
 21
191.0
 31
0.0
  0
ARC
  5
26C
330
1F
100
AcDbEntity
  8
LAYERGROUP-1
  6
CONTINUOUS
 62
     3
100
AcDbCircle
 10
145.712925
 20
190.275
 30
0.0
 40
0.625
100
AcDbArc
 50
180.0
 51
360.0
  0
LINE
  5
26D
330
1F
100
AcDbEntity
  8
LAYERGROUP-1
  6
CONTINUOUS
 62
     3
100
AcDbLine
 10
134.837925
 20
195.125
 30
0.0
 11
134.212925
 21
195.125
 31
0.0
  0
LINE
  5
26E
330
1F
100
AcDbEntity
  8
LAYERGROUP-1
  6
CONTINUOUS
 62
     3
100
AcDbLine
 10
134.212925
 20
195.125
 30
0.0
 11
134.212925
 21
191.625
 31
0.0
  0
LINE
  5
26F
330
1F
100
AcDbEntity
  8
LAYERGROUP-1
  6
CONTINUOUS
 62
     3
100
AcDbLine
 10
134.212925
 20
191.625
 30
0.0
 11
134.837925
 21
191.0
 31
0.0
  0
LINE
  5
270
330
1F
100
AcDbEntity
  8
LAYERGROUP-1
  6
CONTINUOUS
 62
     3
100
AcDbLine
 10
134.837925
 20
191.0
 30
0.0
 11
134.837925
 21
190.275
 31
0.0
  0
LINE
  5
271
330
1F
100
AcDbEntity
  8
LAYERGROUP-1
  6
CONTINUOUS
 62
     3
100
AcDbLine
 10
133.587925
 20
190.275
 30
0.0
 11
133.587925
 21
190.6375
 31
0.0
  0
LINE
  5
272
330
1F
100
AcDbEntity
  8
LAYERGROUP-1
  6
CONTINUOUS
 62
     3
100
AcDbLine
 10
133.587925
 20
190.275
 30
0.0
 11
132.962925
 21
190.275
 31
0.0
  0
LINE
  5
273
330
1F
100
AcDbEntity
  8
LAYERGROUP-1
  6
CONTINUOUS
 62
     3
100
AcDbLine
 10
136.06581
 20
191.0
 30
0.0
 11
134.837925
 21
191.0
 31
0.0
  0
ARC
  5
274
330
1F
100
AcDbEntity
  8
LAYERGROUP-1
  6
CONTINUOUS
 62
     3
100
AcDbCircle
 10
134.212925
 20
190.275
 30
0.0
 40
0.625
100
AcDbArc
 50
180.0
 51
360.0
  0
LINE
  5
275
330
1F
100
AcDbEntity
  8
LAYERGROUP-1
  6
CONTINUOUS
 62
     3
100
AcDbLine
 10
145.087925
 20
224.875
 30
0.0
 11
145.712925
 21
224.875
 31
0.0
  0
LINE
  5
276
330
1F
100
AcDbEntity
  8
LAYERGROUP-1
  6
CONTINUOUS
 62
     3
100
AcDbLine
 10
145.712925
 20
224.875
 30
0.0
 11
145.712925
 21
228.375
 31
0.0
  0
LINE
  5
277
330
1F
100
AcDbEntity
  8
LAYERGROUP-1
  6
CONTINUOUS
 62
     3
100
AcDbLine
 10
145.712925
 20
228.375
 30
0.0
 11
145.087925
 21
229.0
 31
0.0
  0
LINE
  5
278
330
1F
100
AcDbEntity
  8
LAYERGROUP-1
  6
CONTINUOUS
 62
     3
100
AcDbLine
 10
145.087925
 20
229.0
 30
0.0
 11
145.087925
 21
229.725
 31
0.0
  0
LINE
  5
279
330
1F
100
AcDbEntity
  8
LAYERGROUP-1
  6
CONTINUOUS
 62
     3
100
AcDbLine
 10
146.337925
 20
229.725
 30
0.0
 11
146.337925
 21
229.3625
 31
0.0
  0
LINE
  5
27A
330
1F
100
AcDbEntity
  8
LAYERGROUP-1
  6
CONTINUOUS
 62
     3
100
AcDbLine
 10
146.337925
 20
229.725
 30
0.0
 11
146.962925
 21
229.725
 31
0.0
  0
LINE
  5
27B
330
1F
100
AcDbEntity
  8
LAYERGROUP-1
  6
CONTINUOUS
 62
     3
100
AcDbLine
 10
143.860039
 20
229.0
 30
0.0
 11
145.087925
 21
229.0
 31
0.0
  0
ARC
  5
27C
330
1F
100
AcDbEntity
  8
LAYERGROUP-1
  6
CONTINUOUS
 62
     3
100
AcDbCircle
 10
145.712925
 20
229.725
 30
0.0
 40
0.625
100
AcDbArc
 50
0.0
 51
180.0
  0
LINE
  5
27D
330
1F
100
AcDbEntity
  8
LAYERGROUP-1
  6
CONTINUOUS
 62
     3
100
AcDbLine
 10
134.837925
 20
224.875
 30
0.0
 11
134.212925
 21
224.875
 31
0.0
  0
LINE
  5
27E
330
1F
100
AcDbEntity
  8
LAYERGROUP-1
  6
CONTINUOUS
 62
     3
100
AcDbLine
 10
134.212925
 20
224.875
 30
0.0
 11
134.212925
 21
228.375
 31
0.0
  0
LINE
  5
27F
330
1F
100
AcDbEntity
  8
LAYERGROUP-1
  6
CONTINUOUS
 62
     3
100
AcDbLine
 10
134.212925
 20
228.375
 30
0.0
 11
134.837925
 21
229.0
 31
0.0
  0
LINE
  5
280
330
1F
100
AcDbEntity
  8
LAYERGROUP-1
  6
CONTINUOUS
 62
     3
100
AcDbLine
 10
134.837925
 20
229.0
 30
0.0
 11
134.837925
 21
229.725
 31
0.0
  0
LINE
  5
281
330
1F
100
AcDbEntity
  8
LAYERGROUP-1
  6
CONTINUOUS
 62
     3
100
AcDbLine
 10
133.587925
 20
229.725
 30
0.0
 11
133.587925
 21
229.3625
 31
0.0
  0
LINE
  5
282
330
1F
100
AcDbEntity
  8
LAYERGROUP-1
  6
CONTINUOUS
 62
     3
100
AcDbLine
 10
133.587925
 20
229.725
 30
0.0
 11
132.962925
 21
229.725
 31
0.0
  0
LINE
  5
283
330
1F
100
AcDbEntity
  8
LAYERGROUP-1
  6
CONTINUOUS
 62
     3
100
AcDbLine
 10
136.06581
 20
229.0
 30
0.0
 11
134.837925
 21
229.0
 31
0.0
  0
ARC
  5
284
330
1F
100
AcDbEntity
  8
LAYERGROUP-1
  6
CONTINUOUS
 62
     3
100
AcDbCircle
 10
134.212925
 20
229.725
 30
0.0
 40
0.625
100
AcDbArc
 50
0.0
 51
180.0
  0
LINE
  5
285
330
1F
100
AcDbEntity
  8
LAYERGROUP-1
  6
CONTINUOUS
 62
     3
100
AcDbLine
 10
168.962925
 20
186.5
 30
0.0
 11
180.962925
 21
186.5
 31
0.0
  0
LINE
  5
286
330
1F
100
AcDbEntity
  8
LAYERGROUP-1
  6
CONTINUOUS
 62
     3
100
AcDbLine
 10
181.962925
 20
187.5
 30
0.0
 11
181.962925
 21
195.5
 31
0.0
  0
LINE
  5
287
330
1F
100
AcDbEntity
  8
LAYERGROUP-1
  6
CONTINUOUS
 62
     3
100
AcDbLine
 10
167.962925
 20
195.5
 30
0.0
 11
171.06581
 21
195.5
 31
0.0
  0
CIRCLE
  5
288
330
1F
100
AcDbEntity
  8
LAYERGROUP-1
  6
CONTINUOUS
 62
     3
100
AcDbCircle
 10
174.962925
 20
193.25
 30
0.0
 40
4.5
  0
ARC
  5
289
330
1F
100
AcDbEntity
  8
LAYERGROUP-1
  6
CONTINUOUS
 62
     3
100
AcDbCircle
 10
168.962925
 20
187.5
 30
0.0
 40
1.0
100
AcDbArc
 50
180.0
 51
270.0
  0
ARC
  5
28A
330
1F
100
AcDbEntity
  8
LAYERGROUP-1
  6
CONTINUOUS
 62
     3
100
AcDbCircle
 10
180.962925
 20
187.5
 30
0.0
 40
1.0
100
AcDbArc
 50
270.0
 51
360.0
  0
LINE
  5
28B
330
1F
100
AcDbEntity
  8
LAYERGROUP-1
  6
CONTINUOUS
 62
     3
100
AcDbLine
 10
181.962925
 20
224.5
 30
0.0
 11
181.962925
 21
232.5
 31
0.0
  0
LINE
  5
28C
330
1F
100
AcDbEntity
  8
LAYERGROUP-1
  6
CONTINUOUS
 62
     3
100
AcDbLine
 10
167.962925
 20
224.5
 30
0.0
 11
171.06581
 21
224.5
 31
0.0
  0
CIRCLE
  5
28D
330
1F
100
AcDbEntity
  8
LAYERGROUP-1
  6
CONTINUOUS
 62
     3
100
AcDbCircle
 10
174.962925
 20
226.75
 30
0.0
 40
4.5
  0
LINE
  5
28E
330
1F
100
AcDbEntity
  8
LAYERGROUP-1
  6
CONTINUOUS
 62
     3
100
AcDbLine
 10
168.962925
 20
233.5
 30
0.0
 11
180.962925
 21
233.5
 31
0.0
  0
ARC
  5
28F
330
1F
100
AcDbEntity
  8
LAYERGROUP-1
  6
CONTINUOUS
 62
     3
100
AcDbCircle
 10
168.962925
 20
232.5
 30
0.0
 40
1.0
100
AcDbArc
 50
90.0
 51
180.0
  0
ARC
  5
290
330
1F
100
AcDbEntity
  8
LAYERGROUP-1
  6
CONTINUOUS
 62
     3
100
AcDbCircle
 10
180.962925
 20
232.5
 30
0.0
 40
1.0
100
AcDbArc
 50
0.0
 51
90.0
  0
LINE
  5
291
330
1F
100
AcDbEntity
  8
LAYERGROUP-1
  6
CONTINUOUS
 62
     3
100
AcDbLine
 10
169.837925
 20
195.125
 30
0.0
 11
169.212925
 21
195.125
 31
0.0
  0
LINE
  5
292
330
1F
100
AcDbEntity
  8
LAYERGROUP-1
  6
CONTINUOUS
 62
     3
100
AcDbLine
 10
169.212925
 20
195.125
 30
0.0
 11
169.212925
 21
191.625
 31
0.0
  0
LINE
  5
293
330
1F
100
AcDbEntity
  8
LAYERGROUP-1
  6
CONTINUOUS
 62
     3
100
AcDbLine
 10
169.212925
 20
191.625
 30
0.0
 11
169.837925
 21
191.0
 31
0.0
  0
LINE
  5
294
330
1F
100
AcDbEntity
  8
LAYERGROUP-1
  6
CONTINUOUS
 62
     3
100
AcDbLine
 10
169.837925
 20
191.0
 30
0.0
 11
169.837925
 21
190.275
 31
0.0
  0
LINE
  5
295
330
1F
100
AcDbEntity
  8
LAYERGROUP-1
  6
CONTINUOUS
 62
     3
100
AcDbLine
 10
168.587925
 20
190.275
 30
0.0
 11
168.587925
 21
190.6375
 31
0.0
  0
LINE
  5
296
330
1F
100
AcDbEntity
  8
LAYERGROUP-1
  6
CONTINUOUS
 62
     3
100
AcDbLine
 10
168.587925
 20
190.275
 30
0.0
 11
167.962925
 21
190.275
 31
0.0
  0
LINE
  5
297
330
1F
100
AcDbEntity
  8
LAYERGROUP-1
  6
CONTINUOUS
 62
     3
100
AcDbLine
 10
171.06581
 20
191.0
 30
0.0
 11
169.837925
 21
191.0
 31
0.0
  0
ARC
  5
298
330
1F
100
AcDbEntity
  8
LAYERGROUP-1
  6
CONTINUOUS
 62
     3
100
AcDbCircle
 10
169.212925
 20
190.275
 30
0.0
 40
0.625
100
AcDbArc
 50
180.0
 51
360.0
  0
LINE
  5
299
330
1F
100
AcDbEntity
  8
LAYERGROUP-1
  6
CONTINUOUS
 62
     3
100
AcDbLine
 10
180.087925
 20
195.125
 30
0.0
 11
180.712925
 21
195.125
 31
0.0
  0
LINE
  5
29A
330
1F
100
AcDbEntity
  8
LAYERGROUP-1
  6
CONTINUOUS
 62
     3
100
AcDbLine
 10
180.712925
 20
195.125
 30
0.0
 11
180.712925
 21
191.625
 31
0.0
  0
LINE
  5
29B
330
1F
100
AcDbEntity
  8
LAYERGROUP-1
  6
CONTINUOUS
 62
     3
100
AcDbLine
 10
180.712925
 20
191.625
 30
0.0
 11
180.087925
 21
191.0
 31
0.0
  0
LINE
  5
29C
330
1F
100
AcDbEntity
  8
LAYERGROUP-1
  6
CONTINUOUS
 62
     3
100
AcDbLine
 10
180.087925
 20
191.0
 30
0.0
 11
180.087925
 21
190.275
 31
0.0
  0
LINE
  5
29D
330
1F
100
AcDbEntity
  8
LAYERGROUP-1
  6
CONTINUOUS
 62
     3
100
AcDbLine
 10
181.337925
 20
190.275
 30
0.0
 11
181.337925
 21
190.6375
 31
0.0
  0
LINE
  5
29E
330
1F
100
AcDbEntity
  8
LAYERGROUP-1
  6
CONTINUOUS
 62
     3
100
AcDbLine
 10
181.337925
 20
190.275
 30
0.0
 11
181.962925
 21
190.275
 31
0.0
  0
LINE
  5
29F
330
1F
100
AcDbEntity
  8
LAYERGROUP-1
  6
CONTINUOUS
 62
     3
100
AcDbLine
 10
178.860039
 20
191.0
 30
0.0
 11
180.087925
 21
191.0
 31
0.0
  0
ARC
  5
2A0
330
1F
100
AcDbEntity
  8
LAYERGROUP-1
  6
CONTINUOUS
 62
     3
100
AcDbCircle
 10
180.712925
 20
190.275
 30
0.0
 40
0.625
100
AcDbArc
 50
180.0
 51
360.0
  0
LINE
  5
2A1
330
1F
100
AcDbEntity
  8
LAYERGROUP-1
  6
CONTINUOUS
 62
     3
100
AcDbLine
 10
169.837925
 20
224.875
 30
0.0
 11
169.212925
 21
224.875
 31
0.0
  0
LINE
  5
2A2
330
1F
100
AcDbEntity
  8
LAYERGROUP-1
  6
CONTINUOUS
 62
     3
100
AcDbLine
 10
169.212925
 20
224.875
 30
0.0
 11
169.212925
 21
228.375
 31
0.0
  0
LINE
  5
2A3
330
1F
100
AcDbEntity
  8
LAYERGROUP-1
  6
CONTINUOUS
 62
     3
100
AcDbLine
 10
169.212925
 20
228.375
 30
0.0
 11
169.837925
 21
229.0
 31
0.0
  0
LINE
  5
2A4
330
1F
100
AcDbEntity
  8
LAYERGROUP-1
  6
CONTINUOUS
 62
     3
100
AcDbLine
 10
169.837925
 20
229.0
 30
0.0
 11
169.837925
 21
229.725
 31
0.0
  0
LINE
  5
2A5
330
1F
100
AcDbEntity
  8
LAYERGROUP-1
  6
CONTINUOUS
 62
     3
100
AcDbLine
 10
168.587925
 20
229.725
 30
0.0
 11
168.587925
 21
229.3625
 31
0.0
  0
LINE
  5
2A6
330
1F
100
AcDbEntity
  8
LAYERGROUP-1
  6
CONTINUOUS
 62
     3
100
AcDbLine
 10
168.587925
 20
229.725
 30
0.0
 11
167.962925
 21
229.725
 31
0.0
  0
LINE
  5
2A7
330
1F
100
AcDbEntity
  8
LAYERGROUP-1
  6
CONTINUOUS
 62
     3
100
AcDbLine
 10
171.06581
 20
229.0
 30
0.0
 11
169.837925
 21
229.0
 31
0.0
  0
ARC
  5
2A8
330
1F
100
AcDbEntity
  8
LAYERGROUP-1
  6
CONTINUOUS
 62
     3
100
AcDbCircle
 10
169.212925
 20
229.725
 30
0.0
 40
0.625
100
AcDbArc
 50
0.0
 51
180.0
  0
LINE
  5
2A9
330
1F
100
AcDbEntity
  8
LAYERGROUP-1
  6
CONTINUOUS
 62
     3
100
AcDbLine
 10
180.087925
 20
224.875
 30
0.0
 11
180.712925
 21
224.875
 31
0.0
  0
LINE
  5
2AA
330
1F
100
AcDbEntity
  8
LAYERGROUP-1
  6
CONTINUOUS
 62
     3
100
AcDbLine
 10
180.712925
 20
224.875
 30
0.0
 11
180.712925
 21
228.375
 31
0.0
  0
LINE
  5
2AB
330
1F
100
AcDbEntity
  8
LAYERGROUP-1
  6
CONTINUOUS
 62
     3
100
AcDbLine
 10
180.712925
 20
228.375
 30
0.0
 11
180.087925
 21
229.0
 31
0.0
  0
LINE
  5
2AC
330
1F
100
AcDbEntity
  8
LAYERGROUP-1
  6
CONTINUOUS
 62
     3
100
AcDbLine
 10
180.087925
 20
229.0
 30
0.0
 11
180.087925
 21
229.725
 31
0.0
  0
LINE
  5
2AD
330
1F
100
AcDbEntity
  8
LAYERGROUP-1
  6
CONTINUOUS
 62
     3
100
AcDbLine
 10
181.337925
 20
229.725
 30
0.0
 11
181.337925
 21
229.3625
 31
0.0
  0
LINE
  5
2AE
330
1F
100
AcDbEntity
  8
LAYERGROUP-1
  6
CONTINUOUS
 62
     3
100
AcDbLine
 10
181.337925
 20
229.725
 30
0.0
 11
181.962925
 21
229.725
 31
0.0
  0
LINE
  5
2AF
330
1F
100
AcDbEntity
  8
LAYERGROUP-1
  6
CONTINUOUS
 62
     3
100
AcDbLine
 10
178.860039
 20
229.0
 30
0.0
 11
180.087925
 21
229.0
 31
0.0
  0
ARC
  5
2B0
330
1F
100
AcDbEntity
  8
LAYERGROUP-1
  6
CONTINUOUS
 62
     3
100
AcDbCircle
 10
180.712925
 20
229.725
 30
0.0
 40
0.625
100
AcDbArc
 50
0.0
 51
180.0
  0
TEXT
  5
2B1
330
1F
100
AcDbEntity
  8
LAYERGROUP-1
  6
CONTINUOUS
 62
     7
100
AcDbText
 10
154.462936
 20
70.554939
 30
0.0
 40
4.0
  1
55
 41
0.851351
  7
FX_VECTOR
 72
     5
 11
160.462936
 21
70.554939
 31
0.0
100
AcDbText
  0
LINE
  5
2B2
330
1F
100
AcDbEntity
  8
LAYERGROUP-1
  6
CONTINUOUS
 62
     7
100
AcDbLine
 10
129.962925
 20
69.554937
 30
0.0
 11
184.962925
 21
69.554937
 31
0.0
  0
INSERT
  5
2B3
330
1F
100
AcDbEntity
  8
LAYERGROUP-1
  6
CONTINUOUS
 62
     7
100
AcDbBlockReference
  2
FXTIP_ARROW_S
 10
129.962925
 20
69.554937
 30
0.0
 41
4.0
 42
4.0
 50
180.0
  0
INSERT
  5
2B4
330
1F
100
AcDbEntity
  8
LAYERGROUP-1
  6
CONTINUOUS
 62
     7
100
AcDbBlockReference
  2
FXTIP_ARROW_E
 10
184.962925
 20
69.554937
 30
0.0
 41
4.0
 42
4.0
 50
360.0
  0
LINE
  5
2B5
330
1F
100
AcDbEntity
  8
LAYERGROUP-1
  6
CONTINUOUS
 62
     7
100
AcDbLine
 10
129.962925
 20
195.0
 30
0.0
 11
129.962925
 21
68.554937
 31
0.0
  0
LINE
  5
2B6
330
1F
100
AcDbEntity
  8
LAYERGROUP-1
  6
CONTINUOUS
 62
     7
100
AcDbLine
 10
184.962925
 20
195.0
 30
0.0
 11
184.962925
 21
68.554937
 31
0.0
  0
LINE
  5
2B7
330
1F
100
AcDbEntity
  8
}}ﾊﾊGG血CCТ
  6
CONTINUOUS
 62
     7
100
AcDbLine
 10
10.0
 20
10.0
 30
0.0
 11
584.0
 21
10.0
 31
0.0
  0
LINE
  5
2B8
330
1F
100
AcDbEntity
  8
}}ﾊﾊGG血CCТ
  6
CONTINUOUS
 62
     7
100
AcDbLine
 10
10.0
 20
10.0
 30
0.0
 11
10.0
 21
410.0
 31
0.0
  0
LINE
  5
2B9
330
1F
100
AcDbEntity
  8
}}ﾊﾊGG血CCТ
  6
CONTINUOUS
 62
     7
100
AcDbLine
 10
10.0
 20
410.0
 30
0.0
 11
584.0
 21
410.0
 31
0.0
  0
LINE
  5
2BA
330
1F
100
AcDbEntity
  8
}}ﾊﾊGG血CCТ
  6
CONTINUOUS
 62
     7
100
AcDbLine
 10
584.0
 20
410.0
 30
0.0
 11
584.0
 21
10.0
 31
0.0
  0
LINE
  5
2BB
330
1F
100
AcDbEntity
  8
}}ﾊﾊGG血CCТ
  6
CONTINUOUS
 62
     7
100
AcDbLine
 10
327.0
 20
10.0
 30
0.0
 11
327.0
 21
20.0
 31
0.0
  0
TEXT
  5
2BC
330
1F
100
AcDbEntity
  8
}}ﾊﾊGG血CCТ
  6
CONTINUOUS
 62
     7
100
AcDbText
 10
311.738831
 20
11.596879
 30
0.0
 40
6.648749
  1
品名
 41
1.083413
  7
FX_VECTOR
 72
     5
 11
323.058371
 21
11.596879
 31
0.0
100
AcDbText
  0
LINE
  5
2BD
330
1F
100
AcDbEntity
  8
}}ﾊﾊGG血CCТ
  6
CONTINUOUS
 62
     7
100
AcDbLine
 10
407.0
 20
20.0
 30
0.0
 11
407.0
 21
10.0
 31
0.0
  0
LINE
  5
2BE
330
1F
100
AcDbEntity
  8
}}ﾊﾊGG血CCТ
  6
CONTINUOUS
 62
     7
100
AcDbLine
 10
307.0
 20
20.0
 30
0.0
 11
584.0
 21
20.0
 31
0.0
  0
TEXT
  5
2BF
330
1F
100
AcDbEntity
  8
}}ﾊﾊGG血CCТ
  6
CONTINUOUS
 62
     7
100
AcDbText
 10
523.225769
 20
11.461285
 30
0.0
 40
6.0
  1
GOLD CASTER
 41
0.719626
  7
FX_VECTOR
 72
     5
 11
567.225769
 21
11.461285
 31
0.0
100
AcDbText
  0
LINE
  5
2C0
330
1F
100
AcDbEntity
  8
}}ﾊﾊGG血CCТ
  6
CONTINUOUS
 62
     7
100
AcDbLine
 10
427.0
 20
10.0
 30
0.0
 11
427.0
 21
20.0
 31
0.0
  0
TEXT
  5
2C1
330
1F
100
AcDbEntity
  8
}}ﾊﾊGG血CCТ
  6
CONTINUOUS
 62
     7
100
AcDbText
 10
411.738831
 20
11.596879
 30
0.0
 40
6.648749
  1
図番
 41
1.083413
  7
FX_VECTOR
 72
     5
 11
423.058371
 21
11.596879
 31
0.0
100
AcDbText
  0
LINE
  5
2C2
330
1F
100
AcDbEntity
  8
}}ﾊﾊGG血CCТ
  6
CONTINUOUS
 62
     7
100
AcDbLine
 10
507.0
 20
20.0
 30
0.0
 11
507.0
 21
10.0
 31
0.0
  0
LINE
  5
2C3
330
1F
100
AcDbEntity
  8
}}ﾊﾊGG血CCТ
  6
CONTINUOUS
 62
     7
100
AcDbLine
 10
307.0
 20
20.0
 30
0.0
 11
307.0
 21
10.0
 31
0.0
  0
LINE
  5
2C4
330
1F
100
AcDbEntity
  8
LAYERGROUP-1
  6
CONTINUOUS
 62
     8
100
AcDbLine
 10
176.670284
 20
233.45
 30
0.0
 11
178.270284
 21
235.05
 31
0.0
  0
LINE
  5
2C5
330
1F
100
AcDbEntity
  8
LAYERGROUP-1
  6
CONTINUOUS
 62
     8
100
AcDbLine
 10
180.362925
 20
237.142641
 30
0.0
 11
181.962925
 21
238.742641
 31
0.0
  0
LINE
  5
2C6
330
1F
100
AcDbEntity
  8
LAYERGROUP-1
  6
CONTINUOUS
 62
     8
100
AcDbLine
 10
172.427643
 20
233.45
 30
0.0
 11
174.027643
 21
235.05
 31
0.0
  0
LINE
  5
2C7
330
1F
100
AcDbEntity
  8
LAYERGROUP-1
  6
CONTINUOUS
 62
     8
100
AcDbLine
 10
180.358709
 20
241.381066
 30
0.0
 11
181.736939
 21
242.759295
 31
0.0
  0
LINE
  5
2C8
330
1F
100
AcDbEntity
  8
LAYERGROUP-1
  6
CONTINUOUS
 62
     8
100
AcDbLine
 10
166.362925
 20
231.627922
 30
0.0
 11
169.785003
 21
235.05
 31
0.0
  0
LINE
  5
2C9
330
1F
100
AcDbEntity
  8
LAYERGROUP-1
  6
CONTINUOUS
 62
     8
100
AcDbLine
 10
179.71319
 20
244.978187
 30
0.0
 11
181.09142
 21
246.356417
 31
0.0
  0
LINE
  5
2CA
330
1F
100
AcDbEntity
  8
LAYERGROUP-1
  6
CONTINUOUS
 62
     8
100
AcDbLine
 10
179.067671
 20
248.575309
 30
0.0
 11
180.445901
 21
249.953539
 31
0.0
  0
LINE
  5
2CB
330
1F
100
AcDbEntity
  8
LAYERGROUP-1
  6
CONTINUOUS
 62
     8
100
AcDbLine
 10
178.422152
 20
252.172431
 30
0.0
 11
179.800382
 21
253.550661
 31
0.0
  0
LINE
  5
2CC
330
1F
100
AcDbEntity
  8
LAYERGROUP-1
  6
CONTINUOUS
 62
     8
100
AcDbLine
 10
177.776633
 20
255.769553
 30
0.0
 11
179.154863
 21
257.147782
 31
0.0
  0
LINE
  5
2CD
330
1F
100
AcDbEntity
  8
LAYERGROUP-1
  6
CONTINUOUS
 62
     8
100
AcDbLine
 10
147.76444
 20
230.0
 30
0.0
 11
148.562925
 21
230.798485
 31
0.0
  0
LINE
  5
2CE
330
1F
100
AcDbEntity
  8
LAYERGROUP-1
  6
CONTINUOUS
 62
     8
100
AcDbLine
 10
177.131114
 20
259.366674
 30
0.0
 11
178.509344
 21
260.744904
 31
0.0
  0
LINE
  5
2CF
330
1F
100
AcDbEntity
  8
LAYERGROUP-1
  6
CONTINUOUS
 62
     8
100
AcDbLine
 10
146.747674
 20
233.225874
 30
0.0
 11
147.879057
 21
234.357258
 31
0.0
  0
LINE
  5
2D0
330
1F
100
AcDbEntity
  8
LAYERGROUP-1
  6
CONTINUOUS
 62
     8
100
AcDbLine
 10
176.485595
 20
262.963796
 30
0.0
 11
177.863825
 21
264.342026
 31
0.0
  0
LINE
  5
2D1
330
1F
100
AcDbEntity
  8
LAYERGROUP-1
  6
CONTINUOUS
 62
     8
100
AcDbLine
 10
142.729159
 20
233.45
 30
0.0
 11
144.329159
 21
235.05
 31
0.0
  0
LINE
  5
2D2
330
1F
100
AcDbEntity
  8
LAYERGROUP-1
  6
CONTINUOUS
 62
     8
100
AcDbLine
 10
175.840076
 20
266.560918
 30
0.0
 11
177.218306
 21
267.939148
 31
0.0
  0
LINE
  5
2D3
330
1F
100
AcDbEntity
  8
LAYERGROUP-1
  6
CONTINUOUS
 62
     8
100
AcDbLine
 10
138.486518
 20
233.45
 30
0.0
 11
140.086518
 21
235.05
 31
0.0
  0
LINE
  5
2D4
330
1F
100
AcDbEntity
  8
LAYERGROUP-1
  6
CONTINUOUS
 62
     8
100
AcDbLine
 10
175.194557
 20
270.15804
 30
0.0
 11
176.572787
 21
271.536269
 31
0.0
  0
LINE
  5
2D5
330
1F
100
AcDbEntity
  8
LAYERGROUP-1
  6
CONTINUOUS
 62
     8
100
AcDbLine
 10
134.607025
 20
233.813148
 30
0.0
 11
135.857948
 21
235.064071
 31
0.0
  0
LINE
  5
2D6
330
1F
100
AcDbEntity
  8
LAYERGROUP-1
  6
CONTINUOUS
 62
     8
100
AcDbLine
 10
174.549039
 20
273.755161
 30
0.0
 11
175.942684
 21
275.148806
 31
0.0
  0
LINE
  5
2D7
330
1F
100
AcDbEntity
  8
LAYERGROUP-1
  6
CONTINUOUS
 62
     8
100
AcDbLine
 10
132.965881
 20
236.414645
 30
0.0
 11
134.562925
 21
238.011688
 31
0.0
  0
LINE
  5
2D8
330
1F
100
AcDbEntity
  8
LAYERGROUP-1
  6
CONTINUOUS
 62
     8
100
AcDbLine
 10
174.48367
 20
277.932434
 30
0.0
 11
178.097695
 21
281.546458
 31
0.0
  0
LINE
  5
2D9
330
1F
100
AcDbEntity
  8
LAYERGROUP-1
  6
CONTINUOUS
 62
     8
100
AcDbLine
 10
178.379604
 20
281.828367
 30
0.0
 11
179.419116
 21
282.867879
 31
0.0
  0
LINE
  5
2DA
330
1F
100
AcDbEntity
  8
LAYERGROUP-1
  6
CONTINUOUS
 62
     8
100
AcDbLine
 10
132.962925
 20
240.654329
 30
0.0
 11
134.759046
 21
242.45045
 31
0.0
  0
LINE
  5
2DB
330
1F
100
AcDbEntity
  8
LAYERGROUP-1
  6
CONTINUOUS
 62
     8
100
AcDbLine
 10
178.362925
 20
286.054329
 30
0.0
 11
179.962925
 21
287.654329
 31
0.0
  0
LINE
  5
2DC
330
1F
100
AcDbEntity
  8
LAYERGROUP-1
  6
CONTINUOUS
 62
     8
100
AcDbLine
 10
133.705846
 20
245.639891
 30
0.0
 11
135.686916
 21
247.620961
 31
0.0
  0
LINE
  5
2DD
330
1F
100
AcDbEntity
  8
LAYERGROUP-1
  6
CONTINUOUS
 62
     8
100
AcDbLine
 10
178.320437
 20
290.254482
 30
0.0
 11
179.535956
 21
291.470001
 31
0.0
  0
LINE
  5
2DE
330
1F
100
AcDbEntity
  8
LAYERGROUP-1
  6
CONTINUOUS
 62
     8
100
AcDbLine
 10
134.633716
 20
250.810402
 30
0.0
 11
136.614787
 21
252.791472
 31
0.0
  0
LINE
  5
2DF
330
1F
100
AcDbEntity
  8
LAYERGROUP-1
  6
CONTINUOUS
 62
     8
100
AcDbLine
 10
175.223314
 20
291.4
 30
0.0
 11
176.823314
 21
293.0
 31
0.0
  0
LINE
  5
2E0
330
1F
100
AcDbEntity
  8
LAYERGROUP-1
  6
CONTINUOUS
 62
     8
100
AcDbLine
 10
135.561587
 20
255.980913
 30
0.0
 11
137.542657
 21
257.961984
 31
0.0
  0
LINE
  5
2E1
330
1F
100
AcDbEntity
  8
LAYERGROUP-1
  6
CONTINUOUS
 62
     8
100
AcDbLine
 10
170.980674
 20
291.4
 30
0.0
 11
172.580674
 21
293.0
 31
0.0
  0
LINE
  5
2E2
330
1F
100
AcDbEntity
  8
LAYERGROUP-1
  6
CONTINUOUS
 62
     8
100
AcDbLine
 10
136.489457
 20
261.151424
 30
0.0
 11
138.470528
 21
263.132495
 31
0.0
  0
LINE
  5
2E3
330
1F
100
AcDbEntity
  8
LAYERGROUP-1
  6
CONTINUOUS
 62
     8
100
AcDbLine
 10
166.738033
 20
291.4
 30
0.0
 11
168.338033
 21
293.0
 31
0.0
  0
LINE
  5
2E4
330
1F
100
AcDbEntity
  8
LAYERGROUP-1
  6
CONTINUOUS
 62
     8
100
AcDbLine
 10
137.417328
 20
266.321935
 30
0.0
 11
139.398398
 21
268.303006
 31
0.0
  0
LINE
  5
2E5
330
1F
100
AcDbEntity
  8
LAYERGROUP-1
  6
CONTINUOUS
 62
     8
100
AcDbLine
 10
162.495392
 20
291.4
 30
0.0
 11
164.095392
 21
293.0
 31
0.0
  0
LINE
  5
2E6
330
1F
100
AcDbEntity
  8
LAYERGROUP-1
  6
CONTINUOUS
 62
     8
100
AcDbLine
 10
138.345198
 20
271.492446
 30
0.0
 11
140.326269
 21
273.473517
 31
0.0
  0
LINE
  5
2E7
330
1F
100
AcDbEntity
  8
LAYERGROUP-1
  6
CONTINUOUS
 62
     8
100
AcDbLine
 10
158.801674
 20
291.948922
 30
0.0
 11
159.973438
 21
293.120687
 31
0.0
  0
LINE
  5
2E8
330
1F
100
AcDbEntity
  8
LAYERGROUP-1
  6
CONTINUOUS
 62
     8
100
AcDbLine
 10
160.495525
 20
293.642774
 30
0.0
 11
161.114337
 21
294.261585
 31
0.0
  0
LINE
  5
2E9
330
1F
100
AcDbEntity
  8
LAYERGROUP-1
  6
CONTINUOUS
 62
     8
100
AcDbLine
 10
139.023043
 20
276.412932
 30
0.0
 11
140.458718
 21
277.848607
 31
0.0
  0
LINE
  5
2EA
330
1F
100
AcDbEntity
  8
LAYERGROUP-1
  6
CONTINUOUS
 62
     8
100
AcDbLine
 10
154.010111
 20
291.4
 30
0.0
 11
159.062925
 21
296.452814
 31
0.0
  0
LINE
  5
2EB
330
1F
100
AcDbEntity
  8
LAYERGROUP-1
  6
CONTINUOUS
 62
     8
100
AcDbLine
 10
159.136822
 20
296.526711
 30
0.0
 11
160.210502
 21
297.600391
 31
0.0
  0
LINE
  5
2EC
330
1F
100
AcDbEntity
  8
LAYERGROUP-1
  6
CONTINUOUS
 62
     8
100
AcDbLine
 10
138.116377
 20
279.748907
 30
0.0
 11
139.292012
 21
280.924542
 31
0.0
  0
LINE
  5
2ED
330
1F
100
AcDbEntity
  8
LAYERGROUP-1
  6
CONTINUOUS
 62
     8
100
AcDbLine
 10
149.76747
 20
291.4
 30
0.0
 11
151.36747
 21
293.0
 31
0.0
  0
LINE
  5
2EE
330
1F
100
AcDbEntity
  8
LAYERGROUP-1
  6
CONTINUOUS
 62
     8
100
AcDbLine
 10
155.862925
 20
297.495454
 30
0.0
 11
156.86747
 21
298.5
 31
0.0
  0
LINE
  5
2EF
330
1F
100
AcDbEntity
  8
LAYERGROUP-1
  6
CONTINUOUS
 62
     8
100
AcDbLine
 10
136.234536
 20
282.109706
 30
0.0
 11
137.368737
 21
283.243907
 31
0.0
  0
LINE
  5
2F0
330
1F
100
AcDbEntity
  8
LAYERGROUP-1
  6
CONTINUOUS
 62
     8
100
AcDbLine
 10
145.52483
 20
291.4
 30
0.0
 11
147.12483
 21
293.0
 31
0.0
  0
LINE
  5
2F1
330
1F
100
AcDbEntity
  8
LAYERGROUP-1
  6
CONTINUOUS
 62
     8
100
AcDbLine
 10
134.962925
 20
285.080736
 30
0.0
 11
136.562925
 21
286.680736
 31
0.0
  0
LINE
  5
2F2
330
1F
100
AcDbEntity
  8
LAYERGROUP-1
  6
CONTINUOUS
 62
     8
100
AcDbLine
 10
141.282189
 20
291.4
 30
0.0
 11
142.882189
 21
293.0
 31
0.0
  0
LINE
  5
2F3
330
1F
100
AcDbEntity
  8
LAYERGROUP-1
  6
CONTINUOUS
 62
     8
100
AcDbLine
 10
134.962925
 20
289.323376
 30
0.0
 11
138.639548
 21
293.0
 31
0.0
  0
LINE
  5
2F4
330
1F
100
AcDbEntity
  8
LAYERGROUP-1
  6
CONTINUOUS
 62
     8
100
AcDbLine
 10
132.962925
 20
181.257359
 30
0.0
 11
134.562925
 21
182.857359
 31
0.0
  0
LINE
  5
2F5
330
1F
100
AcDbEntity
  8
LAYERGROUP-1
  6
CONTINUOUS
 62
     8
100
AcDbLine
 10
136.655565
 20
184.95
 30
0.0
 11
138.255565
 21
186.55
 31
0.0
  0
LINE
  5
2F6
330
1F
100
AcDbEntity
  8
LAYERGROUP-1
  6
CONTINUOUS
 62
     8
100
AcDbLine
 10
133.775169
 20
177.826963
 30
0.0
 11
134.907631
 21
178.959425
 31
0.0
  0
LINE
  5
2F7
330
1F
100
AcDbEntity
  8
LAYERGROUP-1
  6
CONTINUOUS
 62
     8
100
AcDbLine
 10
140.898206
 20
184.95
 30
0.0
 11
142.498206
 21
186.55
 31
0.0
  0
LINE
  5
2F8
330
1F
100
AcDbEntity
  8
LAYERGROUP-1
  6
CONTINUOUS
 62
     8
100
AcDbLine
 10
135.978278
 20
175.787431
 30
0.0
 11
137.155769
 21
176.964922
 31
0.0
  0
LINE
  5
2F9
330
1F
100
AcDbEntity
  8
LAYERGROUP-1
  6
CONTINUOUS
 62
     8
100
AcDbLine
 10
145.140847
 20
184.95
 30
0.0
 11
148.562925
 21
188.372078
 31
0.0
  0
LINE
  5
2FA
330
1F
100
AcDbEntity
  8
LAYERGROUP-1
  6
CONTINUOUS
 62
     8
100
AcDbLine
 10
136.633432
 20
172.199945
 30
0.0
 11
138.011662
 21
173.578175
 31
0.0
  0
LINE
  5
2FB
330
1F
100
AcDbEntity
  8
LAYERGROUP-1
  6
CONTINUOUS
 62
     8
100
AcDbLine
 10
137.278951
 20
168.602823
 30
0.0
 11
138.657181
 21
169.981053
 31
0.0
  0
LINE
  5
2FC
330
1F
100
AcDbEntity
  8
LAYERGROUP-1
  6
CONTINUOUS
 62
     8
100
AcDbLine
 10
137.92447
 20
165.005702
 30
0.0
 11
139.3027
 21
166.383931
 31
0.0
  0
LINE
  5
2FD
330
1F
100
AcDbEntity
  8
LAYERGROUP-1
  6
CONTINUOUS
 62
     8
100
AcDbLine
 10
138.569989
 20
161.40858
 30
0.0
 11
139.948219
 21
162.786809
 31
0.0
  0
LINE
  5
2FE
330
1F
100
AcDbEntity
  8
LAYERGROUP-1
  6
CONTINUOUS
 62
     8
100
AcDbLine
 10
166.362925
 20
189.201515
 30
0.0
 11
167.16141
 21
190.0
 31
0.0
  0
LINE
  5
2FF
330
1F
100
AcDbEntity
  8
LAYERGROUP-1
  6
CONTINUOUS
 62
     8
100
AcDbLine
 10
139.215508
 20
157.811458
 30
0.0
 11
140.593738
 21
159.189688
 31
0.0
  0
LINE
  5
300
330
1F
100
AcDbEntity
  8
LAYERGROUP-1
  6
CONTINUOUS
 62
     8
100
AcDbLine
 10
167.046792
 20
185.642742
 30
0.0
 11
168.178176
 21
186.774126
 31
0.0
  0
LINE
  5
301
330
1F
100
AcDbEntity
  8
LAYERGROUP-1
  6
CONTINUOUS
 62
     8
100
AcDbLine
 10
139.861027
 20
154.214336
 30
0.0
 11
141.239257
 21
155.592566
 31
0.0
  0
LINE
  5
302
330
1F
100
AcDbEntity
  8
LAYERGROUP-1
  6
CONTINUOUS
 62
     8
100
AcDbLine
 10
170.596691
 20
184.95
 30
0.0
 11
172.196691
 21
186.55
 31
0.0
  0
LINE
  5
303
330
1F
100
AcDbEntity
  8
LAYERGROUP-1
  6
CONTINUOUS
 62
     8
100
AcDbLine
 10
140.506546
 20
150.617215
 30
0.0
 11
141.884776
 21
151.995444
 31
0.0
  0
LINE
  5
304
330
1F
100
AcDbEntity
  8
LAYERGROUP-1
  6
CONTINUOUS
 62
     8
100
AcDbLine
 10
174.839332
 20
184.95
 30
0.0
 11
176.439332
 21
186.55
 31
0.0
  0
LINE
  5
305
330
1F
100
AcDbEntity
  8
LAYERGROUP-1
  6
CONTINUOUS
 62
     8
100
AcDbLine
 10
141.152065
 20
147.020093
 30
0.0
 11
142.530295
 21
148.398323
 31
0.0
  0
LINE
  5
306
330
1F
100
AcDbEntity
  8
LAYERGROUP-1
  6
CONTINUOUS
 62
     8
100
AcDbLine
 10
179.067901
 20
184.935929
 30
0.0
 11
180.318824
 21
186.186852
 31
0.0
  0
LINE
  5
307
330
1F
100
AcDbEntity
  8
LAYERGROUP-1
  6
CONTINUOUS
 62
     8
100
AcDbLine
 10
141.137196
 20
142.762583
 30
0.0
 11
143.01162
 21
144.637007
 31
0.0
  0
LINE
  5
308
330
1F
100
AcDbEntity
  8
LAYERGROUP-1
  6
CONTINUOUS
 62
     8
100
AcDbLine
 10
180.362925
 20
181.988312
 30
0.0
 11
181.959968
 21
183.585355
 31
0.0
  0
LINE
  5
309
330
1F
100
AcDbEntity
  8
LAYERGROUP-1
  6
CONTINUOUS
 62
     8
100
AcDbLine
 10
134.962925
 20
132.345671
 30
0.0
 11
136.562925
 21
133.945671
 31
0.0
  0
LINE
  5
30A
330
1F
100
AcDbEntity
  8
LAYERGROUP-1
  6
CONTINUOUS
 62
     8
100
AcDbLine
 10
177.071381
 20
174.454127
 30
0.0
 11
181.931956
 21
179.314702
 31
0.0
  0
LINE
  5
30B
330
1F
100
AcDbEntity
  8
LAYERGROUP-1
  6
CONTINUOUS
 62
     8
100
AcDbLine
 10
135.526288
 20
128.666393
 30
0.0
 11
136.709169
 21
129.849274
 31
0.0
  0
LINE
  5
30C
330
1F
100
AcDbEntity
  8
LAYERGROUP-1
  6
CONTINUOUS
 62
     8
100
AcDbLine
 10
176.14351
 20
169.283616
 30
0.0
 11
178.124581
 21
171.264686
 31
0.0
  0
LINE
  5
30D
330
1F
100
AcDbEntity
  8
LAYERGROUP-1
  6
CONTINUOUS
 62
     8
100
AcDbLine
 10
138.128806
 20
127.026271
 30
0.0
 11
139.702535
 21
128.6
 31
0.0
  0
LINE
  5
30E
330
1F
100
AcDbEntity
  8
LAYERGROUP-1
  6
CONTINUOUS
 62
     8
100
AcDbLine
 10
175.21564
 20
164.113105
 30
0.0
 11
177.19671
 21
166.094175
 31
0.0
  0
LINE
  5
30F
330
1F
100
AcDbEntity
  8
LAYERGROUP-1
  6
CONTINUOUS
 62
     8
100
AcDbLine
 10
142.345176
 20
127.0
 30
0.0
 11
143.945176
 21
128.6
 31
0.0
  0
LINE
  5
310
330
1F
100
AcDbEntity
  8
LAYERGROUP-1
  6
CONTINUOUS
 62
     8
100
AcDbLine
 10
174.287769
 20
158.942594
 30
0.0
 11
176.26884
 21
160.923664
 31
0.0
  0
LINE
  5
311
330
1F
100
AcDbEntity
  8
LAYERGROUP-1
  6
CONTINUOUS
 62
     8
100
AcDbLine
 10
146.587816
 20
127.0
 30
0.0
 11
148.187816
 21
128.6
 31
0.0
  0
LINE
  5
312
330
1F
100
AcDbEntity
  8
LAYERGROUP-1
  6
CONTINUOUS
 62
     8
100
AcDbLine
 10
173.359899
 20
153.772083
 30
0.0
 11
175.34097
 21
155.753153
 31
0.0
  0
LINE
  5
313
330
1F
100
AcDbEntity
  8
LAYERGROUP-1
  6
CONTINUOUS
 62
     8
100
AcDbLine
 10
150.830457
 20
127.0
 30
0.0
 11
152.430457
 21
128.6
 31
0.0
  0
LINE
  5
314
330
1F
100
AcDbEntity
  8
LAYERGROUP-1
  6
CONTINUOUS
 62
     8
100
AcDbLine
 10
172.432029
 20
148.601571
 30
0.0
 11
174.413099
 21
150.582642
 31
0.0
  0
LINE
  5
315
330
1F
100
AcDbEntity
  8
LAYERGROUP-1
  6
CONTINUOUS
 62
     8
100
AcDbLine
 10
154.952411
 20
126.879313
 30
0.0
 11
156.124175
 21
128.051078
 31
0.0
  0
LINE
  5
316
330
1F
100
AcDbEntity
  8
LAYERGROUP-1
  6
CONTINUOUS
 62
     8
100
AcDbLine
 10
171.960172
 20
143.887074
 30
0.0
 11
173.535476
 21
145.462379
 31
0.0
  0
LINE
  5
317
330
1F
100
AcDbEntity
  8
LAYERGROUP-1
  6
CONTINUOUS
 62
     8
100
AcDbLine
 10
155.875505
 20
123.559767
 30
0.0
 11
160.915738
 21
128.6
 31
0.0
  0
LINE
  5
318
330
1F
100
AcDbEntity
  8
LAYERGROUP-1
  6
CONTINUOUS
 62
     8
100
AcDbLine
 10
172.907361
 20
140.591622
 30
0.0
 11
174.115604
 21
141.799865
 31
0.0
  0
LINE
  5
319
330
1F
100
AcDbEntity
  8
LAYERGROUP-1
  6
CONTINUOUS
 62
     8
100
AcDbLine
 10
158.060654
 20
121.502275
 30
0.0
 11
160.82248
 21
124.264101
 31
0.0
  0
LINE
  5
31A
330
1F
100
AcDbEntity
  8
LAYERGROUP-1
  6
CONTINUOUS
 62
     8
100
AcDbLine
 10
163.558379
 20
127.0
 30
0.0
 11
165.158379
 21
128.6
 31
0.0
  0
LINE
  5
31B
330
1F
100
AcDbEntity
  8
LAYERGROUP-1
  6
CONTINUOUS
 62
     8
100
AcDbLine
 10
174.671421
 20
138.113042
 30
0.0
 11
175.802832
 21
139.244453
 31
0.0
  0
LINE
  5
31C
330
1F
100
AcDbEntity
  8
LAYERGROUP-1
  6
CONTINUOUS
 62
     8
100
AcDbLine
 10
167.80102
 20
127.0
 30
0.0
 11
169.40102
 21
128.6
 31
0.0
  0
LINE
  5
31D
330
1F
100
AcDbEntity
  8
LAYERGROUP-1
  6
CONTINUOUS
 62
     8
100
AcDbLine
 10
177.115488
 20
136.314468
 30
0.0
 11
178.311061
 21
137.510041
 31
0.0
  0
LINE
  5
31E
330
1F
100
AcDbEntity
  8
LAYERGROUP-1
  6
CONTINUOUS
 62
     8
100
AcDbLine
 10
172.043661
 20
127.0
 30
0.0
 11
173.643661
 21
128.6
 31
0.0
  0
LINE
  5
31F
330
1F
100
AcDbEntity
  8
LAYERGROUP-1
  6
CONTINUOUS
 62
     8
100
AcDbLine
 10
178.362925
 20
133.319264
 30
0.0
 11
179.959451
 21
134.91579
 31
0.0
  0
LINE
  5
320
330
1F
100
AcDbEntity
  8
LAYERGROUP-1
  6
CONTINUOUS
 62
     8
100
AcDbLine
 10
176.286301
 20
127.0
 30
0.0
 11
179.962925
 21
130.676624
 31
0.0
  0
LINE
  5
322
330
1F
100
AcDbEntity
  8
0-1
  6
CONTINUOUS
 62
     7
100
AcDbLine
 10
518.8019
 20
17.913462
 30
0.0
 11
512.8019
 21
17.913462
 31
0.0
  0
LINE
  5
323
330
1F
100
AcDbEntity
  8
0-1
  6
CONTINUOUS
 62
     7
100
AcDbLine
 10
512.8019
 20
17.913462
 30
0.0
 11
512.8019
 21
11.913462
 31
0.0
  0
LINE
  5
324
330
1F
100
AcDbEntity
  8
0-1
  6
CONTINUOUS
 62
     7
100
AcDbLine
 10
512.8019
 20
11.913462
 30
0.0
 11
518.8019
 21
11.913462
 31
0.0
  0
LINE
  5
325
330
1F
100
AcDbEntity
  8
0-1
  6
CONTINUOUS
 62
     7
100
AcDbLine
 10
518.8019
 20
11.913462
 30
0.0
 11
518.8019
 21
17.913462
 31
0.0
  0
LINE
  5
326
330
1F
100
AcDbEntity
  8
0-1
  6
CONTINUOUS
 62
     7
100
AcDbLine
 10
518.224977
 20
15.346154
 30
0.0
 11
515.8019
 21
17.769231
 31
0.0
  0
LINE
  5
327
330
1F
100
AcDbEntity
  8
0-1
  6
CONTINUOUS
 62
     7
100
AcDbLine
 10
515.8019
 20
17.769231
 30
0.0
 11
512.946131
 21
14.913462
 31
0.0
  0
LINE
  5
328
330
1F
100
AcDbEntity
  8
0-1
  6
CONTINUOUS
 62
     7
100
AcDbLine
 10
512.946131
 20
14.913462
 30
0.0
 11
515.8019
 21
12.057692
 31
0.0
  0
LINE
  5
329
330
1F
100
AcDbEntity
  8
0-1
  6
CONTINUOUS
 62
     7
100
AcDbLine
 10
515.8019
 20
12.057692
 30
0.0
 11
517.359592
 21
13.615385
 31
0.0
  0
LINE
  5
32A
330
1F
100
AcDbEntity
  8
0-1
  6
CONTINUOUS
 62
     7
100
AcDbLine
 10
517.359592
 20
13.615385
 30
0.0
 11
517.359592
 21
12.980769
 31
0.0
  0
LINE
  5
32B
330
1F
100
AcDbEntity
  8
0-1
  6
CONTINUOUS
 62
     7
100
AcDbLine
 10
517.359592
 20
12.980769
 30
0.0
 11
518.224977
 21
12.980769
 31
0.0
  0
LINE
  5
32C
330
1F
100
AcDbEntity
  8
0-1
  6
CONTINUOUS
 62
     7
100
AcDbLine
 10
518.224977
 20
12.980769
 30
0.0
 11
518.224977
 21
15.0
 31
0.0
  0
LINE
  5
32D
330
1F
100
AcDbEntity
  8
0-1
  6
CONTINUOUS
 62
     7
100
AcDbLine
 10
518.224977
 20
15.0
 30
0.0
 11
515.8019
 21
15.0
 31
0.0
  0
LINE
  5
32E
330
1F
100
AcDbEntity
  8
0-1
  6
CONTINUOUS
 62
     7
100
AcDbLine
 10
515.8019
 20
15.0
 30
0.0
 11
515.8019
 21
14.134615
 31
0.0
  0
LINE
  5
32F
330
1F
100
AcDbEntity
  8
0-1
  6
CONTINUOUS
 62
     7
100
AcDbLine
 10
515.8019
 20
14.134615
 30
0.0
 11
516.246131
 21
14.134615
 31
0.0
  0
LINE
  5
330
330
1F
100
AcDbEntity
  8
0-1
  6
CONTINUOUS
 62
     7
100
AcDbLine
 10
516.246131
 20
14.134615
 30
0.0
 11
515.8019
 21
13.690385
 31
0.0
  0
LINE
  5
331
330
1F
100
AcDbEntity
  8
0-1
  6
CONTINUOUS
 62
     7
100
AcDbLine
 10
515.8019
 20
13.690385
 30
0.0
 11
514.578823
 21
14.913462
 31
0.0
  0
LINE
  5
332
330
1F
100
AcDbEntity
  8
0-1
  6
CONTINUOUS
 62
     7
100
AcDbLine
 10
514.578823
 20
14.913462
 30
0.0
 11
515.8019
 21
16.136538
 31
0.0
  0
LINE
  5
333
330
1F
100
AcDbEntity
  8
0-1
  6
CONTINUOUS
 62
     7
100
AcDbLine
 10
515.8019
 20
16.136538
 30
0.0
 11
516.592284
 21
15.346154
 31
0.0
  0
LINE
  5
334
330
1F
100
AcDbEntity
  8
0-1
  6
CONTINUOUS
 62
     7
100
AcDbLine
 10
516.592284
 20
15.346154
 30
0.0
 11
518.224977
 21
15.346154
 31
0.0
  0
LINE
  5
335
330
1F
100
AcDbEntity
  8
GR1-1
  6
CONTINUOUS
 62
     7
100
AcDbLine
 10
513.72238
 20
11.913462
 30
0.0
 11
514.834255
 21
13.025337
 31
0.0
  0
LINE
  5
336
330
1F
100
AcDbEntity
  8
GR1-1
  6
CONTINUOUS
 62
     7
100
AcDbLine
 10
515.650601
 20
13.841683
 30
0.0
 11
515.943534
 21
14.134615
 31
0.0
  0
LINE
  5
337
330
1F
100
AcDbEntity
  8
GR1-1
  6
CONTINUOUS
 62
     7
100
AcDbLine
 10
516.808918
 20
15.0
 30
0.0
 11
517.155072
 21
15.346154
 31
0.0
  0
LINE
  5
338
330
1F
100
AcDbEntity
  8
GR1-1
  6
CONTINUOUS
 62
     7
100
AcDbLine
 10
517.690024
 20
15.881106
 30
0.0
 11
518.8019
 21
16.992981
 31
0.0
  0
LINE
  5
339
330
1F
100
AcDbEntity
  8
GR1-1
  6
CONTINUOUS
 62
     7
100
AcDbLine
 10
513.651669
 20
11.913462
 30
0.0
 11
514.7989
 21
13.060692
 31
0.0
  0
LINE
  5
33A
330
1F
100
AcDbEntity
  8
GR1-1
  6
CONTINUOUS
 62
     7
100
AcDbLine
 10
515.615246
 20
13.877038
 30
0.0
 11
515.872823
 21
14.134615
 31
0.0
  0
LINE
  5
33B
330
1F
100
AcDbEntity
  8
GR1-1
  6
CONTINUOUS
 62
     7
100
AcDbLine
 10
516.738208
 20
15.0
 30
0.0
 11
517.084362
 21
15.346154
 31
0.0
  0
LINE
  5
33C
330
1F
100
AcDbEntity
  8
GR1-1
  6
CONTINUOUS
 62
     7
100
AcDbLine
 10
517.654669
 20
15.916461
 30
0.0
 11
518.8019
 21
17.063692
 31
0.0
  0
LINE
  5
33D
330
1F
100
AcDbEntity
  8
GR1-1
  6
CONTINUOUS
 62
     7
100
AcDbLine
 10
513.580959
 20
11.913462
 30
0.0
 11
514.763545
 21
13.096047
 31
0.0
  0
LINE
  5
33E
330
1F
100
AcDbEntity
  8
GR1-1
  6
CONTINUOUS
 62
     7
100
AcDbLine
 10
515.579891
 20
13.912394
 30
0.0
 11
515.802112
 21
14.134615
 31
0.0
  0
LINE
  5
33F
330
1F
100
AcDbEntity
  8
GR1-1
  6
CONTINUOUS
 62
     7
100
AcDbLine
 10
516.667497
 20
15.0
 30
0.0
 11
517.013651
 21
15.346154
 31
0.0
  0
LINE
  5
340
330
1F
100
AcDbEntity
  8
GR1-1
  6
CONTINUOUS
 62
     7
100
AcDbLine
 10
517.619314
 20
15.951817
 30
0.0
 11
518.8019
 21
17.134403
 31
0.0
  0
LINE
  5
341
330
1F
100
AcDbEntity
  8
GR1-1
  6
CONTINUOUS
 62
     7
100
AcDbLine
 10
513.510248
 20
11.913462
 30
0.0
 11
514.728189
 21
13.131403
 31
0.0
  0
LINE
  5
342
330
1F
100
AcDbEntity
  8
GR1-1
  6
CONTINUOUS
 62
     7
100
AcDbLine
 10
515.544535
 20
13.947749
 30
0.0
 11
515.8019
 21
14.205113
 31
0.0
  0
LINE
  5
343
330
1F
100
AcDbEntity
  8
GR1-1
  6
CONTINUOUS
 62
     7
100
AcDbLine
 10
516.596786
 20
15.0
 30
0.0
 11
516.94294
 21
15.346154
 31
0.0
  0
LINE
  5
344
330
1F
100
AcDbEntity
  8
GR1-1
  6
CONTINUOUS
 62
     7
100
AcDbLine
 10
517.583958
 20
15.987172
 30
0.0
 11
518.8019
 21
17.205113
 31
0.0
  0
LINE
  5
345
330
1F
100
AcDbEntity
  8
GR1-1
  6
CONTINUOUS
 62
     7
100
AcDbLine
 10
513.439537
 20
11.913462
 30
0.0
 11
514.692834
 21
13.166758
 31
0.0
  0
LINE
  5
346
330
1F
100
AcDbEntity
  8
GR1-1
  6
CONTINUOUS
 62
     7
100
AcDbLine
 10
515.50918
 20
13.983104
 30
0.0
 11
515.8019
 21
14.275824
 31
0.0
  0
LINE
  5
347
330
1F
100
AcDbEntity
  8
GR1-1
  6
CONTINUOUS
 62
     7
100
AcDbLine
 10
516.526076
 20
15.0
 30
0.0
 11
516.87223
 21
15.346154
 31
0.0
  0
LINE
  5
348
330
1F
100
AcDbEntity
  8
GR1-1
  6
CONTINUOUS
 62
     7
100
AcDbLine
 10
517.548603
 20
16.022527
 30
0.0
 11
518.8019
 21
17.275824
 31
0.0
  0
LINE
  5
349
330
1F
100
AcDbEntity
  8
GR1-1
  6
CONTINUOUS
 62
     7
100
AcDbLine
 10
513.368827
 20
11.913462
 30
0.0
 11
514.657479
 21
13.202114
 31
0.0
  0
LINE
  5
34A
330
1F
100
AcDbEntity
  8
GR1-1
  6
CONTINUOUS
 62
     7
100
AcDbLine
 10
515.473825
 20
14.01846
 30
0.0
 11
515.8019
 21
14.346535
 31
0.0
  0
LINE
  5
34B
330
1F
100
AcDbEntity
  8
GR1-1
  6
CONTINUOUS
 62
     7
100
AcDbLine
 10
516.455365
 20
15.0
 30
0.0
 11
516.801519
 21
15.346154
 31
0.0
  0
LINE
  5
34C
330
1F
100
AcDbEntity
  8
GR1-1
  6
CONTINUOUS
 62
     7
100
AcDbLine
 10
517.513248
 20
16.057883
 30
0.0
 11
518.8019
 21
17.346535
 31
0.0
  0
LINE
  5
34D
330
1F
100
AcDbEntity
  8
GR1-1
  6
CONTINUOUS
 62
     7
100
AcDbLine
 10
513.298116
 20
11.913462
 30
0.0
 11
514.622123
 21
13.237469
 31
0.0
  0
LINE
  5
34E
330
1F
100
AcDbEntity
  8
GR1-1
  6
CONTINUOUS
 62
     7
100
AcDbLine
 10
515.438469
 20
14.053815
 30
0.0
 11
515.8019
 21
14.417245
 31
0.0
  0
LINE
  5
34F
330
1F
100
AcDbEntity
  8
GR1-1
  6
CONTINUOUS
 62
     7
100
AcDbLine
 10
516.384654
 20
15.0
 30
0.0
 11
516.730808
 21
15.346154
 31
0.0
  0
LINE
  5
350
330
1F
100
AcDbEntity
  8
GR1-1
  6
CONTINUOUS
 62
     7
100
AcDbLine
 10
517.477892
 20
16.093238
 30
0.0
 11
518.8019
 21
17.417245
 31
0.0
  0
LINE
  5
351
330
1F
100
AcDbEntity
  8
GR1-1
  6
CONTINUOUS
 62
     7
100
AcDbLine
 10
513.227405
 20
11.913462
 30
0.0
 11
514.586768
 21
13.272824
 31
0.0
  0
LINE
  5
352
330
1F
100
AcDbEntity
  8
GR1-1
  6
CONTINUOUS
 62
     7
100
AcDbLine
 10
515.403114
 20
14.08917
 30
0.0
 11
515.8019
 21
14.487956
 31
0.0
  0
LINE
  5
353
330
1F
100
AcDbEntity
  8
GR1-1
  6
CONTINUOUS
 62
     7
100
AcDbLine
 10
516.313944
 20
15.0
 30
0.0
 11
516.660097
 21
15.346154
 31
0.0
  0
LINE
  5
354
330
1F
100
AcDbEntity
  8
GR1-1
  6
CONTINUOUS
 62
     7
100
AcDbLine
 10
517.442537
 20
16.128593
 30
0.0
 11
518.8019
 21
17.487956
 31
0.0
  0
LINE
  5
355
330
1F
100
AcDbEntity
  8
GR1-1
  6
CONTINUOUS
 62
     7
100
AcDbLine
 10
513.156695
 20
11.913462
 30
0.0
 11
514.551413
 21
13.30818
 31
0.0
  0
LINE
  5
356
330
1F
100
AcDbEntity
  8
GR1-1
  6
CONTINUOUS
 62
     7
100
AcDbLine
 10
515.367759
 20
14.124526
 30
0.0
 11
515.8019
 21
14.558667
 31
0.0
  0
LINE
  5
357
330
1F
100
AcDbEntity
  8
GR1-1
  6
CONTINUOUS
 62
     7
100
AcDbLine
 10
516.243233
 20
15.0
 30
0.0
 11
516.590836
 21
15.347603
 31
0.0
  0
LINE
  5
358
330
1F
100
AcDbEntity
  8
GR1-1
  6
CONTINUOUS
 62
     7
100
AcDbLine
 10
517.407182
 20
16.163949
 30
0.0
 11
518.8019
 21
17.558667
 31
0.0
  0
LINE
  5
359
330
1F
100
AcDbEntity
  8
GR1-1
  6
CONTINUOUS
 62
     7
100
AcDbLine
 10
513.085984
 20
11.913462
 30
0.0
 11
514.516057
 21
13.343535
 31
0.0
  0
LINE
  5
35A
330
1F
100
AcDbEntity
  8
GR1-1
  6
CONTINUOUS
 62
     7
100
AcDbLine
 10
515.332403
 20
14.159881
 30
0.0
 11
515.8019
 21
14.629377
 31
0.0
  0
LINE
  5
35B
330
1F
100
AcDbEntity
  8
GR1-1
  6
CONTINUOUS
 62
     7
100
AcDbLine
 10
516.172522
 20
15.0
 30
0.0
 11
516.55548
 21
15.382958
 31
0.0
  0
LINE
  5
35C
330
1F
100
AcDbEntity
  8
GR1-1
  6
CONTINUOUS
 62
     7
100
AcDbLine
 10
517.371826
 20
16.199304
 30
0.0
 11
518.8019
 21
17.629377
 31
0.0
  0
LINE
  5
35D
330
1F
100
AcDbEntity
  8
GR1-1
  6
CONTINUOUS
 62
     7
100
AcDbLine
 10
513.015273
 20
11.913462
 30
0.0
 11
514.480702
 21
13.37889
 31
0.0
  0
LINE
  5
35E
330
1F
100
AcDbEntity
  8
GR1-1
  6
CONTINUOUS
 62
     7
100
AcDbLine
 10
515.297048
 20
14.195236
 30
0.0
 11
515.8019
 21
14.700088
 31
0.0
  0
LINE
  5
35F
330
1F
100
AcDbEntity
  8
GR1-1
  6
CONTINUOUS
 62
     7
100
AcDbLine
 10
516.101812
 20
15.0
 30
0.0
 11
516.520125
 21
15.418313
 31
0.0
  0
LINE
  5
360
330
1F
100
AcDbEntity
  8
GR1-1
  6
CONTINUOUS
 62
     7
100
AcDbLine
 10
517.336471
 20
16.234659
 30
0.0
 11
518.8019
 21
17.700088
 31
0.0
  0
LINE
  5
361
330
1F
100
AcDbEntity
  8
GR1-1
  6
CONTINUOUS
 62
     7
100
AcDbLine
 10
512.944563
 20
11.913462
 30
0.0
 11
514.445347
 21
13.414246
 31
0.0
  0
LINE
  5
362
330
1F
100
AcDbEntity
  8
GR1-1
  6
CONTINUOUS
 62
     7
100
AcDbLine
 10
515.261693
 20
14.230592
 30
0.0
 11
515.8019
 21
14.770799
 31
0.0
  0
LINE
  5
363
330
1F
100
AcDbEntity
  8
GR1-1
  6
CONTINUOUS
 62
     7
100
AcDbLine
 10
516.031101
 20
15.0
 30
0.0
 11
516.48477
 21
15.453669
 31
0.0
  0
LINE
  5
364
330
1F
100
AcDbEntity
  8
GR1-1
  6
CONTINUOUS
 62
     7
100
AcDbLine
 10
517.301116
 20
16.270015
 30
0.0
 11
518.8019
 21
17.770799
 31
0.0
  0
LINE
  5
365
330
1F
100
AcDbEntity
  8
GR1-1
  6
CONTINUOUS
 62
     7
100
AcDbLine
 10
512.873852
 20
11.913462
 30
0.0
 11
514.409991
 21
13.449601
 31
0.0
  0
LINE
  5
366
330
1F
100
AcDbEntity
  8
GR1-1
  6
CONTINUOUS
 62
     7
100
AcDbLine
 10
515.226337
 20
14.265947
 30
0.0
 11
515.8019
 21
14.841509
 31
0.0
  0
LINE
  5
367
330
1F
100
AcDbEntity
  8
GR1-1
  6
CONTINUOUS
 62
     7
100
AcDbLine
 10
515.96039
 20
15.0
 30
0.0
 11
516.449414
 21
15.489024
 31
0.0
  0
LINE
  5
368
330
1F
100
AcDbEntity
  8
GR1-1
  6
CONTINUOUS
 62
     7
100
AcDbLine
 10
517.26576
 20
16.30537
 30
0.0
 11
518.8019
 21
17.841509
 31
0.0
  0
LINE
  5
369
330
1F
100
AcDbEntity
  8
GR1-1
  6
CONTINUOUS
 62
     7
100
AcDbLine
 10
512.803141
 20
11.913462
 30
0.0
 11
514.374636
 21
13.484956
 31
0.0
  0
LINE
  5
36A
330
1F
100
AcDbEntity
  8
GR1-1
  6
CONTINUOUS
 62
     7
100
AcDbLine
 10
515.190982
 20
14.301302
 30
0.0
 11
515.8019
 21
14.91222
 31
0.0
  0
LINE
  5
36B
330
1F
100
AcDbEntity
  8
GR1-1
  6
CONTINUOUS
 62
     7
100
AcDbLine
 10
515.88968
 20
15.0
 30
0.0
 11
516.414059
 21
15.524379
 31
0.0
  0
LINE
  5
36C
330
1F
100
AcDbEntity
  8
GR1-1
  6
CONTINUOUS
 62
     7
100
AcDbLine
 10
517.230405
 20
16.340725
 30
0.0
 11
518.8019
 21
17.91222
 31
0.0
  0
LINE
  5
36D
330
1F
100
AcDbEntity
  8
GR1-1
  6
CONTINUOUS
 62
     7
100
AcDbLine
 10
512.8019
 20
11.982931
 30
0.0
 11
514.339281
 21
13.520312
 31
0.0
  0
LINE
  5
36E
330
1F
100
AcDbEntity
  8
GR1-1
  6
CONTINUOUS
 62
     7
100
AcDbLine
 10
515.155627
 20
14.336658
 30
0.0
 11
515.8019
 21
14.982931
 31
0.0
  0
LINE
  5
36F
330
1F
100
AcDbEntity
  8
GR1-1
  6
CONTINUOUS
 62
     7
100
AcDbLine
 10
515.818969
 20
15.0
 30
0.0
 11
516.378704
 21
15.559735
 31
0.0
  0
LINE
  5
370
330
1F
100
AcDbEntity
  8
GR1-1
  6
CONTINUOUS
 62
     7
100
AcDbLine
 10
517.19505
 20
16.376081
 30
0.0
 11
518.73243
 21
17.913462
 31
0.0
  0
LINE
  5
371
330
1F
100
AcDbEntity
  8
GR1-1
  6
CONTINUOUS
 62
     7
100
AcDbLine
 10
512.8019
 20
12.053642
 30
0.0
 11
514.303925
 21
13.555667
 31
0.0
  0
LINE
  5
372
330
1F
100
AcDbEntity
  8
GR1-1
  6
CONTINUOUS
 62
     7
100
AcDbLine
 10
515.120271
 20
14.372013
 30
0.0
 11
516.343348
 21
15.59509
 31
0.0
  0
LINE
  5
373
330
1F
100
AcDbEntity
  8
GR1-1
  6
CONTINUOUS
 62
     7
100
AcDbLine
 10
517.159694
 20
16.411436
 30
0.0
 11
518.66172
 21
17.913462
 31
0.0
  0
LINE
  5
374
330
1F
100
AcDbEntity
  8
GR1-1
  6
CONTINUOUS
 62
     7
100
AcDbLine
 10
512.8019
 20
12.124352
 30
0.0
 11
514.26857
 21
13.591022
 31
0.0
  0
LINE
  5
375
330
1F
100
AcDbEntity
  8
GR1-1
  6
CONTINUOUS
 62
     7
100
AcDbLine
 10
515.084916
 20
14.407368
 30
0.0
 11
516.307993
 21
15.630445
 31
0.0
  0
LINE
  5
376
330
1F
100
AcDbEntity
  8
GR1-1
  6
CONTINUOUS
 62
     7
100
AcDbLine
 10
517.124339
 20
16.446791
 30
0.0
 11
518.591009
 21
17.913462
 31
0.0
  0
LINE
  5
377
330
1F
100
AcDbEntity
  8
GR1-1
  6
CONTINUOUS
 62
     7
100
AcDbLine
 10
512.8019
 20
12.195063
 30
0.0
 11
514.233214
 21
13.626378
 31
0.0
  0
LINE
  5
378
330
1F
100
AcDbEntity
  8
GR1-1
  6
CONTINUOUS
 62
     7
100
AcDbLine
 10
515.049561
 20
14.442724
 30
0.0
 11
516.272638
 21
15.665801
 31
0.0
  0
LINE
  5
379
330
1F
100
AcDbEntity
  8
GR1-1
  6
CONTINUOUS
 62
     7
100
AcDbLine
 10
517.088984
 20
16.482147
 30
0.0
 11
518.520298
 21
17.913462
 31
0.0
  0
LINE
  5
37A
330
1F
100
AcDbEntity
  8
GR1-1
  6
CONTINUOUS
 62
     7
100
AcDbLine
 10
512.8019
 20
12.265774
 30
0.0
 11
514.197859
 21
13.661733
 31
0.0
  0
LINE
  5
37B
330
1F
100
AcDbEntity
  8
GR1-1
  6
CONTINUOUS
 62
     7
100
AcDbLine
 10
515.014205
 20
14.478079
 30
0.0
 11
516.237282
 21
15.701156
 31
0.0
  0
LINE
  5
37C
330
1F
100
AcDbEntity
  8
GR1-1
  6
CONTINUOUS
 62
     7
100
AcDbLine
 10
517.053628
 20
16.517502
 30
0.0
 11
518.449588
 21
17.913462
 31
0.0
  0
LINE
  5
37D
330
1F
100
AcDbEntity
  8
GR1-1
  6
CONTINUOUS
 62
     7
100
AcDbLine
 10
512.8019
 20
12.336484
 30
0.0
 11
514.162504
 21
13.697088
 31
0.0
  0
LINE
  5
37E
330
1F
100
AcDbEntity
  8
GR1-1
  6
CONTINUOUS
 62
     7
100
AcDbLine
 10
514.97885
 20
14.513434
 30
0.0
 11
516.201927
 21
15.736511
 31
0.0
  0
LINE
  5
37F
330
1F
100
AcDbEntity
  8
GR1-1
  6
CONTINUOUS
 62
     7
100
AcDbLine
 10
517.018273
 20
16.552857
 30
0.0
 11
518.378877
 21
17.913462
 31
0.0
  0
LINE
  5
380
330
1F
100
AcDbEntity
  8
GR1-1
  6
CONTINUOUS
 62
     7
100
AcDbLine
 10
512.8019
 20
12.407195
 30
0.0
 11
514.127148
 21
13.732444
 31
0.0
  0
LINE
  5
381
330
1F
100
AcDbEntity
  8
GR1-1
  6
CONTINUOUS
 62
     7
100
AcDbLine
 10
514.943495
 20
14.54879
 30
0.0
 11
516.166572
 21
15.771867
 31
0.0
  0
LINE
  5
382
330
1F
100
AcDbEntity
  8
GR1-1
  6
CONTINUOUS
 62
     7
100
AcDbLine
 10
516.982918
 20
16.588213
 30
0.0
 11
518.308166
 21
17.913462
 31
0.0
  0
LINE
  5
383
330
1F
100
AcDbEntity
  8
GR1-1
  6
CONTINUOUS
 62
     7
100
AcDbLine
 10
512.8019
 20
12.477906
 30
0.0
 11
514.091793
 21
13.767799
 31
0.0
  0
LINE
  5
384
330
1F
100
AcDbEntity
  8
GR1-1
  6
CONTINUOUS
 62
     7
100
AcDbLine
 10
514.908139
 20
14.584145
 30
0.0
 11
516.131216
 21
15.807222
 31
0.0
  0
LINE
  5
385
330
1F
100
AcDbEntity
  8
GR1-1
  6
CONTINUOUS
 62
     7
100
AcDbLine
 10
516.947562
 20
16.623568
 30
0.0
 11
518.237456
 21
17.913462
 31
0.0
  0
LINE
  5
386
330
1F
100
AcDbEntity
  8
GR1-1
  6
CONTINUOUS
 62
     7
100
AcDbLine
 10
512.8019
 20
12.548616
 30
0.0
 11
514.056438
 21
13.803154
 31
0.0
  0
LINE
  5
387
330
1F
100
AcDbEntity
  8
GR1-1
  6
CONTINUOUS
 62
     7
100
AcDbLine
 10
514.872784
 20
14.6195
 30
0.0
 11
516.095861
 21
15.842577
 31
0.0
  0
LINE
  5
388
330
1F
100
AcDbEntity
  8
GR1-1
  6
CONTINUOUS
 62
     7
100
AcDbLine
 10
516.912207
 20
16.658923
 30
0.0
 11
518.166745
 21
17.913462
 31
0.0
  0
LINE
  5
389
330
1F
100
AcDbEntity
  8
GR1-1
  6
CONTINUOUS
 62
     7
100
AcDbLine
 10
512.8019
 20
12.619327
 30
0.0
 11
514.021082
 21
13.83851
 31
0.0
  0
LINE
  5
38A
330
1F
100
AcDbEntity
  8
GR1-1
  6
CONTINUOUS
 62
     7
100
AcDbLine
 10
514.837429
 20
14.654856
 30
0.0
 11
516.060506
 21
15.877933
 31
0.0
  0
LINE
  5
38B
330
1F
100
AcDbEntity
  8
GR1-1
  6
CONTINUOUS
 62
     7
100
AcDbLine
 10
516.876852
 20
16.694279
 30
0.0
 11
518.096034
 21
17.913462
 31
0.0
  0
LINE
  5
38C
330
1F
100
AcDbEntity
  8
GR1-1
  6
CONTINUOUS
 62
     7
100
AcDbLine
 10
512.8019
 20
12.690038
 30
0.0
 11
513.985727
 21
13.873865
 31
0.0
  0
LINE
  5
38D
330
1F
100
AcDbEntity
  8
GR1-1
  6
CONTINUOUS
 62
     7
100
AcDbLine
 10
514.802073
 20
14.690211
 30
0.0
 11
516.02515
 21
15.913288
 31
0.0
  0
LINE
  5
38E
330
1F
100
AcDbEntity
  8
GR1-1
  6
CONTINUOUS
 62
     7
100
AcDbLine
 10
516.841496
 20
16.729634
 30
0.0
 11
518.025324
 21
17.913462
 31
0.0
  0
LINE
  5
38F
330
1F
100
AcDbEntity
  8
GR1-1
  6
CONTINUOUS
 62
     7
100
AcDbLine
 10
512.8019
 20
12.760748
 30
0.0
 11
513.950372
 21
13.90922
 31
0.0
  0
LINE
  5
390
330
1F
100
AcDbEntity
  8
GR1-1
  6
CONTINUOUS
 62
     7
100
AcDbLine
 10
514.766718
 20
14.725566
 30
0.0
 11
515.989795
 21
15.948643
 31
0.0
  0
LINE
  5
391
330
1F
100
AcDbEntity
  8
GR1-1
  6
CONTINUOUS
 62
     7
100
AcDbLine
 10
516.806141
 20
16.76499
 30
0.0
 11
517.954613
 21
17.913462
 31
0.0
  0
LINE
  5
392
330
1F
100
AcDbEntity
  8
GR1-1
  6
CONTINUOUS
 62
     7
100
AcDbLine
 10
512.8019
 20
12.831459
 30
0.0
 11
513.915016
 21
13.944576
 31
0.0
  0
LINE
  5
393
330
1F
100
AcDbEntity
  8
GR1-1
  6
CONTINUOUS
 62
     7
100
AcDbLine
 10
514.731363
 20
14.760922
 30
0.0
 11
515.95444
 21
15.983999
 31
0.0
  0
LINE
  5
394
330
1F
100
AcDbEntity
  8
GR1-1
  6
CONTINUOUS
 62
     7
100
AcDbLine
 10
516.770786
 20
16.800345
 30
0.0
 11
517.883902
 21
17.913462
 31
0.0
  0
LINE
  5
395
330
1F
100
AcDbEntity
  8
GR1-1
  6
CONTINUOUS
 62
     7
100
AcDbLine
 10
512.8019
 20
12.90217
 30
0.0
 11
513.879661
 21
13.979931
 31
0.0
  0
LINE
  5
396
330
1F
100
AcDbEntity
  8
GR1-1
  6
CONTINUOUS
 62
     7
100
AcDbLine
 10
514.696007
 20
14.796277
 30
0.0
 11
515.919084
 21
16.019354
 31
0.0
  0
LINE
  5
397
330
1F
100
AcDbEntity
  8
GR1-1
  6
CONTINUOUS
 62
     7
100
AcDbLine
 10
516.73543
 20
16.8357
 30
0.0
 11
517.813192
 21
17.913462
 31
0.0
  0
LINE
  5
398
330
1F
100
AcDbEntity
  8
GR1-1
  6
CONTINUOUS
 62
     7
100
AcDbLine
 10
512.8019
 20
12.97288
 30
0.0
 11
513.844306
 21
14.015286
 31
0.0
  0
LINE
  5
399
330
1F
100
AcDbEntity
  8
GR1-1
  6
CONTINUOUS
 62
     7
100
AcDbLine
 10
514.660652
 20
14.831632
 30
0.0
 11
515.883729
 21
16.054709
 31
0.0
  0
LINE
  5
39A
330
1F
100
AcDbEntity
  8
GR1-1
  6
CONTINUOUS
 62
     7
100
AcDbLine
 10
516.700075
 20
16.871056
 30
0.0
 11
517.742481
 21
17.913462
 31
0.0
  0
LINE
  5
39B
330
1F
100
AcDbEntity
  8
GR1-1
  6
CONTINUOUS
 62
     7
100
AcDbLine
 10
512.8019
 20
13.043591
 30
0.0
 11
513.80895
 21
14.050642
 31
0.0
  0
LINE
  5
39C
330
1F
100
AcDbEntity
  8
GR1-1
  6
CONTINUOUS
 62
     7
100
AcDbLine
 10
514.625297
 20
14.866988
 30
0.0
 11
515.848373
 21
16.090065
 31
0.0
  0
LINE
  5
39D
330
1F
100
AcDbEntity
  8
GR1-1
  6
CONTINUOUS
 62
     7
100
AcDbLine
 10
516.66472
 20
16.906411
 30
0.0
 11
517.67177
 21
17.913462
 31
0.0
  0
LINE
  5
39E
330
1F
100
AcDbEntity
  8
GR1-1
  6
CONTINUOUS
 62
     7
100
AcDbLine
 10
512.8019
 20
13.114302
 30
0.0
 11
513.773595
 21
14.085997
 31
0.0
  0
LINE
  5
39F
330
1F
100
AcDbEntity
  8
GR1-1
  6
CONTINUOUS
 62
     7
100
AcDbLine
 10
514.589941
 20
14.902343
 30
0.0
 11
515.813018
 21
16.12542
 31
0.0
  0
LINE
  5
3A0
330
1F
100
AcDbEntity
  8
GR1-1
  6
CONTINUOUS
 62
     7
100
AcDbLine
 10
516.629364
 20
16.941766
 30
0.0
 11
517.60106
 21
17.913462
 31
0.0
  0
LINE
  5
3A1
330
1F
100
AcDbEntity
  8
GR1-1
  6
CONTINUOUS
 62
     7
100
AcDbLine
 10
512.8019
 20
13.185012
 30
0.0
 11
513.73824
 21
14.121352
 31
0.0
  0
LINE
  5
3A2
330
1F
100
AcDbEntity
  8
GR1-1
  6
CONTINUOUS
 62
     7
100
AcDbLine
 10
516.594009
 20
16.977122
 30
0.0
 11
517.530349
 21
17.913462
 31
0.0
  0
LINE
  5
3A3
330
1F
100
AcDbEntity
  8
GR1-1
  6
CONTINUOUS
 62
     7
100
AcDbLine
 10
512.8019
 20
13.255723
 30
0.0
 11
513.702884
 21
14.156708
 31
0.0
  0
LINE
  5
3A4
330
1F
100
AcDbEntity
  8
GR1-1
  6
CONTINUOUS
 62
     7
100
AcDbLine
 10
516.558654
 20
17.012477
 30
0.0
 11
517.459638
 21
17.913462
 31
0.0
  0
LINE
  5
3A5
330
1F
100
AcDbEntity
  8
GR1-1
  6
CONTINUOUS
 62
     7
100
AcDbLine
 10
512.8019
 20
13.326434
 30
0.0
 11
513.667529
 21
14.192063
 31
0.0
  0
LINE
  5
3A6
330
1F
100
AcDbEntity
  8
GR1-1
  6
CONTINUOUS
 62
     7
100
AcDbLine
 10
516.523298
 20
17.047832
 30
0.0
 11
517.388928
 21
17.913462
 31
0.0
  0
LINE
  5
3A7
330
1F
100
AcDbEntity
  8
GR1-1
  6
CONTINUOUS
 62
     7
100
AcDbLine
 10
512.8019
 20
13.397144
 30
0.0
 11
513.632174
 21
14.227418
 31
0.0
  0
LINE
  5
3A8
330
1F
100
AcDbEntity
  8
GR1-1
  6
CONTINUOUS
 62
     7
100
AcDbLine
 10
516.487943
 20
17.083188
 30
0.0
 11
517.318217
 21
17.913462
 31
0.0
  0
LINE
  5
3A9
330
1F
100
AcDbEntity
  8
GR1-1
  6
CONTINUOUS
 62
     7
100
AcDbLine
 10
512.8019
 20
13.467855
 30
0.0
 11
513.596818
 21
14.262774
 31
0.0
  0
LINE
  5
3AA
330
1F
100
AcDbEntity
  8
GR1-1
  6
CONTINUOUS
 62
     7
100
AcDbLine
 10
516.452588
 20
17.118543
 30
0.0
 11
517.247506
 21
17.913462
 31
0.0
  0
LINE
  5
3AB
330
1F
100
AcDbEntity
  8
GR1-1
  6
CONTINUOUS
 62
     7
100
AcDbLine
 10
512.8019
 20
13.538566
 30
0.0
 11
513.561463
 21
14.298129
 31
0.0
  0
LINE
  5
3AC
330
1F
100
AcDbEntity
  8
GR1-1
  6
CONTINUOUS
 62
     7
100
AcDbLine
 10
516.417232
 20
17.153898
 30
0.0
 11
517.176796
 21
17.913462
 31
0.0
  0
LINE
  5
3AD
330
1F
100
AcDbEntity
  8
GR1-1
  6
CONTINUOUS
 62
     7
100
AcDbLine
 10
512.8019
 20
13.609276
 30
0.0
 11
513.526108
 21
14.333484
 31
0.0
  0
LINE
  5
3AE
330
1F
100
AcDbEntity
  8
GR1-1
  6
CONTINUOUS
 62
     7
100
AcDbLine
 10
516.381877
 20
17.189254
 30
0.0
 11
517.106085
 21
17.913462
 31
0.0
  0
LINE
  5
3AF
330
1F
100
AcDbEntity
  8
GR1-1
  6
CONTINUOUS
 62
     7
100
AcDbLine
 10
512.8019
 20
13.679987
 30
0.0
 11
513.490752
 21
14.36884
 31
0.0
  0
LINE
  5
3B0
330
1F
100
AcDbEntity
  8
GR1-1
  6
CONTINUOUS
 62
     7
100
AcDbLine
 10
516.346522
 20
17.224609
 30
0.0
 11
517.035374
 21
17.913462
 31
0.0
  0
LINE
  5
3B1
330
1F
100
AcDbEntity
  8
GR1-1
  6
CONTINUOUS
 62
     7
100
AcDbLine
 10
512.8019
 20
13.750698
 30
0.0
 11
513.455397
 21
14.404195
 31
0.0
  0
LINE
  5
3B2
330
1F
100
AcDbEntity
  8
GR1-1
  6
CONTINUOUS
 62
     7
100
AcDbLine
 10
516.311166
 20
17.259964
 30
0.0
 11
516.964664
 21
17.913462
 31
0.0
  0
LINE
  5
3B3
330
1F
100
AcDbEntity
  8
GR1-1
  6
CONTINUOUS
 62
     7
100
AcDbLine
 10
512.8019
 20
13.821408
 30
0.0
 11
513.420042
 21
14.43955
 31
0.0
  0
LINE
  5
3B4
330
1F
100
AcDbEntity
  8
GR1-1
  6
CONTINUOUS
 62
     7
100
AcDbLine
 10
516.275811
 20
17.29532
 30
0.0
 11
516.893953
 21
17.913462
 31
0.0
  0
LINE
  5
3B5
330
1F
100
AcDbEntity
  8
GR1-1
  6
CONTINUOUS
 62
     7
100
AcDbLine
 10
512.8019
 20
13.892119
 30
0.0
 11
513.384686
 21
14.474906
 31
0.0
  0
LINE
  5
3B6
330
1F
100
AcDbEntity
  8
GR1-1
  6
CONTINUOUS
 62
     7
100
AcDbLine
 10
516.240456
 20
17.330675
 30
0.0
 11
516.823242
 21
17.913462
 31
0.0
  0
LINE
  5
3B7
330
1F
100
AcDbEntity
  8
GR1-1
  6
CONTINUOUS
 62
     7
100
AcDbLine
 10
512.8019
 20
13.96283
 30
0.0
 11
513.349331
 21
14.510261
 31
0.0
  0
LINE
  5
3B8
330
1F
100
AcDbEntity
  8
GR1-1
  6
CONTINUOUS
 62
     7
100
AcDbLine
 10
516.2051
 20
17.36603
 30
0.0
 11
516.752531
 21
17.913462
 31
0.0
  0
LINE
  5
3B9
330
1F
100
AcDbEntity
  8
GR1-1
  6
CONTINUOUS
 62
     7
100
AcDbLine
 10
512.8019
 20
14.033541
 30
0.0
 11
513.313976
 21
14.545616
 31
0.0
  0
LINE
  5
3BA
330
1F
100
AcDbEntity
  8
GR1-1
  6
CONTINUOUS
 62
     7
100
AcDbLine
 10
516.169745
 20
17.401386
 30
0.0
 11
516.681821
 21
17.913462
 31
0.0
  0
LINE
  5
3BB
330
1F
100
AcDbEntity
  8
GR1-1
  6
CONTINUOUS
 62
     7
100
AcDbLine
 10
512.8019
 20
14.104251
 30
0.0
 11
513.27862
 21
14.580972
 31
0.0
  0
LINE
  5
3BC
330
1F
100
AcDbEntity
  8
GR1-1
  6
CONTINUOUS
 62
     7
100
AcDbLine
 10
516.13439
 20
17.436741
 30
0.0
 11
516.61111
 21
17.913462
 31
0.0
  0
LINE
  5
3BD
330
1F
100
AcDbEntity
  8
GR1-1
  6
CONTINUOUS
 62
     7
100
AcDbLine
 10
512.8019
 20
14.174962
 30
0.0
 11
513.243265
 21
14.616327
 31
0.0
  0
LINE
  5
3BE
330
1F
100
AcDbEntity
  8
GR1-1
  6
CONTINUOUS
 62
     7
100
AcDbLine
 10
516.099034
 20
17.472096
 30
0.0
 11
516.540399
 21
17.913462
 31
0.0
  0
LINE
  5
3BF
330
1F
100
AcDbEntity
  8
GR1-1
  6
CONTINUOUS
 62
     7
100
AcDbLine
 10
512.8019
 20
14.245673
 30
0.0
 11
513.20791
 21
14.651682
 31
0.0
  0
LINE
  5
3C0
330
1F
100
AcDbEntity
  8
GR1-1
  6
CONTINUOUS
 62
     7
100
AcDbLine
 10
516.063679
 20
17.507452
 30
0.0
 11
516.469689
 21
17.913462
 31
0.0
  0
LINE
  5
3C1
330
1F
100
AcDbEntity
  8
GR1-1
  6
CONTINUOUS
 62
     7
100
AcDbLine
 10
512.8019
 20
14.316383
 30
0.0
 11
513.172554
 21
14.687038
 31
0.0
  0
LINE
  5
3C2
330
1F
100
AcDbEntity
  8
GR1-1
  6
CONTINUOUS
 62
     7
100
AcDbLine
 10
516.028324
 20
17.542807
 30
0.0
 11
516.398978
 21
17.913462
 31
0.0
  0
LINE
  5
3C3
330
1F
100
AcDbEntity
  8
GR1-1
  6
CONTINUOUS
 62
     7
100
AcDbLine
 10
512.8019
 20
14.387094
 30
0.0
 11
513.137199
 21
14.722393
 31
0.0
  0
LINE
  5
3C4
330
1F
100
AcDbEntity
  8
GR1-1
  6
CONTINUOUS
 62
     7
100
AcDbLine
 10
515.992968
 20
17.578162
 30
0.0
 11
516.328267
 21
17.913462
 31
0.0
  0
LINE
  5
3C5
330
1F
100
AcDbEntity
  8
GR1-1
  6
CONTINUOUS
 62
     7
100
AcDbLine
 10
512.8019
 20
14.457805
 30
0.0
 11
513.101844
 21
14.757748
 31
0.0
  0
LINE
  5
3C6
330
1F
100
AcDbEntity
  8
GR1-1
  6
CONTINUOUS
 62
     7
100
AcDbLine
 10
515.957613
 20
17.613518
 30
0.0
 11
516.257557
 21
17.913462
 31
0.0
  0
LINE
  5
3C7
330
1F
100
AcDbEntity
  8
GR1-1
  6
CONTINUOUS
 62
     7
100
AcDbLine
 10
512.8019
 20
14.528515
 30
0.0
 11
513.066488
 21
14.793104
 31
0.0
  0
LINE
  5
3C8
330
1F
100
AcDbEntity
  8
GR1-1
  6
CONTINUOUS
 62
     7
100
AcDbLine
 10
515.922258
 20
17.648873
 30
0.0
 11
516.186846
 21
17.913462
 31
0.0
  0
LINE
  5
3C9
330
1F
100
AcDbEntity
  8
GR1-1
  6
CONTINUOUS
 62
     7
100
AcDbLine
 10
512.8019
 20
14.599226
 30
0.0
 11
513.031133
 21
14.828459
 31
0.0
  0
LINE
  5
3CA
330
1F
100
AcDbEntity
  8
GR1-1
  6
CONTINUOUS
 62
     7
100
AcDbLine
 10
515.886902
 20
17.684228
 30
0.0
 11
516.116135
 21
17.913462
 31
0.0
  0
LINE
  5
3CB
330
1F
100
AcDbEntity
  8
GR1-1
  6
CONTINUOUS
 62
     7
100
AcDbLine
 10
512.8019
 20
14.669937
 30
0.0
 11
512.995778
 21
14.863814
 31
0.0
  0
LINE
  5
3CC
330
1F
100
AcDbEntity
  8
GR1-1
  6
CONTINUOUS
 62
     7
100
AcDbLine
 10
515.851547
 20
17.719584
 30
0.0
 11
516.045425
 21
17.913462
 31
0.0
  0
LINE
  5
3CD
330
1F
100
AcDbEntity
  8
GR1-1
  6
CONTINUOUS
 62
     7
100
AcDbLine
 10
512.8019
 20
14.740647
 30
0.0
 11
512.960422
 21
14.89917
 31
0.0
  0
LINE
  5
3CE
330
1F
100
AcDbEntity
  8
GR1-1
  6
CONTINUOUS
 62
     7
100
AcDbLine
 10
515.816192
 20
17.754939
 30
0.0
 11
515.974714
 21
17.913462
 31
0.0
  0
LINE
  5
3CF
330
1F
100
AcDbEntity
  8
GR1-1
  6
CONTINUOUS
 62
     7
100
AcDbLine
 10
512.8019
 20
14.811358
 30
0.0
 11
515.904003
 21
17.913462
 31
0.0
  0
LINE
  5
3D0
330
1F
100
AcDbEntity
  8
GR1-1
  6
CONTINUOUS
 62
     7
100
AcDbLine
 10
512.8019
 20
14.882069
 30
0.0
 11
515.833293
 21
17.913462
 31
0.0
  0
LINE
  5
3D1
330
1F
100
AcDbEntity
  8
GR1-1
  6
CONTINUOUS
 62
     7
100
AcDbLine
 10
512.8019
 20
14.952779
 30
0.0
 11
515.762582
 21
17.913462
 31
0.0
  0
LINE
  5
3D2
330
1F
100
AcDbEntity
  8
GR1-1
  6
CONTINUOUS
 62
     7
100
AcDbLine
 10
512.8019
 20
15.02349
 30
0.0
 11
515.691871
 21
17.913462
 31
0.0
  0
LINE
  5
3D3
330
1F
100
AcDbEntity
  8
GR1-1
  6
CONTINUOUS
 62
     7
100
AcDbLine
 10
512.8019
 20
15.094201
 30
0.0
 11
515.621161
 21
17.913462
 31
0.0
  0
LINE
  5
3D4
330
1F
100
AcDbEntity
  8
GR1-1
  6
CONTINUOUS
 62
     7
100
AcDbLine
 10
512.8019
 20
15.164911
 30
0.0
 11
515.55045
 21
17.913462
 31
0.0
  0
LINE
  5
3D5
330
1F
100
AcDbEntity
  8
GR1-1
  6
CONTINUOUS
 62
     7
100
AcDbLine
 10
512.8019
 20
15.235622
 30
0.0
 11
515.479739
 21
17.913462
 31
0.0
  0
LINE
  5
3D6
330
1F
100
AcDbEntity
  8
GR1-1
  6
CONTINUOUS
 62
     7
100
AcDbLine
 10
512.8019
 20
15.306333
 30
0.0
 11
515.409029
 21
17.913462
 31
0.0
  0
LINE
  5
3D7
330
1F
100
AcDbEntity
  8
GR1-1
  6
CONTINUOUS
 62
     7
100
AcDbLine
 10
512.8019
 20
15.377043
 30
0.0
 11
515.338318
 21
17.913462
 31
0.0
  0
LINE
  5
3D8
330
1F
100
AcDbEntity
  8
GR1-1
  6
CONTINUOUS
 62
     7
100
AcDbLine
 10
512.8019
 20
15.447754
 30
0.0
 11
515.267607
 21
17.913462
 31
0.0
  0
LINE
  5
3D9
330
1F
100
AcDbEntity
  8
GR1-1
  6
CONTINUOUS
 62
     7
100
AcDbLine
 10
512.8019
 20
15.518465
 30
0.0
 11
515.196897
 21
17.913462
 31
0.0
  0
LINE
  5
3DA
330
1F
100
AcDbEntity
  8
GR1-1
  6
CONTINUOUS
 62
     7
100
AcDbLine
 10
512.8019
 20
15.589175
 30
0.0
 11
515.126186
 21
17.913462
 31
0.0
  0
LINE
  5
3DB
330
1F
100
AcDbEntity
  8
GR1-1
  6
CONTINUOUS
 62
     7
100
AcDbLine
 10
512.8019
 20
15.659886
 30
0.0
 11
515.055475
 21
17.913462
 31
0.0
  0
LINE
  5
3DC
330
1F
100
AcDbEntity
  8
GR1-1
  6
CONTINUOUS
 62
     7
100
AcDbLine
 10
512.8019
 20
15.730597
 30
0.0
 11
514.984765
 21
17.913462
 31
0.0
  0
LINE
  5
3DD
330
1F
100
AcDbEntity
  8
GR1-1
  6
CONTINUOUS
 62
     7
100
AcDbLine
 10
512.8019
 20
15.801307
 30
0.0
 11
514.914054
 21
17.913462
 31
0.0
  0
LINE
  5
3DE
330
1F
100
AcDbEntity
  8
GR1-1
  6
CONTINUOUS
 62
     7
100
AcDbLine
 10
512.8019
 20
15.872018
 30
0.0
 11
514.843343
 21
17.913462
 31
0.0
  0
LINE
  5
3DF
330
1F
100
AcDbEntity
  8
GR1-1
  6
CONTINUOUS
 62
     7
100
AcDbLine
 10
512.8019
 20
15.942729
 30
0.0
 11
514.772632
 21
17.913462
 31
0.0
  0
LINE
  5
3E0
330
1F
100
AcDbEntity
  8
GR1-1
  6
CONTINUOUS
 62
     7
100
AcDbLine
 10
512.8019
 20
16.013439
 30
0.0
 11
514.701922
 21
17.913462
 31
0.0
  0
LINE
  5
3E1
330
1F
100
AcDbEntity
  8
GR1-1
  6
CONTINUOUS
 62
     7
100
AcDbLine
 10
512.8019
 20
16.08415
 30
0.0
 11
514.631211
 21
17.913462
 31
0.0
  0
LINE
  5
3E2
330
1F
100
AcDbEntity
  8
GR1-1
  6
CONTINUOUS
 62
     7
100
AcDbLine
 10
512.8019
 20
16.154861
 30
0.0
 11
514.5605
 21
17.913462
 31
0.0
  0
LINE
  5
3E3
330
1F
100
AcDbEntity
  8
GR1-1
  6
CONTINUOUS
 62
     7
100
AcDbLine
 10
512.8019
 20
16.225572
 30
0.0
 11
514.48979
 21
17.913462
 31
0.0
  0
LINE
  5
3E4
330
1F
100
AcDbEntity
  8
GR1-1
  6
CONTINUOUS
 62
     7
100
AcDbLine
 10
512.8019
 20
16.296282
 30
0.0
 11
514.419079
 21
17.913462
 31
0.0
  0
LINE
  5
3E5
330
1F
100
AcDbEntity
  8
GR1-1
  6
CONTINUOUS
 62
     7
100
AcDbLine
 10
512.8019
 20
16.366993
 30
0.0
 11
514.348368
 21
17.913462
 31
0.0
  0
LINE
  5
3E6
330
1F
100
AcDbEntity
  8
GR1-1
  6
CONTINUOUS
 62
     7
100
AcDbLine
 10
512.8019
 20
16.437704
 30
0.0
 11
514.277658
 21
17.913462
 31
0.0
  0
LINE
  5
3E7
330
1F
100
AcDbEntity
  8
GR1-1
  6
CONTINUOUS
 62
     7
100
AcDbLine
 10
512.8019
 20
16.508414
 30
0.0
 11
514.206947
 21
17.913462
 31
0.0
  0
LINE
  5
3E8
330
1F
100
AcDbEntity
  8
GR1-1
  6
CONTINUOUS
 62
     7
100
AcDbLine
 10
512.8019
 20
16.579125
 30
0.0
 11
514.136236
 21
17.913462
 31
0.0
  0
LINE
  5
3E9
330
1F
100
AcDbEntity
  8
GR1-1
  6
CONTINUOUS
 62
     7
100
AcDbLine
 10
512.8019
 20
16.649836
 30
0.0
 11
514.065526
 21
17.913462
 31
0.0
  0
LINE
  5
3EA
330
1F
100
AcDbEntity
  8
GR1-1
  6
CONTINUOUS
 62
     7
100
AcDbLine
 10
512.8019
 20
16.720546
 30
0.0
 11
513.994815
 21
17.913462
 31
0.0
  0
LINE
  5
3EB
330
1F
100
AcDbEntity
  8
GR1-1
  6
CONTINUOUS
 62
     7
100
AcDbLine
 10
512.8019
 20
16.791257
 30
0.0
 11
513.924104
 21
17.913462
 31
0.0
  0
LINE
  5
3EC
330
1F
100
AcDbEntity
  8
GR1-1
  6
CONTINUOUS
 62
     7
100
AcDbLine
 10
512.8019
 20
16.861968
 30
0.0
 11
513.853394
 21
17.913462
 31
0.0
  0
LINE
  5
3ED
330
1F
100
AcDbEntity
  8
GR1-1
  6
CONTINUOUS
 62
     7
100
AcDbLine
 10
512.8019
 20
16.932678
 30
0.0
 11
513.782683
 21
17.913462
 31
0.0
  0
LINE
  5
3EE
330
1F
100
AcDbEntity
  8
GR1-1
  6
CONTINUOUS
 62
     7
100
AcDbLine
 10
512.8019
 20
17.003389
 30
0.0
 11
513.711972
 21
17.913462
 31
0.0
  0
LINE
  5
3EF
330
1F
100
AcDbEntity
  8
GR1-1
  6
CONTINUOUS
 62
     7
100
AcDbLine
 10
512.8019
 20
17.0741
 30
0.0
 11
513.641262
 21
17.913462
 31
0.0
  0
LINE
  5
3F0
330
1F
100
AcDbEntity
  8
GR1-1
  6
CONTINUOUS
 62
     7
100
AcDbLine
 10
512.8019
 20
17.14481
 30
0.0
 11
513.570551
 21
17.913462
 31
0.0
  0
LINE
  5
3F1
330
1F
100
AcDbEntity
  8
GR1-1
  6
CONTINUOUS
 62
     7
100
AcDbLine
 10
512.8019
 20
17.215521
 30
0.0
 11
513.49984
 21
17.913462
 31
0.0
  0
LINE
  5
3F2
330
1F
100
AcDbEntity
  8
GR1-1
  6
CONTINUOUS
 62
     7
100
AcDbLine
 10
512.8019
 20
17.286232
 30
0.0
 11
513.42913
 21
17.913462
 31
0.0
  0
LINE
  5
3F3
330
1F
100
AcDbEntity
  8
GR1-1
  6
CONTINUOUS
 62
     7
100
AcDbLine
 10
512.8019
 20
17.356942
 30
0.0
 11
513.358419
 21
17.913462
 31
0.0
  0
LINE
  5
3F4
330
1F
100
AcDbEntity
  8
GR1-1
  6
CONTINUOUS
 62
     7
100
AcDbLine
 10
512.8019
 20
17.427653
 30
0.0
 11
513.287708
 21
17.913462
 31
0.0
  0
LINE
  5
3F5
330
1F
100
AcDbEntity
  8
GR1-1
  6
CONTINUOUS
 62
     7
100
AcDbLine
 10
512.8019
 20
17.498364
 30
0.0
 11
513.216998
 21
17.913462
 31
0.0
  0
LINE
  5
3F6
330
1F
100
AcDbEntity
  8
GR1-1
  6
CONTINUOUS
 62
     7
100
AcDbLine
 10
512.8019
 20
17.569074
 30
0.0
 11
513.146287
 21
17.913462
 31
0.0
  0
LINE
  5
3F7
330
1F
100
AcDbEntity
  8
GR1-1
  6
CONTINUOUS
 62
     7
100
AcDbLine
 10
512.8019
 20
17.639785
 30
0.0
 11
513.075576
 21
17.913462
 31
0.0
  0
LINE
  5
3F8
330
1F
100
AcDbEntity
  8
GR1-1
  6
CONTINUOUS
 62
     7
100
AcDbLine
 10
512.8019
 20
17.710496
 30
0.0
 11
513.004866
 21
17.913462
 31
0.0
  0
LINE
  5
3F9
330
1F
100
AcDbEntity
  8
GR1-1
  6
CONTINUOUS
 62
     7
100
AcDbLine
 10
512.8019
 20
17.781206
 30
0.0
 11
512.934155
 21
17.913462
 31
0.0
  0
LINE
  5
3FA
330
1F
100
AcDbEntity
  8
GR1-1
  6
CONTINUOUS
 62
     7
100
AcDbLine
 10
512.8019
 20
17.851917
 30
0.0
 11
512.863444
 21
17.913462
 31
0.0
  0
LINE
  5
3FB
330
1F
100
AcDbEntity
  8
GR1-1
  6
CONTINUOUS
 62
     7
100
AcDbLine
 10
513.793091
 20
11.913462
 30
0.0
 11
514.869611
 21
12.989981
 31
0.0
  0
LINE
  5
3FC
330
1F
100
AcDbEntity
  8
GR1-1
  6
CONTINUOUS
 62
     7
100
AcDbLine
 10
515.685957
 20
13.806328
 30
0.0
 11
516.014245
 21
14.134615
 31
0.0
  0
LINE
  5
3FD
330
1F
100
AcDbEntity
  8
GR1-1
  6
CONTINUOUS
 62
     7
100
AcDbLine
 10
516.879629
 20
15.0
 30
0.0
 11
517.225783
 21
15.346154
 31
0.0
  0
LINE
  5
3FE
330
1F
100
AcDbEntity
  8
GR1-1
  6
CONTINUOUS
 62
     7
100
AcDbLine
 10
517.72538
 20
15.845751
 30
0.0
 11
518.8019
 21
16.922271
 31
0.0
  0
LINE
  5
3FF
330
1F
100
AcDbEntity
  8
GR1-1
  6
CONTINUOUS
 62
     7
100
AcDbLine
 10
513.863801
 20
11.913462
 30
0.0
 11
514.904966
 21
12.954626
 31
0.0
  0
LINE
  5
400
330
1F
100
AcDbEntity
  8
GR1-1
  6
CONTINUOUS
 62
     7
100
AcDbLine
 10
515.721312
 20
13.770972
 30
0.0
 11
516.084955
 21
14.134615
 31
0.0
  0
LINE
  5
401
330
1F
100
AcDbEntity
  8
GR1-1
  6
CONTINUOUS
 62
     7
100
AcDbLine
 10
516.95034
 20
15.0
 30
0.0
 11
517.296494
 21
15.346154
 31
0.0
  0
LINE
  5
402
330
1F
100
AcDbEntity
  8
GR1-1
  6
CONTINUOUS
 62
     7
100
AcDbLine
 10
517.760735
 20
15.810395
 30
0.0
 11
518.8019
 21
16.85156
 31
0.0
  0
LINE
  5
403
330
1F
100
AcDbEntity
  8
GR1-1
  6
CONTINUOUS
 62
     7
100
AcDbLine
 10
513.934512
 20
11.913462
 30
0.0
 11
514.940321
 21
12.919271
 31
0.0
  0
LINE
  5
404
330
1F
100
AcDbEntity
  8
GR1-1
  6
CONTINUOUS
 62
     7
100
AcDbLine
 10
515.756667
 20
13.735617
 30
0.0
 11
516.155666
 21
14.134615
 31
0.0
  0
LINE
  5
405
330
1F
100
AcDbEntity
  8
GR1-1
  6
CONTINUOUS
 62
     7
100
AcDbLine
 10
517.02105
 20
15.0
 30
0.0
 11
517.367204
 21
15.346154
 31
0.0
  0
LINE
  5
406
330
1F
100
AcDbEntity
  8
GR1-1
  6
CONTINUOUS
 62
     7
100
AcDbLine
 10
517.79609
 20
15.77504
 30
0.0
 11
518.8019
 21
16.780849
 31
0.0
  0
LINE
  5
407
330
1F
100
AcDbEntity
  8
GR1-1
  6
CONTINUOUS
 62
     7
100
AcDbLine
 10
514.005223
 20
11.913462
 30
0.0
 11
514.975677
 21
12.883915
 31
0.0
  0
LINE
  5
408
330
1F
100
AcDbEntity
  8
GR1-1
  6
CONTINUOUS
 62
     7
100
AcDbLine
 10
515.792023
 20
13.700262
 30
0.0
 11
516.226377
 21
14.134615
 31
0.0
  0
LINE
  5
409
330
1F
100
AcDbEntity
  8
GR1-1
  6
CONTINUOUS
 62
     7
100
AcDbLine
 10
517.091761
 20
15.0
 30
0.0
 11
517.437915
 21
15.346154
 31
0.0
  0
LINE
  5
40A
330
1F
100
AcDbEntity
  8
GR1-1
  6
CONTINUOUS
 62
     7
100
AcDbLine
 10
517.831446
 20
15.739685
 30
0.0
 11
518.8019
 21
16.710139
 31
0.0
  0
LINE
  5
40B
330
1F
100
AcDbEntity
  8
GR1-1
  6
CONTINUOUS
 62
     7
100
AcDbLine
 10
514.075933
 20
11.913462
 30
0.0
 11
515.011032
 21
12.84856
 31
0.0
  0
LINE
  5
40C
330
1F
100
AcDbEntity
  8
GR1-1
  6
CONTINUOUS
 62
     7
100
AcDbLine
 10
517.162472
 20
15.0
 30
0.0
 11
517.508626
 21
15.346154
 31
0.0
  0
LINE
  5
40D
330
1F
100
AcDbEntity
  8
GR1-1
  6
CONTINUOUS
 62
     7
100
AcDbLine
 10
517.866801
 20
15.704329
 30
0.0
 11
518.8019
 21
16.639428
 31
0.0
  0
LINE
  5
40E
330
1F
100
AcDbEntity
  8
GR1-1
  6
CONTINUOUS
 62
     7
100
AcDbLine
 10
514.146644
 20
11.913462
 30
0.0
 11
515.046387
 21
12.813205
 31
0.0
  0
LINE
  5
40F
330
1F
100
AcDbEntity
  8
GR1-1
  6
CONTINUOUS
 62
     7
100
AcDbLine
 10
517.233183
 20
15.0
 30
0.0
 11
517.579336
 21
15.346154
 31
0.0
  0
LINE
  5
410
330
1F
100
AcDbEntity
  8
GR1-1
  6
CONTINUOUS
 62
     7
100
AcDbLine
 10
517.902157
 20
15.668974
 30
0.0
 11
518.8019
 21
16.568717
 31
0.0
  0
LINE
  5
411
330
1F
100
AcDbEntity
  8
GR1-1
  6
CONTINUOUS
 62
     7
100
AcDbLine
 10
514.217355
 20
11.913462
 30
0.0
 11
515.081743
 21
12.777849
 31
0.0
  0
LINE
  5
412
330
1F
100
AcDbEntity
  8
GR1-1
  6
CONTINUOUS
 62
     7
100
AcDbLine
 10
517.303893
 20
15.0
 30
0.0
 11
517.650047
 21
15.346154
 31
0.0
  0
LINE
  5
413
330
1F
100
AcDbEntity
  8
GR1-1
  6
CONTINUOUS
 62
     7
100
AcDbLine
 10
517.937512
 20
15.633619
 30
0.0
 11
518.8019
 21
16.498007
 31
0.0
  0
LINE
  5
414
330
1F
100
AcDbEntity
  8
GR1-1
  6
CONTINUOUS
 62
     7
100
AcDbLine
 10
514.288065
 20
11.913462
 30
0.0
 11
515.117098
 21
12.742494
 31
0.0
  0
LINE
  5
415
330
1F
100
AcDbEntity
  8
GR1-1
  6
CONTINUOUS
 62
     7
100
AcDbLine
 10
517.374604
 20
15.0
 30
0.0
 11
517.720758
 21
15.346154
 31
0.0
  0
LINE
  5
416
330
1F
100
AcDbEntity
  8
GR1-1
  6
CONTINUOUS
 62
     7
100
AcDbLine
 10
517.972867
 20
15.598263
 30
0.0
 11
518.8019
 21
16.427296
 31
0.0
  0
LINE
  5
417
330
1F
100
AcDbEntity
  8
GR1-1
  6
CONTINUOUS
 62
     7
100
AcDbLine
 10
514.358776
 20
11.913462
 30
0.0
 11
515.152453
 21
12.707139
 31
0.0
  0
LINE
  5
418
330
1F
100
AcDbEntity
  8
GR1-1
  6
CONTINUOUS
 62
     7
100
AcDbLine
 10
517.445315
 20
15.0
 30
0.0
 11
517.791468
 21
15.346154
 31
0.0
  0
LINE
  5
419
330
1F
100
AcDbEntity
  8
GR1-1
  6
CONTINUOUS
 62
     7
100
AcDbLine
 10
518.008223
 20
15.562908
 30
0.0
 11
518.8019
 21
16.356585
 31
0.0
  0
LINE
  5
41A
330
1F
100
AcDbEntity
  8
GR1-1
  6
CONTINUOUS
 62
     7
100
AcDbLine
 10
514.429487
 20
11.913462
 30
0.0
 11
515.187809
 21
12.671783
 31
0.0
  0
LINE
  5
41B
330
1F
100
AcDbEntity
  8
GR1-1
  6
CONTINUOUS
 62
     7
100
AcDbLine
 10
517.516025
 20
15.0
 30
0.0
 11
517.862179
 21
15.346154
 31
0.0
  0
LINE
  5
41C
330
1F
100
AcDbEntity
  8
GR1-1
  6
CONTINUOUS
 62
     7
100
AcDbLine
 10
518.043578
 20
15.527553
 30
0.0
 11
518.8019
 21
16.285875
 31
0.0
  0
LINE
  5
41D
330
1F
100
AcDbEntity
  8
GR1-1
  6
CONTINUOUS
 62
     7
100
AcDbLine
 10
514.500197
 20
11.913462
 30
0.0
 11
515.223164
 21
12.636428
 31
0.0
  0
LINE
  5
41E
330
1F
100
AcDbEntity
  8
GR1-1
  6
CONTINUOUS
 62
     7
100
AcDbLine
 10
517.586736
 20
15.0
 30
0.0
 11
517.93289
 21
15.346154
 31
0.0
  0
LINE
  5
41F
330
1F
100
AcDbEntity
  8
GR1-1
  6
CONTINUOUS
 62
     7
100
AcDbLine
 10
518.078933
 20
15.492197
 30
0.0
 11
518.8019
 21
16.215164
 31
0.0
  0
LINE
  5
420
330
1F
100
AcDbEntity
  8
GR1-1
  6
CONTINUOUS
 62
     7
100
AcDbLine
 10
514.570908
 20
11.913462
 30
0.0
 11
515.258519
 21
12.601073
 31
0.0
  0
LINE
  5
421
330
1F
100
AcDbEntity
  8
GR1-1
  6
CONTINUOUS
 62
     7
100
AcDbLine
 10
517.657447
 20
15.0
 30
0.0
 11
518.0036
 21
15.346154
 31
0.0
  0
LINE
  5
422
330
1F
100
AcDbEntity
  8
GR1-1
  6
CONTINUOUS
 62
     7
100
AcDbLine
 10
518.114289
 20
15.456842
 30
0.0
 11
518.8019
 21
16.144453
 31
0.0
  0
LINE
  5
423
330
1F
100
AcDbEntity
  8
GR1-1
  6
CONTINUOUS
 62
     7
100
AcDbLine
 10
514.641619
 20
11.913462
 30
0.0
 11
515.293875
 21
12.565717
 31
0.0
  0
LINE
  5
424
330
1F
100
AcDbEntity
  8
GR1-1
  6
CONTINUOUS
 62
     7
100
AcDbLine
 10
517.728157
 20
15.0
 30
0.0
 11
518.074311
 21
15.346154
 31
0.0
  0
LINE
  5
425
330
1F
100
AcDbEntity
  8
GR1-1
  6
CONTINUOUS
 62
     7
100
AcDbLine
 10
518.149644
 20
15.421487
 30
0.0
 11
518.8019
 21
16.073743
 31
0.0
  0
LINE
  5
426
330
1F
100
AcDbEntity
  8
GR1-1
  6
CONTINUOUS
 62
     7
100
AcDbLine
 10
514.712329
 20
11.913462
 30
0.0
 11
515.32923
 21
12.530362
 31
0.0
  0
LINE
  5
427
330
1F
100
AcDbEntity
  8
GR1-1
  6
CONTINUOUS
 62
     7
100
AcDbLine
 10
517.798868
 20
15.0
 30
0.0
 11
518.145022
 21
15.346154
 31
0.0
  0
LINE
  5
428
330
1F
100
AcDbEntity
  8
GR1-1
  6
CONTINUOUS
 62
     7
100
AcDbLine
 10
518.184999
 20
15.386131
 30
0.0
 11
518.8019
 21
16.003032
 31
0.0
  0
LINE
  5
429
330
1F
100
AcDbEntity
  8
GR1-1
  6
CONTINUOUS
 62
     7
100
AcDbLine
 10
514.78304
 20
11.913462
 30
0.0
 11
515.364585
 21
12.495007
 31
0.0
  0
LINE
  5
42A
330
1F
100
AcDbEntity
  8
GR1-1
  6
CONTINUOUS
 62
     7
100
AcDbLine
 10
517.869579
 20
15.0
 30
0.0
 11
518.215732
 21
15.346154
 31
0.0
  0
LINE
  5
42B
330
1F
100
AcDbEntity
  8
GR1-1
  6
CONTINUOUS
 62
     7
100
AcDbLine
 10
518.220355
 20
15.350776
 30
0.0
 11
518.8019
 21
15.932321
 31
0.0
  0
LINE
  5
42C
330
1F
100
AcDbEntity
  8
GR1-1
  6
CONTINUOUS
 62
     7
100
AcDbLine
 10
514.853751
 20
11.913462
 30
0.0
 11
515.399941
 21
12.459651
 31
0.0
  0
LINE
  5
42D
330
1F
100
AcDbEntity
  8
GR1-1
  6
CONTINUOUS
 62
     7
100
AcDbLine
 10
517.940289
 20
15.0
 30
0.0
 11
518.8019
 21
15.86161
 31
0.0
  0
LINE
  5
42E
330
1F
100
AcDbEntity
  8
GR1-1
  6
CONTINUOUS
 62
     7
100
AcDbLine
 10
514.924461
 20
11.913462
 30
0.0
 11
515.435296
 21
12.424296
 31
0.0
  0
LINE
  5
42F
330
1F
100
AcDbEntity
  8
GR1-1
  6
CONTINUOUS
 62
     7
100
AcDbLine
 10
518.011
 20
15.0
 30
0.0
 11
518.8019
 21
15.7909
 31
0.0
  0
LINE
  5
430
330
1F
100
AcDbEntity
  8
GR1-1
  6
CONTINUOUS
 62
     7
100
AcDbLine
 10
514.995172
 20
11.913462
 30
0.0
 11
515.470651
 21
12.388941
 31
0.0
  0
LINE
  5
431
330
1F
100
AcDbEntity
  8
GR1-1
  6
CONTINUOUS
 62
     7
100
AcDbLine
 10
518.081711
 20
15.0
 30
0.0
 11
518.8019
 21
15.720189
 31
0.0
  0
LINE
  5
432
330
1F
100
AcDbEntity
  8
GR1-1
  6
CONTINUOUS
 62
     7
100
AcDbLine
 10
515.065883
 20
11.913462
 30
0.0
 11
515.506007
 21
12.353585
 31
0.0
  0
LINE
  5
433
330
1F
100
AcDbEntity
  8
GR1-1
  6
CONTINUOUS
 62
     7
100
AcDbLine
 10
518.152421
 20
15.0
 30
0.0
 11
518.8019
 21
15.649478
 31
0.0
  0
LINE
  5
434
330
1F
100
AcDbEntity
  8
GR1-1
  6
CONTINUOUS
 62
     7
100
AcDbLine
 10
515.136594
 20
11.913462
 30
0.0
 11
515.541362
 21
12.31823
 31
0.0
  0
LINE
  5
435
330
1F
100
AcDbEntity
  8
GR1-1
  6
CONTINUOUS
 62
     7
100
AcDbLine
 10
518.223132
 20
15.0
 30
0.0
 11
518.8019
 21
15.578768
 31
0.0
  0
LINE
  5
436
330
1F
100
AcDbEntity
  8
GR1-1
  6
CONTINUOUS
 62
     7
100
AcDbLine
 10
515.207304
 20
11.913462
 30
0.0
 11
515.576717
 21
12.282875
 31
0.0
  0
LINE
  5
437
330
1F
100
AcDbEntity
  8
GR1-1
  6
CONTINUOUS
 62
     7
100
AcDbLine
 10
518.224977
 20
14.931134
 30
0.0
 11
518.8019
 21
15.508057
 31
0.0
  0
LINE
  5
438
330
1F
100
AcDbEntity
  8
GR1-1
  6
CONTINUOUS
 62
     7
100
AcDbLine
 10
515.278015
 20
11.913462
 30
0.0
 11
515.612073
 21
12.247519
 31
0.0
  0
LINE
  5
439
330
1F
100
AcDbEntity
  8
GR1-1
  6
CONTINUOUS
 62
     7
100
AcDbLine
 10
518.224977
 20
14.860423
 30
0.0
 11
518.8019
 21
15.437346
 31
0.0
  0
LINE
  5
43A
330
1F
100
AcDbEntity
  8
GR1-1
  6
CONTINUOUS
 62
     7
100
AcDbLine
 10
515.348726
 20
11.913462
 30
0.0
 11
515.647428
 21
12.212164
 31
0.0
  0
LINE
  5
43B
330
1F
100
AcDbEntity
  8
GR1-1
  6
CONTINUOUS
 62
     7
100
AcDbLine
 10
518.224977
 20
14.789713
 30
0.0
 11
518.8019
 21
15.366636
 31
0.0
  0
LINE
  5
43C
330
1F
100
AcDbEntity
  8
GR1-1
  6
CONTINUOUS
 62
     7
100
AcDbLine
 10
515.419436
 20
11.913462
 30
0.0
 11
515.682783
 21
12.176809
 31
0.0
  0
LINE
  5
43D
330
1F
100
AcDbEntity
  8
GR1-1
  6
CONTINUOUS
 62
     7
100
AcDbLine
 10
518.224977
 20
14.719002
 30
0.0
 11
518.8019
 21
15.295925
 31
0.0
  0
LINE
  5
43E
330
1F
100
AcDbEntity
  8
GR1-1
  6
CONTINUOUS
 62
     7
100
AcDbLine
 10
515.490147
 20
11.913462
 30
0.0
 11
515.718139
 21
12.141453
 31
0.0
  0
LINE
  5
43F
330
1F
100
AcDbEntity
  8
GR1-1
  6
CONTINUOUS
 62
     7
100
AcDbLine
 10
518.224977
 20
14.648291
 30
0.0
 11
518.8019
 21
15.225214
 31
0.0
  0
LINE
  5
440
330
1F
100
AcDbEntity
  8
GR1-1
  6
CONTINUOUS
 62
     7
100
AcDbLine
 10
515.560858
 20
11.913462
 30
0.0
 11
515.753494
 21
12.106098
 31
0.0
  0
LINE
  5
441
330
1F
100
AcDbEntity
  8
GR1-1
  6
CONTINUOUS
 62
     7
100
AcDbLine
 10
518.224977
 20
14.577581
 30
0.0
 11
518.8019
 21
15.154504
 31
0.0
  0
LINE
  5
442
330
1F
100
AcDbEntity
  8
GR1-1
  6
CONTINUOUS
 62
     7
100
AcDbLine
 10
515.631568
 20
11.913462
 30
0.0
 11
515.788849
 21
12.070743
 31
0.0
  0
LINE
  5
443
330
1F
100
AcDbEntity
  8
GR1-1
  6
CONTINUOUS
 62
     7
100
AcDbLine
 10
518.224977
 20
14.50687
 30
0.0
 11
518.8019
 21
15.083793
 31
0.0
  0
LINE
  5
444
330
1F
100
AcDbEntity
  8
GR1-1
  6
CONTINUOUS
 62
     7
100
AcDbLine
 10
515.702279
 20
11.913462
 30
0.0
 11
517.359592
 21
13.570775
 31
0.0
  0
LINE
  5
445
330
1F
100
AcDbEntity
  8
GR1-1
  6
CONTINUOUS
 62
     7
100
AcDbLine
 10
518.224977
 20
14.436159
 30
0.0
 11
518.8019
 21
15.013082
 31
0.0
  0
LINE
  5
446
330
1F
100
AcDbEntity
  8
GR1-1
  6
CONTINUOUS
 62
     7
100
AcDbLine
 10
515.77299
 20
11.913462
 30
0.0
 11
517.359592
 21
13.500064
 31
0.0
  0
LINE
  5
447
330
1F
100
AcDbEntity
  8
GR1-1
  6
CONTINUOUS
 62
     7
100
AcDbLine
 10
518.224977
 20
14.365449
 30
0.0
 11
518.8019
 21
14.942372
 31
0.0
  0
LINE
  5
448
330
1F
100
AcDbEntity
  8
GR1-1
  6
CONTINUOUS
 62
     7
100
AcDbLine
 10
515.8437
 20
11.913462
 30
0.0
 11
517.359592
 21
13.429353
 31
0.0
  0
LINE
  5
449
330
1F
100
AcDbEntity
  8
GR1-1
  6
CONTINUOUS
 62
     7
100
AcDbLine
 10
518.224977
 20
14.294738
 30
0.0
 11
518.8019
 21
14.871661
 31
0.0
  0
LINE
  5
44A
330
1F
100
AcDbEntity
  8
GR1-1
  6
CONTINUOUS
 62
     7
100
AcDbLine
 10
515.914411
 20
11.913462
 30
0.0
 11
517.359592
 21
13.358643
 31
0.0
  0
LINE
  5
44B
330
1F
100
AcDbEntity
  8
GR1-1
  6
CONTINUOUS
 62
     7
100
AcDbLine
 10
518.224977
 20
14.224027
 30
0.0
 11
518.8019
 21
14.80095
 31
0.0
  0
LINE
  5
44C
330
1F
100
AcDbEntity
  8
GR1-1
  6
CONTINUOUS
 62
     7
100
AcDbLine
 10
515.985122
 20
11.913462
 30
0.0
 11
517.359592
 21
13.287932
 31
0.0
  0
LINE
  5
44D
330
1F
100
AcDbEntity
  8
GR1-1
  6
CONTINUOUS
 62
     7
100
AcDbLine
 10
518.224977
 20
14.153317
 30
0.0
 11
518.8019
 21
14.73024
 31
0.0
  0
LINE
  5
44E
330
1F
100
AcDbEntity
  8
GR1-1
  6
CONTINUOUS
 62
     7
100
AcDbLine
 10
516.055832
 20
11.913462
 30
0.0
 11
517.359592
 21
13.217221
 31
0.0
  0
LINE
  5
44F
330
1F
100
AcDbEntity
  8
GR1-1
  6
CONTINUOUS
 62
     7
100
AcDbLine
 10
518.224977
 20
14.082606
 30
0.0
 11
518.8019
 21
14.659529
 31
0.0
  0
LINE
  5
450
330
1F
100
AcDbEntity
  8
GR1-1
  6
CONTINUOUS
 62
     7
100
AcDbLine
 10
516.126543
 20
11.913462
 30
0.0
 11
517.359592
 21
13.146511
 31
0.0
  0
LINE
  5
451
330
1F
100
AcDbEntity
  8
GR1-1
  6
CONTINUOUS
 62
     7
100
AcDbLine
 10
518.224977
 20
14.011895
 30
0.0
 11
518.8019
 21
14.588818
 31
0.0
  0
LINE
  5
452
330
1F
100
AcDbEntity
  8
GR1-1
  6
CONTINUOUS
 62
     7
100
AcDbLine
 10
516.197254
 20
11.913462
 30
0.0
 11
517.359592
 21
13.0758
 31
0.0
  0
LINE
  5
453
330
1F
100
AcDbEntity
  8
GR1-1
  6
CONTINUOUS
 62
     7
100
AcDbLine
 10
518.224977
 20
13.941185
 30
0.0
 11
518.8019
 21
14.518108
 31
0.0
  0
LINE
  5
454
330
1F
100
AcDbEntity
  8
GR1-1
  6
CONTINUOUS
 62
     7
100
AcDbLine
 10
516.267964
 20
11.913462
 30
0.0
 11
517.359592
 21
13.005089
 31
0.0
  0
LINE
  5
455
330
1F
100
AcDbEntity
  8
GR1-1
  6
CONTINUOUS
 62
     7
100
AcDbLine
 10
518.224977
 20
13.870474
 30
0.0
 11
518.8019
 21
14.447397
 31
0.0
  0
LINE
  5
456
330
1F
100
AcDbEntity
  8
GR1-1
  6
CONTINUOUS
 62
     7
100
AcDbLine
 10
516.338675
 20
11.913462
 30
0.0
 11
517.405983
 21
12.980769
 31
0.0
  0
LINE
  5
457
330
1F
100
AcDbEntity
  8
GR1-1
  6
CONTINUOUS
 62
     7
100
AcDbLine
 10
518.224977
 20
13.799763
 30
0.0
 11
518.8019
 21
14.376686
 31
0.0
  0
LINE
  5
458
330
1F
100
AcDbEntity
  8
GR1-1
  6
CONTINUOUS
 62
     7
100
AcDbLine
 10
516.409386
 20
11.913462
 30
0.0
 11
517.476693
 21
12.980769
 31
0.0
  0
LINE
  5
459
330
1F
100
AcDbEntity
  8
GR1-1
  6
CONTINUOUS
 62
     7
100
AcDbLine
 10
518.224977
 20
13.729052
 30
0.0
 11
518.8019
 21
14.305976
 31
0.0
  0
LINE
  5
45A
330
1F
100
AcDbEntity
  8
GR1-1
  6
CONTINUOUS
 62
     7
100
AcDbLine
 10
516.480096
 20
11.913462
 30
0.0
 11
517.547404
 21
12.980769
 31
0.0
  0
LINE
  5
45B
330
1F
100
AcDbEntity
  8
GR1-1
  6
CONTINUOUS
 62
     7
100
AcDbLine
 10
518.224977
 20
13.658342
 30
0.0
 11
518.8019
 21
14.235265
 31
0.0
  0
LINE
  5
45C
330
1F
100
AcDbEntity
  8
GR1-1
  6
CONTINUOUS
 62
     7
100
AcDbLine
 10
516.550807
 20
11.913462
 30
0.0
 11
517.618115
 21
12.980769
 31
0.0
  0
LINE
  5
45D
330
1F
100
AcDbEntity
  8
GR1-1
  6
CONTINUOUS
 62
     7
100
AcDbLine
 10
518.224977
 20
13.587631
 30
0.0
 11
518.8019
 21
14.164554
 31
0.0
  0
LINE
  5
45E
330
1F
100
AcDbEntity
  8
GR1-1
  6
CONTINUOUS
 62
     7
100
AcDbLine
 10
516.621518
 20
11.913462
 30
0.0
 11
517.688825
 21
12.980769
 31
0.0
  0
LINE
  5
45F
330
1F
100
AcDbEntity
  8
GR1-1
  6
CONTINUOUS
 62
     7
100
AcDbLine
 10
518.224977
 20
13.51692
 30
0.0
 11
518.8019
 21
14.093844
 31
0.0
  0
LINE
  5
460
330
1F
100
AcDbEntity
  8
GR1-1
  6
CONTINUOUS
 62
     7
100
AcDbLine
 10
516.692228
 20
11.913462
 30
0.0
 11
517.759536
 21
12.980769
 31
0.0
  0
LINE
  5
461
330
1F
100
AcDbEntity
  8
GR1-1
  6
CONTINUOUS
 62
     7
100
AcDbLine
 10
518.224977
 20
13.44621
 30
0.0
 11
518.8019
 21
14.023133
 31
0.0
  0
LINE
  5
462
330
1F
100
AcDbEntity
  8
GR1-1
  6
CONTINUOUS
 62
     7
100
AcDbLine
 10
516.762939
 20
11.913462
 30
0.0
 11
517.830247
 21
12.980769
 31
0.0
  0
LINE
  5
463
330
1F
100
AcDbEntity
  8
GR1-1
  6
CONTINUOUS
 62
     7
100
AcDbLine
 10
518.224977
 20
13.375499
 30
0.0
 11
518.8019
 21
13.952422
 31
0.0
  0
LINE
  5
464
330
1F
100
AcDbEntity
  8
GR1-1
  6
CONTINUOUS
 62
     7
100
AcDbLine
 10
516.83365
 20
11.913462
 30
0.0
 11
517.900958
 21
12.980769
 31
0.0
  0
LINE
  5
465
330
1F
100
AcDbEntity
  8
GR1-1
  6
CONTINUOUS
 62
     7
100
AcDbLine
 10
518.224977
 20
13.304788
 30
0.0
 11
518.8019
 21
13.881712
 31
0.0
  0
LINE
  5
466
330
1F
100
AcDbEntity
  8
GR1-1
  6
CONTINUOUS
 62
     7
100
AcDbLine
 10
516.90436
 20
11.913462
 30
0.0
 11
517.971668
 21
12.980769
 31
0.0
  0
LINE
  5
467
330
1F
100
AcDbEntity
  8
GR1-1
  6
CONTINUOUS
 62
     7
100
AcDbLine
 10
518.224977
 20
13.234078
 30
0.0
 11
518.8019
 21
13.811001
 31
0.0
  0
LINE
  5
468
330
1F
100
AcDbEntity
  8
GR1-1
  6
CONTINUOUS
 62
     7
100
AcDbLine
 10
516.975071
 20
11.913462
 30
0.0
 11
518.042379
 21
12.980769
 31
0.0
  0
LINE
  5
469
330
1F
100
AcDbEntity
  8
GR1-1
  6
CONTINUOUS
 62
     7
100
AcDbLine
 10
518.224977
 20
13.163367
 30
0.0
 11
518.8019
 21
13.74029
 31
0.0
  0
LINE
  5
46A
330
1F
100
AcDbEntity
  8
GR1-1
  6
CONTINUOUS
 62
     7
100
AcDbLine
 10
517.045782
 20
11.913462
 30
0.0
 11
518.11309
 21
12.980769
 31
0.0
  0
LINE
  5
46B
330
1F
100
AcDbEntity
  8
GR1-1
  6
CONTINUOUS
 62
     7
100
AcDbLine
 10
518.224977
 20
13.092656
 30
0.0
 11
518.8019
 21
13.669579
 31
0.0
  0
LINE
  5
46C
330
1F
100
AcDbEntity
  8
GR1-1
  6
CONTINUOUS
 62
     7
100
AcDbLine
 10
517.116493
 20
11.913462
 30
0.0
 11
518.1838
 21
12.980769
 31
0.0
  0
LINE
  5
46D
330
1F
100
AcDbEntity
  8
GR1-1
  6
CONTINUOUS
 62
     7
100
AcDbLine
 10
518.224977
 20
13.021946
 30
0.0
 11
518.8019
 21
13.598869
 31
0.0
  0
LINE
  5
46E
330
1F
100
AcDbEntity
  8
GR1-1
  6
CONTINUOUS
 62
     7
100
AcDbLine
 10
517.187203
 20
11.913462
 30
0.0
 11
518.8019
 21
13.528158
 31
0.0
  0
LINE
  5
46F
330
1F
100
AcDbEntity
  8
GR1-1
  6
CONTINUOUS
 62
     7
100
AcDbLine
 10
517.257914
 20
11.913462
 30
0.0
 11
518.8019
 21
13.457447
 31
0.0
  0
LINE
  5
470
330
1F
100
AcDbEntity
  8
GR1-1
  6
CONTINUOUS
 62
     7
100
AcDbLine
 10
517.328625
 20
11.913462
 30
0.0
 11
518.8019
 21
13.386737
 31
0.0
  0
LINE
  5
471
330
1F
100
AcDbEntity
  8
GR1-1
  6
CONTINUOUS
 62
     7
100
AcDbLine
 10
517.399335
 20
11.913462
 30
0.0
 11
518.8019
 21
13.316026
 31
0.0
  0
LINE
  5
472
330
1F
100
AcDbEntity
  8
GR1-1
  6
CONTINUOUS
 62
     7
100
AcDbLine
 10
517.470046
 20
11.913462
 30
0.0
 11
518.8019
 21
13.245315
 31
0.0
  0
LINE
  5
473
330
1F
100
AcDbEntity
  8
GR1-1
  6
CONTINUOUS
 62
     7
100
AcDbLine
 10
517.540757
 20
11.913462
 30
0.0
 11
518.8019
 21
13.174605
 31
0.0
  0
LINE
  5
474
330
1F
100
AcDbEntity
  8
GR1-1
  6
CONTINUOUS
 62
     7
100
AcDbLine
 10
517.611467
 20
11.913462
 30
0.0
 11
518.8019
 21
13.103894
 31
0.0
  0
LINE
  5
475
330
1F
100
AcDbEntity
  8
GR1-1
  6
CONTINUOUS
 62
     7
100
AcDbLine
 10
517.682178
 20
11.913462
 30
0.0
 11
518.8019
 21
13.033183
 31
0.0
  0
LINE
  5
476
330
1F
100
AcDbEntity
  8
GR1-1
  6
CONTINUOUS
 62
     7
100
AcDbLine
 10
517.752889
 20
11.913462
 30
0.0
 11
518.8019
 21
12.962473
 31
0.0
  0
LINE
  5
477
330
1F
100
AcDbEntity
  8
GR1-1
  6
CONTINUOUS
 62
     7
100
AcDbLine
 10
517.823599
 20
11.913462
 30
0.0
 11
518.8019
 21
12.891762
 31
0.0
  0
LINE
  5
478
330
1F
100
AcDbEntity
  8
GR1-1
  6
CONTINUOUS
 62
     7
100
AcDbLine
 10
517.89431
 20
11.913462
 30
0.0
 11
518.8019
 21
12.821051
 31
0.0
  0
LINE
  5
479
330
1F
100
AcDbEntity
  8
GR1-1
  6
CONTINUOUS
 62
     7
100
AcDbLine
 10
517.965021
 20
11.913462
 30
0.0
 11
518.8019
 21
12.750341
 31
0.0
  0
LINE
  5
47A
330
1F
100
AcDbEntity
  8
GR1-1
  6
CONTINUOUS
 62
     7
100
AcDbLine
 10
518.035731
 20
11.913462
 30
0.0
 11
518.8019
 21
12.67963
 31
0.0
  0
LINE
  5
47B
330
1F
100
AcDbEntity
  8
GR1-1
  6
CONTINUOUS
 62
     7
100
AcDbLine
 10
518.106442
 20
11.913462
 30
0.0
 11
518.8019
 21
12.608919
 31
0.0
  0
LINE
  5
47C
330
1F
100
AcDbEntity
  8
GR1-1
  6
CONTINUOUS
 62
     7
100
AcDbLine
 10
518.177153
 20
11.913462
 30
0.0
 11
518.8019
 21
12.538209
 31
0.0
  0
LINE
  5
47D
330
1F
100
AcDbEntity
  8
GR1-1
  6
CONTINUOUS
 62
     7
100
AcDbLine
 10
518.247863
 20
11.913462
 30
0.0
 11
518.8019
 21
12.467498
 31
0.0
  0
LINE
  5
47E
330
1F
100
AcDbEntity
  8
GR1-1
  6
CONTINUOUS
 62
     7
100
AcDbLine
 10
518.318574
 20
11.913462
 30
0.0
 11
518.8019
 21
12.396787
 31
0.0
  0
LINE
  5
47F
330
1F
100
AcDbEntity
  8
GR1-1
  6
CONTINUOUS
 62
     7
100
AcDbLine
 10
518.389285
 20
11.913462
 30
0.0
 11
518.8019
 21
12.326077
 31
0.0
  0
LINE
  5
480
330
1F
100
AcDbEntity
  8
GR1-1
  6
CONTINUOUS
 62
     7
100
AcDbLine
 10
518.459995
 20
11.913462
 30
0.0
 11
518.8019
 21
12.255366
 31
0.0
  0
LINE
  5
481
330
1F
100
AcDbEntity
  8
GR1-1
  6
CONTINUOUS
 62
     7
100
AcDbLine
 10
518.530706
 20
11.913462
 30
0.0
 11
518.8019
 21
12.184655
 31
0.0
  0
LINE
  5
482
330
1F
100
AcDbEntity
  8
GR1-1
  6
CONTINUOUS
 62
     7
100
AcDbLine
 10
518.601417
 20
11.913462
 30
0.0
 11
518.8019
 21
12.113945
 31
0.0
  0
LINE
  5
483
330
1F
100
AcDbEntity
  8
GR1-1
  6
CONTINUOUS
 62
     7
100
AcDbLine
 10
518.672127
 20
11.913462
 30
0.0
 11
518.8019
 21
12.043234
 31
0.0
  0
LINE
  5
484
330
1F
100
AcDbEntity
  8
GR1-1
  6
CONTINUOUS
 62
     7
100
AcDbLine
 10
518.742838
 20
11.913462
 30
0.0
 11
518.8019
 21
11.972523
 31
0.0
  0
ENDSEC
  0
SECTION
  2
OBJECTS
  0
DICTIONARY
  5
C
330
0
100
AcDbDictionary
  3
ACAD_GROUP
350
D
  3
ACAD_LAYOUT
350
1A
  3
ACAD_MLINESTYLE
350
17
  3
ACAD_PLOTSETTINGS
350
19
  3
ACDBHEADERROUNDTRIPXREC
350
485
  0
DICTIONARY
  5
D
102
{ACAD_REACTORS
330
C
102
}
330
C
100
AcDbDictionary
  0
DICTIONARY
  5
1A
102
{ACAD_REACTORS
330
C
102
}
330
C
100
AcDbDictionary
  0
DICTIONARY
  5
17
102
{ACAD_REACTORS
330
C
102
}
330
C
100
AcDbDictionary
  3
STANDARD
350
18
  0
DICTIONARY
  5
19
102
{ACAD_REACTORS
330
C
102
}
330
C
100
AcDbDictionary
  0
DICTIONARY
  5
485
102
{ACAD_REACTORS
330
C
102
}
330
C
100
AcDbDictionary
  3
CEPSNTYPE
350
48E
  3
DIMSTYLEDATA
350
4A4
  3
FINGERPRINTGUID
350
48F
  3
HYPERLINKBASE
350
488
  3
INSUNITS
350
48D
  3
LAYOUTDICT
350
48A
  3
LWETCUNION
350
48C
  3
PLOTSETDICT
350
48B
  3
PSVPSCALE
350
491
  3
PUCSBASE
350
494
  3
PUCSORGBACK
350
49A
  3
PUCSORGBOTTOM
350
496
  3
PUCSORGFRONT
350
499
  3
PUCSORGLEFT
350
497
  3
PUCSORGRIGHT
350
498
  3
PUCSORGTOP
350
495
  3
PUCSORTHOREF
350
492
  3
PUCSORTHOVIEW
350
493
  3
STYLESHEET
350
489
  3
TSTACKALIGN
350
486
  3
TSTACKSIZE
350
487
  3
UCSBASE
350
49D
  3
UCSORGBACK
350
4A3
  3
UCSORGBOTTOM
350
49F
  3
UCSORGFRONT
350
4A2
  3
UCSORGLEFT
350
4A0
  3
UCSORGRIGHT
350
4A1
  3
UCSORGTOP
350
49E
  3
UCSORTHOREF
350
49B
  3
UCSORTHOVIEW
350
49C
  3
VERSIONGUID
350
490
  0
MLINESTYLE
  5
18
102
{ACAD_REACTORS
330
17
102
}
330
17
100
AcDbMlineStyle
  2
Standard
 70
     0
  3

 62
   256
 51
90.0
 52
90.0
 71
     2
 49
0.5
 62
   256
  6
BYLAYER
 49
-0.5
 62
   256
  6
BYLAYER
  0
XRECORD
  5
48E
102
{ACAD_REACTORS
330
485
102
}
330
485
100
AcDbXrecord
 90
        0
  0
XRECORD
  5
4A4
102
{ACAD_REACTORS
330
485
102
}
330
485
100
AcDbXrecord
1000
DSTYLE
1002
{
1070
   179
 70
     2
1070
   171
 70
     3
1070
   143
 40
0.03937
1070
   274
 70
     3
1070
    41
 40
4.0
1070
   344
340
47
1070
   141
 40
2.5
1070
   176
 70
     7
1070
   177
 70
     7
1070
   178
 70
     7
1070
   271
 70
     2
1070
    46
 40
6.0
1070
    43
 40
10.0
1070
    44
 40
1.0
1070
    42
 40
1.0
1070
   147
 40
1.0
1070
   173
 70
     1
1070
    77
 70
     1
1070
   272
 70
     2
1070
    73
 70
     0
1070
   172
 70
     1
1070
    74
 70
     0
1070
   283
 70
     0
1070
   340
340
3F
1070
   140
 40
4.0
1070
   284
 70
     8
1070
    78
 70
     8
1002
}
  0
XRECORD
  5
48F
102
{ACAD_REACTORS
330
485
102
}
330
485
100
AcDbXrecord
  1
{C9A188C1-6EAF-4E93-B144-2B73891E49A1}
  0
XRECORD
  5
488
102
{ACAD_REACTORS
330
485
102
}
330
485
100
AcDbXrecord
  1

  0
XRECORD
  5
48D
102
{ACAD_REACTORS
330
485
102
}
330
485
100
AcDbXrecord
 90
        1
  0
XRECORD
  5
48A
102
{ACAD_REACTORS
330
485
102
}
330
485
100
AcDbXrecord
340
1A
  0
XRECORD
  5
48C
102
{ACAD_REACTORS
330
485
102
}
330
485
100
AcDbXrecord
 90
    10781
  0
XRECORD
  5
48B
102
{ACAD_REACTORS
330
485
102
}
330
485
100
AcDbXrecord
340
19
  0
XRECORD
  5
491
102
{ACAD_REACTORS
330
485
102
}
330
485
100
AcDbXrecord
 40
0.0
  0
XRECORD
  5
494
102
{ACAD_REACTORS
330
485
102
}
330
485
100
AcDbXrecord
340
0
  0
XRECORD
  5
49A
102
{ACAD_REACTORS
330
485
102
}
330
485
100
AcDbXrecord
 10
0.0
 20
0.0
 30
0.0
  0
XRECORD
  5
496
102
{ACAD_REACTORS
330
485
102
}
330
485
100
AcDbXrecord
 10
0.0
 20
0.0
 30
0.0
  0
XRECORD
  5
499
102
{ACAD_REACTORS
330
485
102
}
330
485
100
AcDbXrecord
 10
0.0
 20
0.0
 30
0.0
  0
XRECORD
  5
497
102
{ACAD_REACTORS
330
485
102
}
330
485
100
AcDbXrecord
 10
0.0
 20
0.0
 30
0.0
  0
XRECORD
  5
498
102
{ACAD_REACTORS
330
485
102
}
330
485
100
AcDbXrecord
 10
0.0
 20
0.0
 30
0.0
  0
XRECORD
  5
495
102
{ACAD_REACTORS
330
485
102
}
330
485
100
AcDbXrecord
 10
0.0
 20
0.0
 30
0.0
  0
XRECORD
  5
492
102
{ACAD_REACTORS
330
485
102
}
330
485
100
AcDbXrecord
340
0
  0
XRECORD
  5
493
102
{ACAD_REACTORS
330
485
102
}
330
485
100
AcDbXrecord
 70
     0
  0
XRECORD
  5
489
102
{ACAD_REACTORS
330
485
102
}
330
485
100
AcDbXrecord
  1

  0
XRECORD
  5
486
102
{ACAD_REACTORS
330
485
102
}
330
485
100
AcDbXrecord
 90
        1
  0
XRECORD
  5
487
102
{ACAD_REACTORS
330
485
102
}
330
485
100
AcDbXrecord
 90
       70
  0
XRECORD
  5
49D
102
{ACAD_REACTORS
330
485
102
}
330
485
100
AcDbXrecord
340
0
  0
XRECORD
  5
4A3
102
{ACAD_REACTORS
330
485
102
}
330
485
100
AcDbXrecord
 10
0.0
 20
0.0
 30
0.0
  0
XRECORD
  5
49F
102
{ACAD_REACTORS
330
485
102
}
330
485
100
AcDbXrecord
 10
0.0
 20
0.0
 30
0.0
  0
XRECORD
  5
4A2
102
{ACAD_REACTORS
330
485
102
}
330
485
100
AcDbXrecord
 10
0.0
 20
0.0
 30
0.0
  0
XRECORD
  5
4A0
102
{ACAD_REACTORS
330
485
102
}
330
485
100
AcDbXrecord
 10
0.0
 20
0.0
 30
0.0
  0
XRECORD
  5
4A1
102
{ACAD_REACTORS
330
485
102
}
330
485
100
AcDbXrecord
 10
0.0
 20
0.0
 30
0.0
  0
XRECORD
  5
49E
102
{ACAD_REACTORS
330
485
102
}
330
485
100
AcDbXrecord
 10
0.0
 20
0.0
 30
0.0
  0
XRECORD
  5
49B
102
{ACAD_REACTORS
330
485
102
}
330
485
100
AcDbXrecord
340
0
  0
XRECORD
  5
49C
102
{ACAD_REACTORS
330
485
102
}
330
485
100
AcDbXrecord
 70
     0
  0
XRECORD
  5
490
102
{ACAD_REACTORS
330
485
102
}
330
485
100
AcDbXrecord
  1
{FAEB1C32-E019-11D5-929B-00C0DF256EC4}
  0
ENDSEC
  0
EOF
