  0
SECTION
  2
HEADER
  9
$ACADVER
  1
AC1014
  9
$ACADMAINTVER
 70
     9
  9
$DWGCODEPAGE
  3
ANSI_932
  9
$INSBASE
 10
0.0
 20
0.0
 30
0.0
  9
$EXTMIN
 10
0.0
 20
0.0
 30
0.0
  9
$EXTMAX
 10
420.0
 20
297.0
 30
0.0
  9
$LIMMIN
 10
0.0
 20
0.0
  9
$LIMMAX
 10
420.0
 20
297.0
  9
$ORTHOMODE
 70
     0
  9
$REGENMODE
 70
     1
  9
$FILLMODE
 70
     1
  9
$QTEXTMODE
 70
     0
  9
$MIRRTEXT
 70
     1
  9
$DRAGMODE
 70
     2
  9
$LTSCALE
 40
1.0
  9
$OSMODE
 70
    37
  9
$ATTMODE
 70
     1
  9
$TEXTSIZE
 40
0.2
  9
$TRACEWID
 40
1.0
  9
$TEXTSTYLE
  7
FX_VECTOR
  9
$CLAYER
  8
0
  9
$CELTYPE
  6
BYLAYER
  9
$CECOLOR
 62
   256
  9
$CELTSCALE
 40
1.0
  9
$DELOBJ
 70
     1
  9
$DISPSILH
 70
     0
  9
$DIMSCALE
 40
1.0
  9
$DIMASZ
 40
4.0
  9
$DIMEXO
 40
1.0
  9
$DIMDLI
 40
10.0
  9
$DIMRND
 40
0.0
  9
$DIMDLE
 40
6.0
  9
$DIMEXE
 40
1.0
  9
$DIMTP
 40
0.0
  9
$DIMTM
 40
0.0
  9
$DIMTXT
 40
4.0
  9
$DIMCEN
 40
2.5
  9
$DIMTSZ
 40
0.0
  9
$DIMTOL
 70
     0
  9
$DIMLIM
 70
     0
  9
$DIMTIH
 70
     0
  9
$DIMTOH
 70
     0
  9
$DIMSE1
 70
     0
  9
$DIMSE2
 70
     0
  9
$DIMTAD
 70
     1
  9
$DIMZIN
 70
     8
  9
$DIMBLK
  1

  9
$DIMASO
 70
     1
  9
$DIMSHO
 70
     1
  9
$DIMPOST
  1

  9
$DIMAPOST
  1

  9
$DIMALT
 70
     0
  9
$DIMALTD
 70
     3
  9
$DIMALTF
 40
0.03937
  9
$DIMLFAC
 40
1.0
  9
$DIMTOFL
 70
     1
  9
$DIMTVP
 40
0.0
  9
$DIMTIX
 70
     0
  9
$DIMSOXD
 70
     0
  9
$DIMSAH
 70
     1
  9
$DIMBLK1
  1
FXTIP_ARROW_S
  9
$DIMBLK2
  1
FXTIP_ARROW_E
  9
$DIMSTYLE
  2
FX_DIMINFO
  9
$DIMCLRD
 70
     7
  9
$DIMCLRE
 70
     7
  9
$DIMCLRT
 70
     7
  9
$DIMTFAC
 40
1.0
  9
$DIMGAP
 40
1.0
  9
$DIMJUST
 70
     0
  9
$DIMSD1
 70
     0
  9
$DIMSD2
 70
     0
  9
$DIMTOLJ
 70
     1
  9
$DIMTZIN
 70
     8
  9
$DIMALTZ
 70
     0
  9
$DIMALTTZ
 70
     0
  9
$DIMFIT
 70
     3
  9
$DIMUPT
 70
     0
  9
$DIMUNIT
 70
     2
  9
$DIMDEC
 70
     2
  9
$DIMTDEC
 70
     2
  9
$DIMALTU
 70
     2
  9
$DIMALTTD
 70
     3
  9
$DIMTXSTY
  7
FX_VECTOR
  9
$DIMAUNIT
 70
     0
  9
$LUNITS
 70
     2
  9
$LUPREC
 70
     4
  9
$SKETCHINC
 40
1.0
  9
$FILLETRAD
 40
10.0
  9
$AUNITS
 70
     0
  9
$AUPREC
 70
     0
  9
$MENU
  1
.
  9
$ELEVATION
 40
0.0
  9
$PELEVATION
 40
0.0
  9
$THICKNESS
 40
0.0
  9
$LIMCHECK
 70
     0
  9
$CHAMFERA
 40
10.0
  9
$CHAMFERB
 40
10.0
  9
$CHAMFERC
 40
20.0
  9
$CHAMFERD
 40
0.0
  9
$SKPOLY
 70
     0
  9
$TDCREATE
 40
2456395.393900868
  9
$TDUPDATE
 40
2456395.393903935
  9
$TDINDWG
 40
0.0000000116
  9
$TDUSRTIMER
 40
0.0000000116
  9
$USRTIMER
 70
     1
  9
$ANGBASE
 50
0.0
  9
$ANGDIR
 70
     0
  9
$PDMODE
 70
     0
  9
$PDSIZE
 40
0.0
  9
$PLINEWID
 40
0.0
  9
$COORDS
 70
     1
  9
$SPLFRAME
 70
     0
  9
$SPLINETYPE
 70
     6
  9
$SPLINESEGS
 70
     8
  9
$ATTDIA
 70
     0
  9
$ATTREQ
 70
     1
  9
$HANDLING
 70
     1
  9
$HANDSEED
  5
2EE
  9
$SURFTAB1
 70
     6
  9
$SURFTAB2
 70
     6
  9
$SURFTYPE
 70
     6
  9
$SURFU
 70
     6
  9
$SURFV
 70
     6
  9
$UCSNAME
  2

  9
$UCSORG
 10
0.0
 20
0.0
 30
0.0
  9
$UCSXDIR
 10
1.0
 20
0.0
 30
0.0
  9
$UCSYDIR
 10
0.0
 20
1.0
 30
0.0
  9
$PUCSNAME
  2

  9
$PUCSORG
 10
0.0
 20
0.0
 30
0.0
  9
$PUCSXDIR
 10
1.0
 20
0.0
 30
0.0
  9
$PUCSYDIR
 10
0.0
 20
1.0
 30
0.0
  9
$USERI1
 70
     0
  9
$USERI2
 70
     0
  9
$USERI3
 70
     0
  9
$USERI4
 70
     0
  9
$USERI5
 70
     0
  9
$USERR1
 40
0.0
  9
$USERR2
 40
0.0
  9
$USERR3
 40
0.0
  9
$USERR4
 40
0.0
  9
$USERR5
 40
0.0
  9
$WORLDVIEW
 70
     1
  9
$SHADEDGE
 70
     3
  9
$SHADEDIF
 70
    70
  9
$TILEMODE
 70
     1
  9
$MAXACTVP
 70
    64
  9
$PINSBASE
 10
0.0
 20
0.0
 30
0.0
  9
$PLIMCHECK
 70
     0
  9
$PEXTMIN
 10
1.000000000000000E+20
 20
1.000000000000000E+20
 30
1.000000000000000E+20
  9
$PEXTMAX
 10
-1.000000000000000E+20
 20
-1.000000000000000E+20
 30
-1.000000000000000E+20
  9
$PLIMMIN
 10
0.0
 20
0.0
  9
$PLIMMAX
 10
420.0
 20
297.0
  9
$UNITMODE
 70
     0
  9
$VISRETAIN
 70
     1
  9
$PLINEGEN
 70
     0
  9
$PSLTSCALE
 70
     1
  9
$TREEDEPTH
 70
  3020
  9
$PICKSTYLE
 70
     1
  9
$CMLSTYLE
  2
STANDARD
  9
$CMLJUST
 70
     0
  9
$CMLSCALE
 40
20.0
  9
$PROXYGRAPHICS
 70
     1
  9
$MEASUREMENT
 70
     1
  0
ENDSEC
  0
SECTION
  2
CLASSES
  0
CLASS
  1
ACDBDICTIONARYWDFLT
  2
AcDbDictionaryWithDefault
  3
ObjectDBX Classes
 90
        0
280
     0
281
     0
  0
CLASS
  1
VISUALSTYLE
  2
AcDbVisualStyle
  3
ObjectDBX Classes
 90
     4095
280
     0
281
     0
  0
CLASS
  1
MATERIAL
  2
AcDbMaterial
  3
ObjectDBX Classes
 90
     1153
280
     0
281
     0
  0
CLASS
  1
SUN
  2
AcDbSun
  3
SCENEOE
 90
     1024
280
     0
281
     0
  0
CLASS
  1
DICTIONARYVAR
  2
AcDbDictionaryVar
  3
ObjectDBX Classes
 90
        0
280
     0
281
     0
  0
CLASS
  1
XRECORD
  2
AcDbXrecord
  3
AutoCAD 2000
 90
        0
280
     0
281
     0
  0
CLASS
  1
LWPOLYLINE
  2
AcDbPolyline
  3
AutoCAD 2000
 90
        0
280
     0
281
     1
  0
CLASS
  1
HATCH
  2
AcDbHatch
  3
AutoCAD 2000
 90
        0
280
     0
281
     1
  0
CLASS
  1
ACDBPLACEHOLDER
  2
AcDbPlaceHolder
  3
ObjectDBX Classes
 90
        0
280
     0
281
     0
  0
CLASS
  1
LAYOUT
  2
AcDbLayout
  3
ObjectDBX Classes
 90
        0
280
     0
281
     0
  0
ENDSEC
  0
SECTION
  2
TABLES
  0
TABLE
  2
VPORT
  5
8
330
0
100
AcDbSymbolTable
 70
     1
  0
VPORT
  5
29
330
8
100
AcDbSymbolTableRecord
100
AcDbViewportTableRecord
  2
*ACTIVE
 70
     0
 10
0.0
 20
0.0
 11
1.0
 21
1.0
 12
210.0
 22
148.5
 13
0.0
 23
0.0
 14
10.0
 24
10.0
 15
10.0
 25
10.0
 16
0.0
 26
0.0
 36
1.0
 17
0.0
 27
0.0
 37
0.0
 40
297.0
 41
1.414141414141414
 42
50.0
 43
0.0
 44
0.0
 50
0.0
 51
0.0
 71
     0
 72
   100
 73
     1
 74
     3
 75
     0
 76
     0
 77
     0
 78
     0
  0
ENDTAB
  0
TABLE
  2
LTYPE
  5
5
330
0
100
AcDbSymbolTable
 70
     5
  0
LTYPE
  5
14
330
5
100
AcDbSymbolTableRecord
100
AcDbLinetypeTableRecord
  2
BYBLOCK
 70
     0
  3

 72
    65
 73
     0
 40
0.0
  0
LTYPE
  5
15
330
5
100
AcDbSymbolTableRecord
100
AcDbLinetypeTableRecord
  2
BYLAYER
 70
     0
  3

 72
    65
 73
     0
 40
0.0
  0
LTYPE
  5
16
330
5
100
AcDbSymbolTableRecord
100
AcDbLinetypeTableRecord
  2
CONTINUOUS
 70
     0
  3
Continuous
 72
    65
 73
     0
 40
0.0
  0
LTYPE
  5
40
330
5
100
AcDbSymbolTableRecord
100
AcDbLinetypeTableRecord
  2
DASHDOT
 70
     0
  3
Dash dot __ . __ . __ . __ . __ . __ . __ . __
 72
    65
 73
     4
 40
13.0
 49
10.0
 74
     0
 49
-1.0
 74
     0
 49
1.0
 74
     0
 49
-1.0
 74
     0
  0
ENDTAB
  0
TABLE
  2
LAYER
  5
2
330
0
100
AcDbSymbolTable
 70
     8
  0
LAYER
  5
10
330
2
100
AcDbSymbolTableRecord
100
AcDbLayerTableRecord
  2
0
 70
     0
 62
     7
  6
CONTINUOUS
  0
LAYER
  5
B1
330
2
100
AcDbSymbolTableRecord
100
AcDbLayerTableRecord
  2
DEFPOINTS
 70
     0
 62
     7
  6
CONTINUOUS
  0
LAYER
  5
B3
330
2
100
AcDbSymbolTableRecord
100
AcDbLayerTableRecord
  2
図面枠ﾚｲﾔ_01
 70
     0
 62
     7
  6
CONTINUOUS
  0
LAYER
  5
B6
330
2
100
AcDbSymbolTableRecord
100
AcDbLayerTableRecord
  2
GR1_01
 70
     0
 62
     7
  6
CONTINUOUS
  0
LAYER
  5
D4
330
2
100
AcDbSymbolTableRecord
100
AcDbLayerTableRecord
  2
基準ﾚｲﾔｸ_ﾙ_ﾌ__01
 70
     0
 62
     7
  6
CONTINUOUS
  0
LAYER
  5
221
330
2
100
AcDbSymbolTableRecord
100
AcDbLayerTableRecord
  2
0_01
 70
     0
 62
     7
  6
CONTINUOUS
  0
ENDTAB
  0
TABLE
  2
STYLE
  5
3
330
0
100
AcDbSymbolTable
 70
     3
  0
STYLE
  5
11
330
3
100
AcDbSymbolTableRecord
100
AcDbTextStyleTableRecord
  2
STANDARD
 70
     0
 40
0.0
 41
1.0
 50
0.0
 71
     0
 42
2.5
  3
txt
  4

  0
STYLE
  5
46
330
3
100
AcDbSymbolTableRecord
100
AcDbTextStyleTableRecord
  2
FX_VECTOR
 70
     0
 40
0.0
 41
1.0
 50
0.0
 71
     0
 42
0.2
  3
MONOTXT.SHX
  4
BigFont.shx
1001
ACAD
1000

1071
    32770
  0
STYLE
  5
B2
330
3
100
AcDbSymbolTableRecord
100
AcDbTextStyleTableRecord
  2
DEFAULT
 70
     0
 40
0.0
 41
1.0
 50
0.0
 71
     0
 42
0.2
  3

  4

1001
ACAD
1000
ＭＳ ゴシック
1071
    32817
  0
ENDTAB
  0
TABLE
  2
VIEW
  5
6
330
0
100
AcDbSymbolTable
 70
     0
  0
ENDTAB
  0
TABLE
  2
UCS
  5
7
330
0
100
AcDbSymbolTable
 70
     0
  0
ENDTAB
  0
TABLE
  2
APPID
  5
9
330
0
100
AcDbSymbolTable
 70
     1
  0
APPID
  5
12
330
9
100
AcDbSymbolTableRecord
100
AcDbRegAppTableRecord
  2
ACAD
 70
     0
  0
ENDTAB
  0
TABLE
  2
DIMSTYLE
  5
A
330
0
100
AcDbSymbolTable
 70
     2
  0
DIMSTYLE
105
27
330
A
100
AcDbSymbolTableRecord
100
AcDbDimStyleTableRecord
  2
ISO-25
 70
     0
  3

  4

  5

  6

  7

 40
1.0
 41
2.5
 42
0.625
 43
3.75
 44
1.25
 45
0.0
 46
0.0
 47
0.0
 48
0.0
140
2.5
141
2.5
142
0.0
143
0.03937007874016
144
1.0
145
0.0
146
1.0
147
0.625
 71
     0
 72
     0
 73
     0
 74
     0
 75
     0
 76
     0
 77
     1
 78
     8
170
     0
171
     3
172
     1
173
     0
174
     0
175
     0
176
     0
177
     0
178
     0
270
     2
271
     2
272
     2
273
     2
274
     3
340
11
275
     0
280
     0
281
     0
282
     0
283
     0
284
     8
285
     0
286
     0
287
     3
288
     0
  0
DIMSTYLE
105
B0
330
A
100
AcDbSymbolTableRecord
100
AcDbDimStyleTableRecord
  2
FX_DIMINFO
 70
     0
  3

  4

  5

  6
FXTIP_ARROW_S
  7
FXTIP_ARROW_E
 40
1.0
 41
4.0
 42
1.0
 43
10.0
 44
1.0
 45
0.0
 46
6.0
 47
0.0
 48
0.0
140
4.0
141
2.5
142
0.0
143
0.03937
144
1.0
145
0.0
146
1.0
147
1.0
 71
     0
 72
     0
 73
     0
 74
     0
 75
     0
 76
     0
 77
     1
 78
     8
170
     0
171
     3
172
     1
173
     1
174
     0
175
     0
176
     7
177
     7
178
     7
179
     2
270
     2
271
     2
272
     2
273
     2
274
     3
340
46
275
     0
280
     0
281
     0
282
     0
283
     1
284
     8
285
     0
286
     0
287
     3
288
     0
  0
ENDTAB
  0
TABLE
  2
BLOCK_RECORD
  5
1
330
0
100
AcDbSymbolTable
 70
    26
  0
BLOCK_RECORD
  5
1F
330
1
100
AcDbSymbolTableRecord
100
AcDbBlockTableRecord
  2
*MODEL_SPACE
  0
BLOCK_RECORD
  5
1B
330
1
100
AcDbSymbolTableRecord
100
AcDbBlockTableRecord
  2
*PAPER_SPACE
  0
BLOCK_RECORD
  5
47
330
1
100
AcDbSymbolTableRecord
100
AcDbBlockTableRecord
  2
FXTIP_NONE
  0
BLOCK_RECORD
  5
4A
330
1
100
AcDbSymbolTableRecord
100
AcDbBlockTableRecord
  2
FXTIP_ARROW_S
  0
BLOCK_RECORD
  5
50
330
1
100
AcDbSymbolTableRecord
100
AcDbBlockTableRecord
  2
FXTIP_ARROW_E
  0
BLOCK_RECORD
  5
56
330
1
100
AcDbSymbolTableRecord
100
AcDbBlockTableRecord
  2
FXTIP_BLACKDOT_S
  0
BLOCK_RECORD
  5
5C
330
1
100
AcDbSymbolTableRecord
100
AcDbBlockTableRecord
  2
FXTIP_BLACKDOT_E
  0
BLOCK_RECORD
  5
62
330
1
100
AcDbSymbolTableRecord
100
AcDbBlockTableRecord
  2
FXTIP_TRIANGLE_S
  0
BLOCK_RECORD
  5
69
330
1
100
AcDbSymbolTableRecord
100
AcDbBlockTableRecord
  2
FXTIP_TRIANGLE_E
  0
BLOCK_RECORD
  5
70
330
1
100
AcDbSymbolTableRecord
100
AcDbBlockTableRecord
  2
FXTIP_ARCHITECT_S
  0
BLOCK_RECORD
  5
76
330
1
100
AcDbSymbolTableRecord
100
AcDbBlockTableRecord
  2
FXTIP_ARCHITECT_E
  0
BLOCK_RECORD
  5
7C
330
1
100
AcDbSymbolTableRecord
100
AcDbBlockTableRecord
  2
FXTIP_CIVIL_S
  0
BLOCK_RECORD
  5
82
330
1
100
AcDbSymbolTableRecord
100
AcDbBlockTableRecord
  2
FXTIP_CIVIL_E
  0
BLOCK_RECORD
  5
88
330
1
100
AcDbSymbolTableRecord
100
AcDbBlockTableRecord
  2
FXTIP_WHITEDOT_S
  0
BLOCK_RECORD
  5
8D
330
1
100
AcDbSymbolTableRecord
100
AcDbBlockTableRecord
  2
FXTIP_WHITEDOT_E
  0
BLOCK_RECORD
  5
92
330
1
100
AcDbSymbolTableRecord
100
AcDbBlockTableRecord
  2
FXTIP_UPARROW_S
  0
BLOCK_RECORD
  5
97
330
1
100
AcDbSymbolTableRecord
100
AcDbBlockTableRecord
  2
FXTIP_UPARROW_E
  0
BLOCK_RECORD
  5
9C
330
1
100
AcDbSymbolTableRecord
100
AcDbBlockTableRecord
  2
FXTIP_DOWNARROW_S
  0
BLOCK_RECORD
  5
A1
330
1
100
AcDbSymbolTableRecord
100
AcDbBlockTableRecord
  2
FXTIP_DOWNARROW_E
  0
BLOCK_RECORD
  5
A6
330
1
100
AcDbSymbolTableRecord
100
AcDbBlockTableRecord
  2
FXTIP_BLACKTRIANGLE_S
  0
BLOCK_RECORD
  5
AB
330
1
100
AcDbSymbolTableRecord
100
AcDbBlockTableRecord
  2
FXTIP_BLACKTRIANGLE_E
  0
BLOCK_RECORD
  5
16F
330
1
100
AcDbSymbolTableRecord
100
AcDbBlockTableRecord
  2
BLKF023
  0
BLOCK_RECORD
  5
212
330
1
100
AcDbSymbolTableRecord
100
AcDbBlockTableRecord
  2
BLKF024
  0
BLOCK_RECORD
  5
21E
330
1
100
AcDbSymbolTableRecord
100
AcDbBlockTableRecord
  2
BLKF025
  0
BLOCK_RECORD
  5
227
330
1
100
AcDbSymbolTableRecord
100
AcDbBlockTableRecord
  2
BLKF026
  0
BLOCK_RECORD
  5
241
330
1
100
AcDbSymbolTableRecord
100
AcDbBlockTableRecord
  2
BLKF027
  0
BLOCK_RECORD
  5
27F
330
1
100
AcDbSymbolTableRecord
100
AcDbBlockTableRecord
  2
BLKF028
  0
ENDTAB
  0
ENDSEC
  0
SECTION
  2
BLOCKS
  0
BLOCK
  5
20
330
1F
100
AcDbEntity
  8
0
100
AcDbBlockBegin
  2
*MODEL_SPACE
 70
     0
 10
0.0
 20
0.0
 30
0.0
  3
*MODEL_SPACE
  1

  0
ENDBLK
  5
21
330
1F
100
AcDbEntity
  8
0
100
AcDbBlockEnd
  0
BLOCK
  5
1C
330
1B
100
AcDbEntity
 67
     1
  8
0
100
AcDbBlockBegin
  2
*PAPER_SPACE
 70
     0
 10
0.0
 20
0.0
 30
0.0
  3
*PAPER_SPACE
  1

  0
ENDBLK
  5
1D
330
1B
100
AcDbEntity
 67
     1
  8
0
100
AcDbBlockEnd
  0
BLOCK
  5
48
330
47
100
AcDbEntity
  8
0
100
AcDbBlockBegin
  2
FXTIP_NONE
 70
     0
 10
0.0
 20
0.0
 30
0.0
  3
FXTIP_NONE
  1

  0
ENDBLK
  5
49
330
47
100
AcDbEntity
  8
0
100
AcDbBlockEnd
  0
BLOCK
  5
4B
330
4A
100
AcDbEntity
  8
0
100
AcDbBlockBegin
  2
FXTIP_ARROW_S
 70
     0
 10
0.0
 20
0.0
 30
0.0
  3
FXTIP_ARROW_S
  1

  0
LINE
  5
4D
330
4A
100
AcDbEntity
  8
0
  6
CONTINUOUS
 62
     0
100
AcDbLine
 10
0.0
 20
0.0
 30
0.0
 11
-1.0
 21
0.0000000000000001
 31
0.0
  0
LINE
  5
4E
330
4A
100
AcDbEntity
  8
0
  6
CONTINUOUS
 62
     0
100
AcDbLine
 10
0.0
 20
0.0
 30
0.0
 11
-0.9659258262890683
 21
-0.2588190451025206
 31
0.0
  0
LINE
  5
4F
330
4A
100
AcDbEntity
  8
0
  6
CONTINUOUS
 62
     0
100
AcDbLine
 10
0.0
 20
0.0
 30
0.0
 11
-0.9659258262890683
 21
0.2588190451025209
 31
0.0
  0
ENDBLK
  5
4C
330
4A
100
AcDbEntity
  8
0
100
AcDbBlockEnd
  0
BLOCK
  5
51
330
50
100
AcDbEntity
  8
0
100
AcDbBlockBegin
  2
FXTIP_ARROW_E
 70
     0
 10
0.0
 20
0.0
 30
0.0
  3
FXTIP_ARROW_E
  1

  0
LINE
  5
53
330
50
100
AcDbEntity
  8
0
  6
CONTINUOUS
 62
     0
100
AcDbLine
 10
0.0
 20
0.0
 30
0.0
 11
-1.0
 21
0.0
 31
0.0
  0
LINE
  5
54
330
50
100
AcDbEntity
  8
0
  6
CONTINUOUS
 62
     0
100
AcDbLine
 10
0.0
 20
0.0
 30
0.0
 11
-0.9659258262890683
 21
0.2588190451025207
 31
0.0
  0
LINE
  5
55
330
50
100
AcDbEntity
  8
0
  6
CONTINUOUS
 62
     0
100
AcDbLine
 10
0.0
 20
0.0
 30
0.0
 11
-0.9659258262890683
 21
-0.2588190451025207
 31
0.0
  0
ENDBLK
  5
52
330
50
100
AcDbEntity
  8
0
100
AcDbBlockEnd
  0
BLOCK
  5
57
330
56
100
AcDbEntity
  8
0
100
AcDbBlockBegin
  2
FXTIP_BLACKDOT_S
 70
     0
 10
0.0
 20
0.0
 30
0.0
  3
FXTIP_BLACKDOT_S
  1

  0
LINE
  5
59
330
56
100
AcDbEntity
  8
0
  6
CONTINUOUS
 62
     0
100
AcDbLine
 10
0.0
 20
0.0
 30
0.0
 11
-1.0
 21
0.0000000000000001
 31
0.0
  0
LWPOLYLINE
  5
5A
330
56
100
AcDbEntity
  8
0
  6
CONTINUOUS
 62
     0
100
AcDbPolyline
 90
        2
 70
     1
 10
-0.125
 20
0.0
 40
0.25
 41
0.25
 42
1.0
 10
0.125
 20
0.0
 40
0.25
 41
0.25
 42
1.0
  0
CIRCLE
  5
5B
330
56
100
AcDbEntity
  8
0
  6
CONTINUOUS
 62
     0
100
AcDbCircle
 10
0.0
 20
0.0
 30
0.0
 40
0.25
  0
ENDBLK
  5
58
330
56
100
AcDbEntity
  8
0
100
AcDbBlockEnd
  0
BLOCK
  5
5D
330
5C
100
AcDbEntity
  8
0
100
AcDbBlockBegin
  2
FXTIP_BLACKDOT_E
 70
     0
 10
0.0
 20
0.0
 30
0.0
  3
FXTIP_BLACKDOT_E
  1

  0
LINE
  5
5F
330
5C
100
AcDbEntity
  8
0
  6
CONTINUOUS
 62
     0
100
AcDbLine
 10
0.0
 20
0.0
 30
0.0
 11
-1.0
 21
0.0
 31
0.0
  0
LWPOLYLINE
  5
60
330
5C
100
AcDbEntity
  8
0
  6
CONTINUOUS
 62
     0
100
AcDbPolyline
 90
        2
 70
     1
 10
-0.125
 20
0.0
 40
0.25
 41
0.25
 42
1.0
 10
0.125
 20
0.0
 40
0.25
 41
0.25
 42
1.0
  0
CIRCLE
  5
61
330
5C
100
AcDbEntity
  8
0
  6
CONTINUOUS
 62
     0
100
AcDbCircle
 10
0.0
 20
0.0
 30
0.0
 40
0.25
  0
ENDBLK
  5
5E
330
5C
100
AcDbEntity
  8
0
100
AcDbBlockEnd
  0
BLOCK
  5
63
330
62
100
AcDbEntity
  8
0
100
AcDbBlockBegin
  2
FXTIP_TRIANGLE_S
 70
     0
 10
0.0
 20
0.0
 30
0.0
  3
FXTIP_TRIANGLE_S
  1

  0
LINE
  5
65
330
62
100
AcDbEntity
  8
0
  6
CONTINUOUS
 62
     0
100
AcDbLine
 10
0.0
 20
0.0
 30
0.0
 11
-1.0
 21
0.0000000000000001
 31
0.0
  0
LINE
  5
66
330
62
100
AcDbEntity
  8
0
  6
CONTINUOUS
 62
     0
100
AcDbLine
 10
0.0
 20
0.0
 30
0.0
 11
-0.9659258262890683
 21
-0.2588190451025206
 31
0.0
  0
LINE
  5
67
330
62
100
AcDbEntity
  8
0
  6
CONTINUOUS
 62
     0
100
AcDbLine
 10
0.0
 20
0.0
 30
0.0
 11
-0.9659258262890683
 21
0.2588190451025209
 31
0.0
  0
LINE
  5
68
330
62
100
AcDbEntity
  8
0
  6
CONTINUOUS
 62
     0
100
AcDbLine
 10
-0.9659258262890683
 20
-0.2588190451025206
 30
0.0
 11
-0.9659258262890683
 21
0.2588190451025209
 31
0.0
  0
ENDBLK
  5
64
330
62
100
AcDbEntity
  8
0
100
AcDbBlockEnd
  0
BLOCK
  5
6A
330
69
100
AcDbEntity
  8
0
100
AcDbBlockBegin
  2
FXTIP_TRIANGLE_E
 70
     0
 10
0.0
 20
0.0
 30
0.0
  3
FXTIP_TRIANGLE_E
  1

  0
LINE
  5
6C
330
69
100
AcDbEntity
  8
0
  6
CONTINUOUS
 62
     0
100
AcDbLine
 10
0.0
 20
0.0
 30
0.0
 11
-1.0
 21
0.0
 31
0.0
  0
LINE
  5
6D
330
69
100
AcDbEntity
  8
0
  6
CONTINUOUS
 62
     0
100
AcDbLine
 10
0.0
 20
0.0
 30
0.0
 11
-0.9659258262890683
 21
0.2588190451025207
 31
0.0
  0
LINE
  5
6E
330
69
100
AcDbEntity
  8
0
  6
CONTINUOUS
 62
     0
100
AcDbLine
 10
0.0
 20
0.0
 30
0.0
 11
-0.9659258262890683
 21
-0.2588190451025207
 31
0.0
  0
LINE
  5
6F
330
69
100
AcDbEntity
  8
0
  6
CONTINUOUS
 62
     0
100
AcDbLine
 10
-0.9659258262890683
 20
0.2588190451025207
 30
0.0
 11
-0.9659258262890683
 21
-0.2588190451025207
 31
0.0
  0
ENDBLK
  5
6B
330
69
100
AcDbEntity
  8
0
100
AcDbBlockEnd
  0
BLOCK
  5
71
330
70
100
AcDbEntity
  8
0
100
AcDbBlockBegin
  2
FXTIP_ARCHITECT_S
 70
     0
 10
0.0
 20
0.0
 30
0.0
  3
FXTIP_ARCHITECT_S
  1

  0
LINE
  5
73
330
70
100
AcDbEntity
  8
0
  6
CONTINUOUS
 62
     0
100
AcDbLine
 10
0.0
 20
0.0
 30
0.0
 11
-1.0
 21
0.0000000000000001
 31
0.0
  0
LINE
  5
74
330
70
100
AcDbEntity
  8
0
  6
CONTINUOUS
 62
     0
100
AcDbLine
 10
0.0
 20
0.0
 30
0.0
 11
-0.7071067811865476
 21
-0.7071067811865474
 31
0.0
  0
LINE
  5
75
330
70
100
AcDbEntity
  8
0
  6
CONTINUOUS
 62
     0
100
AcDbLine
 10
0.0
 20
0.0
 30
0.0
 11
0.7071067811865476
 21
0.7071067811865474
 31
0.0
  0
ENDBLK
  5
72
330
70
100
AcDbEntity
  8
0
100
AcDbBlockEnd
  0
BLOCK
  5
77
330
76
100
AcDbEntity
  8
0
100
AcDbBlockBegin
  2
FXTIP_ARCHITECT_E
 70
     0
 10
0.0
 20
0.0
 30
0.0
  3
FXTIP_ARCHITECT_E
  1

  0
LINE
  5
79
330
76
100
AcDbEntity
  8
0
  6
CONTINUOUS
 62
     0
100
AcDbLine
 10
0.0
 20
0.0
 30
0.0
 11
-1.0
 21
0.0
 31
0.0
  0
LINE
  5
7A
330
76
100
AcDbEntity
  8
0
  6
CONTINUOUS
 62
     0
100
AcDbLine
 10
0.0
 20
0.0
 30
0.0
 11
0.7071067811865475
 21
0.7071067811865475
 31
0.0
  0
LINE
  5
7B
330
76
100
AcDbEntity
  8
0
  6
CONTINUOUS
 62
     0
100
AcDbLine
 10
0.0
 20
0.0
 30
0.0
 11
-0.7071067811865475
 21
-0.7071067811865475
 31
0.0
  0
ENDBLK
  5
78
330
76
100
AcDbEntity
  8
0
100
AcDbBlockEnd
  0
BLOCK
  5
7D
330
7C
100
AcDbEntity
  8
0
100
AcDbBlockBegin
  2
FXTIP_CIVIL_S
 70
     0
 10
0.0
 20
0.0
 30
0.0
  3
FXTIP_CIVIL_S
  1

  0
LINE
  5
7F
330
7C
100
AcDbEntity
  8
0
  6
CONTINUOUS
 62
     0
100
AcDbLine
 10
0.0
 20
0.0
 30
0.0
 11
-1.0
 21
0.0000000000000001
 31
0.0
  0
LINE
  5
80
330
7C
100
AcDbEntity
  8
0
  6
CONTINUOUS
 62
     0
100
AcDbLine
 10
0.0
 20
-0.0625
 30
0.0
 11
-1.0
 21
-0.0624999999999999
 31
0.0
  0
LINE
  5
81
330
7C
100
AcDbEntity
  8
0
  6
CONTINUOUS
 62
     0
100
AcDbLine
 10
0.0
 20
-0.125
 30
0.0
 11
-1.0
 21
-0.1249999999999999
 31
0.0
  0
ENDBLK
  5
7E
330
7C
100
AcDbEntity
  8
0
100
AcDbBlockEnd
  0
BLOCK
  5
83
330
82
100
AcDbEntity
  8
0
100
AcDbBlockBegin
  2
FXTIP_CIVIL_E
 70
     0
 10
0.0
 20
0.0
 30
0.0
  3
FXTIP_CIVIL_E
  1

  0
LINE
  5
85
330
82
100
AcDbEntity
  8
0
  6
CONTINUOUS
 62
     0
100
AcDbLine
 10
0.0
 20
0.0
 30
0.0
 11
-1.0
 21
0.0
 31
0.0
  0
LINE
  5
86
330
82
100
AcDbEntity
  8
0
  6
CONTINUOUS
 62
     0
100
AcDbLine
 10
0.0
 20
0.0625
 30
0.0
 11
-1.0
 21
0.0625
 31
0.0
  0
LINE
  5
87
330
82
100
AcDbEntity
  8
0
  6
CONTINUOUS
 62
     0
100
AcDbLine
 10
0.0
 20
0.125
 30
0.0
 11
-1.0
 21
0.125
 31
0.0
  0
ENDBLK
  5
84
330
82
100
AcDbEntity
  8
0
100
AcDbBlockEnd
  0
BLOCK
  5
89
330
88
100
AcDbEntity
  8
0
100
AcDbBlockBegin
  2
FXTIP_WHITEDOT_S
 70
     0
 10
0.0
 20
0.0
 30
0.0
  3
FXTIP_WHITEDOT_S
  1

  0
LINE
  5
8B
330
88
100
AcDbEntity
  8
0
  6
CONTINUOUS
 62
     0
100
AcDbLine
 10
0.0
 20
0.0
 30
0.0
 11
-1.0
 21
0.0000000000000001
 31
0.0
  0
CIRCLE
  5
8C
330
88
100
AcDbEntity
  8
0
  6
CONTINUOUS
 62
     0
100
AcDbCircle
 10
0.0
 20
0.0
 30
0.0
 40
0.25
  0
ENDBLK
  5
8A
330
88
100
AcDbEntity
  8
0
100
AcDbBlockEnd
  0
BLOCK
  5
8E
330
8D
100
AcDbEntity
  8
0
100
AcDbBlockBegin
  2
FXTIP_WHITEDOT_E
 70
     0
 10
0.0
 20
0.0
 30
0.0
  3
FXTIP_WHITEDOT_E
  1

  0
LINE
  5
90
330
8D
100
AcDbEntity
  8
0
  6
CONTINUOUS
 62
     0
100
AcDbLine
 10
0.0
 20
0.0
 30
0.0
 11
-1.0
 21
0.0
 31
0.0
  0
CIRCLE
  5
91
330
8D
100
AcDbEntity
  8
0
  6
CONTINUOUS
 62
     0
100
AcDbCircle
 10
0.0
 20
0.0
 30
0.0
 40
0.25
  0
ENDBLK
  5
8F
330
8D
100
AcDbEntity
  8
0
100
AcDbBlockEnd
  0
BLOCK
  5
93
330
92
100
AcDbEntity
  8
0
100
AcDbBlockBegin
  2
FXTIP_UPARROW_S
 70
     0
 10
0.0
 20
0.0
 30
0.0
  3
FXTIP_UPARROW_S
  1

  0
LINE
  5
95
330
92
100
AcDbEntity
  8
0
  6
CONTINUOUS
 62
     0
100
AcDbLine
 10
0.0
 20
0.0
 30
0.0
 11
-1.0
 21
0.0000000000000001
 31
0.0
  0
LINE
  5
96
330
92
100
AcDbEntity
  8
0
  6
CONTINUOUS
 62
     0
100
AcDbLine
 10
0.0
 20
0.0
 30
0.0
 11
-0.9659258262890683
 21
-0.2588190451025206
 31
0.0
  0
ENDBLK
  5
94
330
92
100
AcDbEntity
  8
0
100
AcDbBlockEnd
  0
BLOCK
  5
98
330
97
100
AcDbEntity
  8
0
100
AcDbBlockBegin
  2
FXTIP_UPARROW_E
 70
     0
 10
0.0
 20
0.0
 30
0.0
  3
FXTIP_UPARROW_E
  1

  0
LINE
  5
9A
330
97
100
AcDbEntity
  8
0
  6
CONTINUOUS
 62
     0
100
AcDbLine
 10
0.0
 20
0.0
 30
0.0
 11
-1.0
 21
0.0
 31
0.0
  0
LINE
  5
9B
330
97
100
AcDbEntity
  8
0
  6
CONTINUOUS
 62
     0
100
AcDbLine
 10
0.0
 20
0.0
 30
0.0
 11
-0.9659258262890683
 21
0.2588190451025207
 31
0.0
  0
ENDBLK
  5
99
330
97
100
AcDbEntity
  8
0
100
AcDbBlockEnd
  0
BLOCK
  5
9D
330
9C
100
AcDbEntity
  8
0
100
AcDbBlockBegin
  2
FXTIP_DOWNARROW_S
 70
     0
 10
0.0
 20
0.0
 30
0.0
  3
FXTIP_DOWNARROW_S
  1

  0
LINE
  5
9F
330
9C
100
AcDbEntity
  8
0
  6
CONTINUOUS
 62
     0
100
AcDbLine
 10
0.0
 20
0.0
 30
0.0
 11
-1.0
 21
0.0000000000000001
 31
0.0
  0
LINE
  5
A0
330
9C
100
AcDbEntity
  8
0
  6
CONTINUOUS
 62
     0
100
AcDbLine
 10
0.0
 20
0.0
 30
0.0
 11
-0.9659258262890683
 21
0.2588190451025209
 31
0.0
  0
ENDBLK
  5
9E
330
9C
100
AcDbEntity
  8
0
100
AcDbBlockEnd
  0
BLOCK
  5
A2
330
A1
100
AcDbEntity
  8
0
100
AcDbBlockBegin
  2
FXTIP_DOWNARROW_E
 70
     0
 10
0.0
 20
0.0
 30
0.0
  3
FXTIP_DOWNARROW_E
  1

  0
LINE
  5
A4
330
A1
100
AcDbEntity
  8
0
  6
CONTINUOUS
 62
     0
100
AcDbLine
 10
0.0
 20
0.0
 30
0.0
 11
-1.0
 21
0.0
 31
0.0
  0
LINE
  5
A5
330
A1
100
AcDbEntity
  8
0
  6
CONTINUOUS
 62
     0
100
AcDbLine
 10
0.0
 20
0.0
 30
0.0
 11
-0.9659258262890683
 21
-0.2588190451025207
 31
0.0
  0
ENDBLK
  5
A3
330
A1
100
AcDbEntity
  8
0
100
AcDbBlockEnd
  0
BLOCK
  5
A7
330
A6
100
AcDbEntity
  8
0
100
AcDbBlockBegin
  2
FXTIP_BLACKTRIANGLE_S
 70
     0
 10
0.0
 20
0.0
 30
0.0
  3
FXTIP_BLACKTRIANGLE_S
  1

  0
LINE
  5
A9
330
A6
100
AcDbEntity
  8
0
  6
CONTINUOUS
 62
     0
100
AcDbLine
 10
0.0
 20
0.0
 30
0.0
 11
-1.0
 21
0.0000000000000001
 31
0.0
  0
SOLID
  5
AA
330
A6
100
AcDbEntity
  8
0
  6
CONTINUOUS
 62
     0
100
AcDbTrace
 10
0.0
 20
0.0
 30
0.0
 11
-0.9659258262890683
 21
-0.2588190451025206
 31
0.0
 12
-0.9659258262890683
 22
0.2588190451025209
 32
0.0
 13
-0.9659258262890683
 23
0.2588190451025209
 33
0.0
  0
ENDBLK
  5
A8
330
A6
100
AcDbEntity
  8
0
100
AcDbBlockEnd
  0
BLOCK
  5
AC
330
AB
100
AcDbEntity
  8
0
100
AcDbBlockBegin
  2
FXTIP_BLACKTRIANGLE_E
 70
     0
 10
0.0
 20
0.0
 30
0.0
  3
FXTIP_BLACKTRIANGLE_E
  1

  0
LINE
  5
AE
330
AB
100
AcDbEntity
  8
0
  6
CONTINUOUS
 62
     0
100
AcDbLine
 10
0.0
 20
0.0
 30
0.0
 11
-1.0
 21
0.0
 31
0.0
  0
SOLID
  5
AF
330
AB
100
AcDbEntity
  8
0
  6
CONTINUOUS
 62
     0
100
AcDbTrace
 10
0.0
 20
0.0
 30
0.0
 11
-0.9659258262890683
 21
0.2588190451025207
 31
0.0
 12
-0.9659258262890683
 22
-0.2588190451025207
 32
0.0
 13
-0.9659258262890683
 23
-0.2588190451025207
 33
0.0
  0
ENDBLK
  5
AD
330
AB
100
AcDbEntity
  8
0
100
AcDbBlockEnd
  0
BLOCK
  5
170
330
16F
100
AcDbEntity
  8
0
100
AcDbBlockBegin
  2
BLKF023
 70
     0
 10
0.0
 20
0.0
 30
0.0
  3
BLKF023
  1

  0
LINE
  5
173
330
16F
100
AcDbEntity
  8
GR1_01
  6
CONTINUOUS
 62
     7
100
AcDbLine
 10
240.9859810140075
 20
207.4900900394367
 30
0.0
 11
241.0048827601643
 21
207.9230112018684
 31
0.0
  0
LINE
  5
174
330
16F
100
AcDbEntity
  8
GR1_01
  6
CONTINUOUS
 62
     7
100
AcDbLine
 10
240.7600695597132
 20
207.2830803312993
 30
0.0
 11
240.7978730520268
 21
208.1489226561626
 31
0.0
  0
LINE
  5
175
330
16F
100
AcDbEntity
  8
GR1_01
  6
CONTINUOUS
 62
     7
100
AcDbLine
 10
240.5341581054189
 20
207.0760706231618
 30
0.0
 11
240.5908633438894
 21
208.3748341104569
 31
0.0
  0
LINE
  5
176
330
16F
100
AcDbEntity
  8
GR1_01
  6
CONTINUOUS
 62
     7
100
AcDbLine
 10
240.3082466511247
 20
206.8690609150244
 30
0.0
 11
240.383853635752
 21
208.6007455647511
 31
0.0
  0
LINE
  5
177
330
16F
100
AcDbEntity
  8
GR1_01
  6
CONTINUOUS
 62
     7
100
AcDbLine
 10
240.0823351968305
 20
206.662051206887
 30
0.0
 11
240.1475376685575
 21
208.1554333325017
 31
0.0
  0
LINE
  5
178
330
16F
100
AcDbEntity
  8
GR1_01
  6
CONTINUOUS
 62
     7
100
AcDbLine
 10
240.1653780959264
 20
208.564046298243
 30
0.0
 11
240.1768439276146
 21
208.8266570190453
 31
0.0
  0
LINE
  5
179
330
16F
100
AcDbEntity
  8
GR1_01
  6
CONTINUOUS
 62
     7
100
AcDbLine
 10
239.8564237425363
 20
206.4550414987496
 30
0.0
 11
239.9216262142633
 21
207.9484236243643
 31
0.0
  0
LINE
  5
17A
330
16F
100
AcDbEntity
  8
GR1_01
  6
CONTINUOUS
 62
     7
100
AcDbLine
 10
239.958368387789
 20
208.7899577525373
 30
0.0
 11
239.9698342194771
 21
209.0525684733396
 31
0.0
  0
LINE
  5
17B
330
16F
100
AcDbEntity
  8
GR1_01
  6
CONTINUOUS
 62
     7
100
AcDbLine
 10
239.630512288242
 20
206.2480317906122
 30
0.0
 11
239.695714759969
 21
207.7414139162269
 31
0.0
  0
LINE
  5
17C
330
16F
100
AcDbEntity
  8
GR1_01
  6
CONTINUOUS
 62
     7
100
AcDbLine
 10
239.7513586796516
 20
209.0158692068315
 30
0.0
 11
239.7628245113397
 21
209.2784799276338
 31
0.0
  0
LINE
  5
17D
330
16F
100
AcDbEntity
  8
GR1_01
  6
CONTINUOUS
 62
     7
100
AcDbLine
 10
239.4046008339477
 20
206.0410220824748
 30
0.0
 11
239.4775212070954
 21
207.7111732127528
 31
0.0
  0
LINE
  5
17E
330
16F
100
AcDbEntity
  8
GR1_01
  6
CONTINUOUS
 62
     7
100
AcDbLine
 10
239.5443489715142
 20
209.2417806611258
 30
0.0
 11
239.5558148032023
 21
209.504391381928
 31
0.0
  0
LINE
  5
17F
330
16F
100
AcDbEntity
  8
GR1_01
  6
CONTINUOUS
 62
     7
100
AcDbLine
 10
239.1786893796535
 20
205.8340123743373
 30
0.0
 11
239.270511498958
 21
207.9370846670471
 31
0.0
  0
LINE
  5
180
330
16F
100
AcDbEntity
  8
GR1_01
  6
CONTINUOUS
 62
     7
100
AcDbLine
 10
239.3373392633767
 20
209.46769211542
 30
0.0
 11
239.3488050950649
 21
209.7303028362223
 31
0.0
  0
LINE
  5
181
330
16F
100
AcDbEntity
  8
GR1_01
  6
CONTINUOUS
 62
     7
100
AcDbLine
 10
238.9527779253593
 20
205.6270026661998
 30
0.0
 11
239.0635017908206
 21
208.1629961213414
 31
0.0
  0
LINE
  5
182
330
16F
100
AcDbEntity
  8
GR1_01
  6
CONTINUOUS
 62
     7
100
AcDbLine
 10
239.1303295552393
 20
209.6936035697142
 30
0.0
 11
239.1417953869275
 21
209.9562142905165
 31
0.0
  0
LINE
  5
183
330
16F
100
AcDbEntity
  8
GR1_01
  6
CONTINUOUS
 62
     7
100
AcDbLine
 10
238.7268664710651
 20
205.4199929580625
 30
0.0
 11
238.8509696240801
 21
208.2624224785393
 31
0.0
  0
LINE
  5
184
330
16F
100
AcDbEntity
  8
GR1_01
  6
CONTINUOUS
 62
     7
100
AcDbLine
 10
238.9233198471019
 20
209.9195150240085
 30
0.0
 11
238.93478567879
 21
210.1821257448108
 31
0.0
  0
LINE
  5
185
330
16F
100
AcDbEntity
  8
GR1_01
  6
CONTINUOUS
 62
     7
100
AcDbLine
 10
238.5009550167707
 20
205.2129832499251
 30
0.0
 11
238.5198567629276
 21
205.6459044123567
 31
0.0
  0
LINE
  5
186
330
16F
100
AcDbEntity
  8
GR1_01
  6
CONTINUOUS
 62
     7
100
AcDbLine
 10
238.701438310027
 20
209.8048055950439
 30
0.0
 11
238.7277759706525
 21
210.408037199105
 31
0.0
  0
LINE
  5
187
330
16F
100
AcDbEntity
  8
GR1_01
  6
CONTINUOUS
 62
     7
100
AcDbLine
 10
238.2750435624765
 20
205.0059735417877
 30
0.0
 11
238.3033961817117
 21
205.6553552854351
 31
0.0
  0
LINE
  5
188
330
16F
100
AcDbEntity
  8
GR1_01
  6
CONTINUOUS
 62
     7
100
AcDbLine
 10
238.4755268557328
 20
209.5977958869065
 30
0.0
 11
238.5207662625152
 21
210.6339486533992
 31
0.0
  0
LINE
  5
189
330
16F
100
AcDbEntity
  8
GR1_01
  6
CONTINUOUS
 62
     7
100
AcDbLine
 10
238.0491321081823
 20
204.7989638336502
 30
0.0
 11
238.086935600496
 21
205.6648061585136
 31
0.0
  0
LINE
  5
18A
330
16F
100
AcDbEntity
  8
GR1_01
  6
CONTINUOUS
 62
     7
100
AcDbLine
 10
238.2496154014386
 20
209.3907861787691
 30
0.0
 11
238.2696637307642
 21
209.8499684132809
 31
0.0
  0
LINE
  5
18B
330
16F
100
AcDbEntity
  8
GR1_01
  6
CONTINUOUS
 62
     7
100
AcDbLine
 10
238.2759530620641
 20
209.9940177828301
 30
0.0
 11
238.3137565543778
 21
210.8598601076935
 31
0.0
  0
LINE
  5
18C
330
16F
100
AcDbEntity
  8
GR1_01
  6
CONTINUOUS
 62
     7
100
AcDbLine
 10
237.8232206538881
 20
204.5919541255128
 30
0.0
 11
237.8704750192801
 21
205.674257031592
 31
0.0
  0
LINE
  5
18D
330
16F
100
AcDbEntity
  8
GR1_01
  6
CONTINUOUS
 62
     7
100
AcDbLine
 10
238.0237039471443
 20
209.1837764706317
 30
0.0
 11
238.04375227647
 21
209.6429587051435
 31
0.0
  0
LINE
  5
18E
330
16F
100
AcDbEntity
  8
GR1_01
  6
CONTINUOUS
 62
     7
100
AcDbLine
 10
238.0594924808482
 20
210.0034686559085
 30
0.0
 11
238.1067468462403
 21
211.0857715619877
 31
0.0
  0
LINE
  5
18F
330
16F
100
AcDbEntity
  8
GR1_01
  6
CONTINUOUS
 62
     7
100
AcDbLine
 10
237.5973091995938
 20
204.3849444173754
 30
0.0
 11
237.6540144380643
 21
205.6837079046703
 31
0.0
  0
LINE
  5
190
330
16F
100
AcDbEntity
  8
GR1_01
  6
CONTINUOUS
 62
     7
100
AcDbLine
 10
237.79779249285
 20
208.9767667624943
 30
0.0
 11
237.8178408221757
 21
209.4359489970061
 31
0.0
  0
LINE
  5
191
330
16F
100
AcDbEntity
  8
GR1_01
  6
CONTINUOUS
 62
     7
100
AcDbLine
 10
237.8430318996324
 20
210.012919528987
 30
0.0
 11
237.8997371381029
 21
211.311683016282
 31
0.0
  0
LINE
  5
192
330
16F
100
AcDbEntity
  8
GR1_01
  6
CONTINUOUS
 62
     7
100
AcDbLine
 10
237.3713977452996
 20
204.1779347092379
 30
0.0
 11
237.4375538568484
 21
205.6931587777487
 31
0.0
  0
LINE
  5
193
330
16F
100
AcDbEntity
  8
GR1_01
  6
CONTINUOUS
 62
     7
100
AcDbLine
 10
237.4848082222405
 20
206.7754616838279
 30
0.0
 11
237.5383656536024
 21
208.0021285351171
 31
0.0
  0
LINE
  5
194
330
16F
100
AcDbEntity
  8
GR1_01
  6
CONTINUOUS
 62
     7
100
AcDbLine
 10
237.5718810385558
 20
208.7697570543568
 30
0.0
 11
237.5919293678815
 21
209.2289392888687
 31
0.0
  0
LINE
  5
195
330
16F
100
AcDbEntity
  8
GR1_01
  6
CONTINUOUS
 62
     7
100
AcDbLine
 10
237.6265713184166
 20
210.0223704020654
 30
0.0
 11
237.6927274299655
 21
211.5375944705762
 31
0.0
  0
LINE
  5
196
330
16F
100
AcDbEntity
  8
GR1_01
  6
CONTINUOUS
 62
     7
100
AcDbLine
 10
237.1454862910053
 20
203.9709250011006
 30
0.0
 11
237.2210932756326
 21
205.7026096508271
 31
0.0
  0
LINE
  5
197
330
16F
100
AcDbEntity
  8
GR1_01
  6
CONTINUOUS
 62
     7
100
AcDbLine
 10
237.2683476410246
 20
206.7849125569063
 30
0.0
 11
237.3125557020522
 21
207.7974436220329
 31
0.0
  0
LINE
  5
198
330
16F
100
AcDbEntity
  8
GR1_01
  6
CONTINUOUS
 62
     7
100
AcDbLine
 10
237.3459695842616
 20
208.5627473462194
 30
0.0
 11
237.3660179135871
 21
209.0219295807312
 31
0.0
  0
LINE
  5
199
330
16F
100
AcDbEntity
  8
GR1_01
  6
CONTINUOUS
 62
     7
100
AcDbLine
 10
237.4101107372007
 20
210.0318212751437
 30
0.0
 11
237.4857177218281
 21
211.7635059248704
 31
0.0
  0
LINE
  5
19A
330
16F
100
AcDbEntity
  8
GR1_01
  6
CONTINUOUS
 62
     7
100
AcDbLine
 10
236.9195748367111
 20
203.7639152929631
 30
0.0
 11
237.0046326944168
 21
205.7120605239056
 31
0.0
  0
LINE
  5
19B
330
16F
100
AcDbEntity
  8
GR1_01
  6
CONTINUOUS
 62
     7
100
AcDbLine
 10
237.0518870598089
 20
206.7943634299848
 30
0.0
 11
237.0866442477579
 21
207.5904339138955
 31
0.0
  0
LINE
  5
19C
330
16F
100
AcDbEntity
  8
GR1_01
  6
CONTINUOUS
 62
     7
100
AcDbLine
 10
237.1200581299673
 20
208.355737638082
 30
0.0
 11
237.1463957905929
 21
208.958969242143
 31
0.0
  0
LINE
  5
19D
330
16F
100
AcDbEntity
  8
GR1_01
  6
CONTINUOUS
 62
     7
100
AcDbLine
 10
237.193650155985
 20
210.0412721482222
 30
0.0
 11
237.2787080136906
 21
211.9894173791647
 31
0.0
  0
LINE
  5
19E
330
16F
100
AcDbEntity
  8
GR1_01
  6
CONTINUOUS
 62
     7
100
AcDbLine
 10
236.6936633824169
 20
203.5569055848256
 30
0.0
 11
236.7881721132009
 21
205.721511396984
 31
0.0
  0
LINE
  5
19F
330
16F
100
AcDbEntity
  8
GR1_01
  6
CONTINUOUS
 62
     7
100
AcDbLine
 10
236.835426478593
 20
206.8038143030631
 30
0.0
 11
236.8712150122969
 21
207.62350648834
 31
0.0
  0
LINE
  5
1A0
330
16F
100
AcDbEntity
  8
GR1_01
  6
CONTINUOUS
 62
     7
100
AcDbLine
 10
236.8941466756732
 20
208.1487279299445
 30
0.0
 11
236.929935209377
 21
208.9684201152214
 31
0.0
  0
LINE
  5
1A1
330
16F
100
AcDbEntity
  8
GR1_01
  6
CONTINUOUS
 62
     7
100
AcDbLine
 10
236.9771895747691
 20
210.0507230213006
 30
0.0
 11
237.0716983055532
 21
212.2153288334589
 31
0.0
  0
LINE
  5
1A2
330
16F
100
AcDbEntity
  8
GR1_01
  6
CONTINUOUS
 62
     7
100
AcDbLine
 10
236.4677519281226
 20
203.3498958766883
 30
0.0
 11
236.5717115319851
 21
205.7309622700624
 31
0.0
  0
LINE
  5
1A3
330
16F
100
AcDbEntity
  8
GR1_01
  6
CONTINUOUS
 62
     7
100
AcDbLine
 10
236.6189658973772
 20
206.8132651761415
 30
0.0
 11
236.6642053041595
 21
207.8494179426343
 31
0.0
  0
LINE
  5
1A4
330
16F
100
AcDbEntity
  8
GR1_01
  6
CONTINUOUS
 62
     7
100
AcDbLine
 10
236.6682352213789
 20
207.9417182218072
 30
0.0
 11
236.7134746281612
 21
208.9778709882998
 31
0.0
  0
LINE
  5
1A5
330
16F
100
AcDbEntity
  8
GR1_01
  6
CONTINUOUS
 62
     7
100
AcDbLine
 10
236.7607289935532
 20
210.0601738943789
 30
0.0
 11
236.8646885974158
 21
212.4412402877532
 31
0.0
  0
LINE
  5
1A6
330
16F
100
AcDbEntity
  8
GR1_01
  6
CONTINUOUS
 62
     7
100
AcDbLine
 10
236.2567123027658
 20
203.4835070518097
 30
0.0
 11
236.3552509507693
 21
205.7404131431408
 31
0.0
  0
LINE
  5
1A7
330
16F
100
AcDbEntity
  8
GR1_01
  6
CONTINUOUS
 62
     7
100
AcDbLine
 10
236.4025053161614
 20
206.8227160492199
 30
0.0
 11
236.4970140469454
 21
208.9873218613782
 31
0.0
  0
LINE
  5
1A8
330
16F
100
AcDbEntity
  8
GR1_01
  6
CONTINUOUS
 62
     7
100
AcDbLine
 10
236.5442684123375
 20
210.0696247674574
 30
0.0
 11
236.6428070603409
 21
212.3265308587885
 31
0.0
  0
LINE
  5
1A9
330
16F
100
AcDbEntity
  8
GR1_01
  6
CONTINUOUS
 62
     7
100
AcDbLine
 10
236.0497025946284
 20
203.7094185061039
 30
0.0
 11
236.1387903695534
 21
205.7498640162192
 31
0.0
  0
LINE
  5
1AA
330
16F
100
AcDbEntity
  8
GR1_01
  6
CONTINUOUS
 62
     7
100
AcDbLine
 10
236.1860447349455
 20
206.8321669222983
 30
0.0
 11
236.2805534657295
 21
208.9967727344566
 31
0.0
  0
LINE
  5
1AB
330
16F
100
AcDbEntity
  8
GR1_01
  6
CONTINUOUS
 62
     7
100
AcDbLine
 10
236.3278078311216
 20
210.0790756405358
 30
0.0
 11
236.4168956060467
 21
212.1195211506511
 31
0.0
  0
LINE
  5
1AC
330
16F
100
AcDbEntity
  8
GR1_01
  6
CONTINUOUS
 62
     7
100
AcDbLine
 10
235.842692886491
 20
203.9353299603981
 30
0.0
 11
235.9223297883376
 21
205.7593148892976
 31
0.0
  0
LINE
  5
1AD
330
16F
100
AcDbEntity
  8
GR1_01
  6
CONTINUOUS
 62
     7
100
AcDbLine
 10
235.9695841537297
 20
206.8416177953768
 30
0.0
 11
236.0640928845138
 21
209.0062236075351
 31
0.0
  0
LINE
  5
1AE
330
16F
100
AcDbEntity
  8
GR1_01
  6
CONTINUOUS
 62
     7
100
AcDbLine
 10
236.1113472499058
 20
210.0885265136143
 30
0.0
 11
236.1909841517524
 21
211.9125114425138
 31
0.0
  0
LINE
  5
1AF
330
16F
100
AcDbEntity
  8
GR1_01
  6
CONTINUOUS
 62
     7
100
AcDbLine
 10
235.6356831783536
 20
204.1612414146924
 30
0.0
 11
235.7058692071218
 21
205.768765762376
 31
0.0
  0
LINE
  5
1B0
330
16F
100
AcDbEntity
  8
GR1_01
  6
CONTINUOUS
 62
     7
100
AcDbLine
 10
235.7531235725138
 20
206.8510686684552
 30
0.0
 11
235.8476323032979
 21
209.0156744806135
 31
0.0
  0
LINE
  5
1B1
330
16F
100
AcDbEntity
  8
GR1_01
  6
CONTINUOUS
 62
     7
100
AcDbLine
 10
235.89488666869
 20
210.0979773866927
 30
0.0
 11
235.9650726974582
 21
211.7055017343762
 31
0.0
  0
LINE
  5
1B2
330
16F
100
AcDbEntity
  8
GR1_01
  6
CONTINUOUS
 62
     7
100
AcDbLine
 10
235.4286734702161
 20
204.3871528689866
 30
0.0
 11
235.4894086259059
 21
205.7782166354544
 31
0.0
  0
LINE
  5
1B3
330
16F
100
AcDbEntity
  8
GR1_01
  6
CONTINUOUS
 62
     7
100
AcDbLine
 10
235.536662991298
 20
206.8605195415336
 30
0.0
 11
235.631171722082
 21
209.0251253536919
 31
0.0
  0
LINE
  5
1B4
330
16F
100
AcDbEntity
  8
GR1_01
  6
CONTINUOUS
 62
     7
100
AcDbLine
 10
235.6784260874741
 20
210.107428259771
 30
0.0
 11
235.7391612431639
 21
211.4984920262389
 31
0.0
  0
LINE
  5
1B5
330
16F
100
AcDbEntity
  8
GR1_01
  6
CONTINUOUS
 62
     7
100
AcDbLine
 10
235.2216637620787
 20
204.6130643232809
 30
0.0
 11
235.2729480446902
 21
205.7876675085328
 31
0.0
  0
LINE
  5
1B6
330
16F
100
AcDbEntity
  8
GR1_01
  6
CONTINUOUS
 62
     7
100
AcDbLine
 10
235.4619655062583
 20
210.1168791328495
 30
0.0
 11
235.5132497888697
 21
211.2914823181014
 31
0.0
  0
LINE
  5
1B7
330
16F
100
AcDbEntity
  8
GR1_01
  6
CONTINUOUS
 62
     7
100
AcDbLine
 10
235.0146540539412
 20
204.8389757775751
 30
0.0
 11
235.0564874634743
 21
205.7971183816113
 31
0.0
  0
LINE
  5
1B8
330
16F
100
AcDbEntity
  8
GR1_01
  6
CONTINUOUS
 62
     7
100
AcDbLine
 10
235.2455049250424
 20
210.1263300059279
 30
0.0
 11
235.2873383345755
 21
211.084472609964
 31
0.0
  0
LINE
  5
1B9
330
16F
100
AcDbEntity
  8
GR1_01
  6
CONTINUOUS
 62
     7
100
AcDbLine
 10
234.8076443458039
 20
205.0648872318693
 30
0.0
 11
234.8400268822584
 21
205.8065692546896
 31
0.0
  0
LINE
  5
1BA
330
16F
100
AcDbEntity
  8
GR1_01
  6
CONTINUOUS
 62
     7
100
AcDbLine
 10
235.0290443438267
 20
210.1357808790063
 30
0.0
 11
235.0614268802812
 21
210.8774629018266
 31
0.0
  0
LINE
  5
1BB
330
16F
100
AcDbEntity
  8
GR1_01
  6
CONTINUOUS
 62
     7
100
AcDbLine
 10
234.6006346376664
 20
205.2907986861635
 30
0.0
 11
234.6235663010426
 21
205.816020127768
 31
0.0
  0
LINE
  5
1BC
330
16F
100
AcDbEntity
  8
GR1_01
  6
CONTINUOUS
 62
     7
100
AcDbLine
 10
234.8125837626108
 20
210.1452317520847
 30
0.0
 11
234.835515425987
 21
210.6704531936892
 31
0.0
  0
LINE
  5
1BD
330
16F
100
AcDbEntity
  8
GR1_01
  6
CONTINUOUS
 62
     7
100
AcDbLine
 10
234.393624929529
 20
205.5167101404578
 30
0.0
 11
234.4071057198268
 21
205.8254710008464
 31
0.0
  0
LINE
  5
1BE
330
16F
100
AcDbEntity
  8
GR1_01
  6
CONTINUOUS
 62
     7
100
AcDbLine
 10
234.5961231813949
 20
210.1546826251631
 30
0.0
 11
234.6096039716928
 21
210.4634434855517
 31
0.0
  0
LINE
  5
1BF
330
16F
100
AcDbEntity
  8
GR1_01
  6
CONTINUOUS
 62
     7
100
AcDbLine
 10
234.1866152213915
 20
205.7426215947521
 30
0.0
 11
234.3836925173985
 21
210.2564337774143
 31
0.0
  0
LINE
  5
1C0
330
16F
100
AcDbEntity
  8
GR1_01
  6
CONTINUOUS
 62
     7
100
AcDbLine
 10
233.9796055132541
 20
205.9685330490463
 30
0.0
 11
234.1577810631043
 21
210.0494240692769
 31
0.0
  0
LINE
  5
1C1
330
16F
100
AcDbEntity
  8
GR1_01
  6
CONTINUOUS
 62
     7
100
AcDbLine
 10
233.7725958051167
 20
206.1944445033405
 30
0.0
 11
233.93186960881
 21
209.8424143611394
 31
0.0
  0
LINE
  5
1C2
330
16F
100
AcDbEntity
  8
GR1_01
  6
CONTINUOUS
 62
     7
100
AcDbLine
 10
233.5655860969793
 20
206.4203559576347
 30
0.0
 11
233.7059581545158
 21
209.6354046530021
 31
0.0
  0
LINE
  5
1C3
330
16F
100
AcDbEntity
  8
GR1_01
  6
CONTINUOUS
 62
     7
100
AcDbLine
 10
233.3585763888419
 20
206.646267411929
 30
0.0
 11
233.4800467002216
 21
209.4283949448646
 31
0.0
  0
LINE
  5
1C4
330
16F
100
AcDbEntity
  8
GR1_01
  6
CONTINUOUS
 62
     7
100
AcDbLine
 10
233.1515666807044
 20
206.8721788662233
 30
0.0
 11
233.2541352459273
 21
209.2213852367272
 31
0.0
  0
LINE
  5
1C5
330
16F
100
AcDbEntity
  8
GR1_01
  6
CONTINUOUS
 62
     7
100
AcDbLine
 10
232.9445569725669
 20
207.0980903205175
 30
0.0
 11
233.0282237916331
 21
209.0143755285898
 31
0.0
  0
LINE
  5
1C6
330
16F
100
AcDbEntity
  8
GR1_01
  6
CONTINUOUS
 62
     7
100
AcDbLine
 10
232.7375472644296
 20
207.3240017748117
 30
0.0
 11
232.8023123373389
 21
208.8073658204523
 31
0.0
  0
LINE
  5
1C7
330
16F
100
AcDbEntity
  8
GR1_01
  6
CONTINUOUS
 62
     7
100
AcDbLine
 10
232.5305375562922
 20
207.549913229106
 30
0.0
 11
232.5764008830446
 21
208.600356112315
 31
0.0
  0
LINE
  5
1C8
330
16F
100
AcDbEntity
  8
GR1_01
  6
CONTINUOUS
 62
     7
100
AcDbLine
 10
232.3235278481548
 20
207.7758246834002
 30
0.0
 11
232.3504894287503
 21
208.3933464041776
 31
0.0
  0
LINE
  5
1C9
330
16F
100
AcDbEntity
  8
GR1_01
  6
CONTINUOUS
 62
     7
100
AcDbLine
 10
232.1165181400172
 20
208.0017361376944
 30
0.0
 11
232.1245779744561
 21
208.1863366960401
 31
0.0
  0
ENDBLK
  5
171
330
16F
100
AcDbEntity
  8
0
100
AcDbBlockEnd
  0
BLOCK
  5
213
330
212
100
AcDbEntity
  8
0
100
AcDbBlockBegin
  2
BLKF024
 70
     0
 10
0.0
 20
0.0
 30
0.0
  3
BLKF024
  1

  0
LINE
  5
216
330
212
100
AcDbEntity
  8
図面枠ﾚｲﾔ_01
  6
CONTINUOUS
 62
     7
100
AcDbLine
 10
10.0
 20
10.0
 30
0.0
 11
410.0
 21
10.0
 31
0.0
  0
LINE
  5
217
330
212
100
AcDbEntity
  8
図面枠ﾚｲﾔ_01
  6
CONTINUOUS
 62
     7
100
AcDbLine
 10
10.0
 20
10.0
 30
0.0
 11
10.0
 21
287.0
 31
0.0
  0
LINE
  5
218
330
212
100
AcDbEntity
  8
図面枠ﾚｲﾔ_01
  6
CONTINUOUS
 62
     7
100
AcDbLine
 10
10.0
 20
287.0
 30
0.0
 11
410.0
 21
287.0
 31
0.0
  0
LINE
  5
219
330
212
100
AcDbEntity
  8
図面枠ﾚｲﾔ_01
  6
CONTINUOUS
 62
     7
100
AcDbLine
 10
410.0
 20
287.0
 30
0.0
 11
410.0
 21
10.0
 31
0.0
  0
LINE
  5
21A
330
212
100
AcDbEntity
  8
図面枠ﾚｲﾔ_01
  6
CONTINUOUS
 62
     7
100
AcDbLine
 10
153.0
 20
9.999999999999998
 30
0.0
 11
153.0
 21
20.0
 31
0.0
  0
TEXT
  5
21B
330
212
100
AcDbEntity
  8
図面枠ﾚｲﾔ_01
  6
CONTINUOUS
 62
     7
100
AcDbText
 10
137.7388153076172
 20
11.59687900543213
 30
0.0
 40
6.648748874664307
  1
品名
 41
1.083413404130886
  7
FX_VECTOR
 72
     5
 11
149.0583553314209
 21
11.59687900543213
 31
0.0
100
AcDbText
  0
LINE
  5
21C
330
212
100
AcDbEntity
  8
図面枠ﾚｲﾔ_01
  6
CONTINUOUS
 62
     7
100
AcDbLine
 10
233.0
 20
20.0
 30
0.0
 11
233.0
 21
10.0
 31
0.0
  0
LINE
  5
21D
330
212
100
AcDbEntity
  8
図面枠ﾚｲﾔ_01
  6
CONTINUOUS
 62
     7
100
AcDbLine
 10
133.0
 20
20.0
 30
0.0
 11
410.0
 21
20.0
 31
0.0
  0
INSERT
  5
222
330
212
100
AcDbEntity
  8
0_01
  6
CONTINUOUS
 62
     7
100
AcDbBlockReference
  2
BLKF025
 10
0.0
 20
0.0
 30
0.0
  0
INSERT
  5
22A
330
212
100
AcDbEntity
  8
0_01
  6
CONTINUOUS
 62
     7
100
AcDbBlockReference
  2
BLKF026
 10
0.0
 20
0.0
 30
0.0
  0
HATCH
  5
23A
330
212
100
AcDbEntity
  8
GR1_01
  6
CONTINUOUS
 62
     7
100
AcDbHatch
 10
0.0
 20
0.0
 30
0.0
210
0.0
220
0.0
230
1.0
  2
_USER
 70
     0
 71
     0
 91
        2
 92
        0
 93
        4
 72
     1
 10
338.8018997861325
 20
17.91346152
 11
344.8018997861325
 21
17.91346152
 72
     1
 10
344.8018997861325
 20
17.91346152
 11
344.8018997861325
 21
11.91346152
 72
     1
 10
344.8018997861325
 20
11.91346152
 11
338.8018997861325
 21
11.91346152
 72
     1
 10
338.8018997861325
 20
11.91346152
 11
338.8018997861325
 21
17.91346152
 97
        0
 92
        0
 93
       15
 72
     1
 10
341.8018997861325
 20
17.76923076000002
 11
338.9461305461325
 21
14.91346152
 72
     1
 10
338.9461305461325
 20
14.91346152
 11
341.8018997861325
 21
12.05769228000001
 72
     1
 10
341.8018997861325
 20
12.05769228000001
 11
343.3595920661325
 21
13.61538462
 72
     1
 10
343.3595920661325
 20
13.61538462
 11
343.3595920661325
 21
12.98076924
 72
     1
 10
343.3595920661325
 20
12.98076924
 11
344.2249766861325
 21
12.98076924
 72
     1
 10
344.2249766861325
 20
12.98076924
 11
344.2249766861325
 21
15.00000000000001
 72
     1
 10
344.2249766861325
 20
15.00000000000001
 11
341.8018997861325
 21
15.00000000000001
 72
     1
 10
341.8018997861325
 20
15.00000000000001
 11
341.8018997861325
 21
14.13461538000001
 72
     1
 10
341.8018997861325
 20
14.13461538000001
 11
342.2461305461325
 21
14.13461538000001
 72
     1
 10
342.2461305461325
 20
14.13461538000001
 11
341.8018997861325
 21
13.69038462
 72
     1
 10
341.8018997861325
 20
13.69038462
 11
340.5788228861325
 21
14.91346152
 72
     1
 10
340.5788228861325
 20
14.91346152
 11
341.8018997861325
 21
16.13653842000003
 72
     1
 10
341.8018997861325
 20
16.13653842000003
 11
342.5922844061325
 21
15.3461538
 72
     1
 10
342.5922844061325
 20
15.3461538
 11
344.2249766861325
 21
15.3461538
 72
     1
 10
344.2249766861325
 20
15.3461538
 11
341.8018997861325
 21
17.76923076000002
 97
        0
 75
     0
 76
     0
 52
45.0
 41
0.05
 77
     0
 78
     1
 53
45.0
 43
0.0
 44
0.0
 45
-0.0353553390593274
 46
0.0353553390593274
 79
     0
 98
        0
  0
TEXT
  5
23B
330
212
100
AcDbEntity
  8
図面枠ﾚｲﾔ_01
  6
CONTINUOUS
 62
     7
100
AcDbText
 10
349.2257690429688
 20
11.46128463745117
 30
0.0
 40
6.0
  1
ＧＯＬＤ　ＣＡＳＴＥＲ
 41
0.7897435897435899
  7
FX_VECTOR
 72
     5
 11
393.2257690429688
 21
11.46128463745117
 31
0.0
100
AcDbText
  0
LINE
  5
23C
330
212
100
AcDbEntity
  8
図面枠ﾚｲﾔ_01
  6
CONTINUOUS
 62
     7
100
AcDbLine
 10
253.0
 20
9.999999999999998
 30
0.0
 11
253.0
 21
20.0
 31
0.0
  0
TEXT
  5
23D
330
212
100
AcDbEntity
  8
図面枠ﾚｲﾔ_01
  6
CONTINUOUS
 62
     7
100
AcDbText
 10
237.7388153076172
 20
11.59687900543213
 30
0.0
 40
6.648748874664307
  1
図番
 41
1.083413404130886
  7
FX_VECTOR
 72
     5
 11
249.0583553314209
 21
11.59687900543213
 31
0.0
100
AcDbText
  0
LINE
  5
23E
330
212
100
AcDbEntity
  8
図面枠ﾚｲﾔ_01
  6
CONTINUOUS
 62
     7
100
AcDbLine
 10
333.0
 20
20.0
 30
0.0
 11
333.0
 21
10.0
 31
0.0
  0
LINE
  5
23F
330
212
100
AcDbEntity
  8
図面枠ﾚｲﾔ_01
  6
CONTINUOUS
 62
     7
100
AcDbLine
 10
133.0
 20
20.0
 30
0.0
 11
133.0
 21
10.0
 31
0.0
  0
ENDBLK
  5
214
330
212
100
AcDbEntity
  8
0
100
AcDbBlockEnd
  0
BLOCK
  5
21F
330
21E
100
AcDbEntity
  8
0
100
AcDbBlockBegin
  2
BLKF025
 70
     0
 10
0.0
 20
0.0
 30
0.0
  3
BLKF025
  1

  0
LINE
  5
223
330
21E
100
AcDbEntity
  8
0_01
  6
CONTINUOUS
 62
     7
100
AcDbLine
 10
344.8018997861325
 20
17.91346152
 30
0.0
 11
338.8018997861325
 21
17.91346152
 31
0.0
  0
LINE
  5
224
330
21E
100
AcDbEntity
  8
0_01
  6
CONTINUOUS
 62
     7
100
AcDbLine
 10
338.8018997861325
 20
17.91346152
 30
0.0
 11
338.8018997861325
 21
11.91346152
 31
0.0
  0
LINE
  5
225
330
21E
100
AcDbEntity
  8
0_01
  6
CONTINUOUS
 62
     7
100
AcDbLine
 10
338.8018997861325
 20
11.91346152
 30
0.0
 11
344.8018997861325
 21
11.91346152
 31
0.0
  0
LINE
  5
226
330
21E
100
AcDbEntity
  8
0_01
  6
CONTINUOUS
 62
     7
100
AcDbLine
 10
344.8018997861325
 20
11.91346152
 30
0.0
 11
344.8018997861325
 21
17.91346152
 31
0.0
  0
ENDBLK
  5
220
330
21E
100
AcDbEntity
  8
0
100
AcDbBlockEnd
  0
BLOCK
  5
228
330
227
100
AcDbEntity
  8
0
100
AcDbBlockBegin
  2
BLKF026
 70
     0
 10
0.0
 20
0.0
 30
0.0
  3
BLKF026
  1

  0
LINE
  5
22B
330
227
100
AcDbEntity
  8
0_01
  6
CONTINUOUS
 62
     7
100
AcDbLine
 10
344.2249766861325
 20
15.3461538
 30
0.0
 11
341.8018997861325
 21
17.76923076000002
 31
0.0
  0
LINE
  5
22C
330
227
100
AcDbEntity
  8
0_01
  6
CONTINUOUS
 62
     7
100
AcDbLine
 10
341.8018997861325
 20
17.76923076000002
 30
0.0
 11
338.9461305461325
 21
14.91346152
 31
0.0
  0
LINE
  5
22D
330
227
100
AcDbEntity
  8
0_01
  6
CONTINUOUS
 62
     7
100
AcDbLine
 10
338.9461305461325
 20
14.91346152
 30
0.0
 11
341.8018997861325
 21
12.05769228000001
 31
0.0
  0
LINE
  5
22E
330
227
100
AcDbEntity
  8
0_01
  6
CONTINUOUS
 62
     7
100
AcDbLine
 10
341.8018997861325
 20
12.05769228000001
 30
0.0
 11
343.3595920661325
 21
13.61538462
 31
0.0
  0
LINE
  5
22F
330
227
100
AcDbEntity
  8
0_01
  6
CONTINUOUS
 62
     7
100
AcDbLine
 10
343.3595920661325
 20
13.61538462
 30
0.0
 11
343.3595920661325
 21
12.98076924
 31
0.0
  0
LINE
  5
230
330
227
100
AcDbEntity
  8
0_01
  6
CONTINUOUS
 62
     7
100
AcDbLine
 10
343.3595920661325
 20
12.98076924
 30
0.0
 11
344.2249766861325
 21
12.98076924
 31
0.0
  0
LINE
  5
231
330
227
100
AcDbEntity
  8
0_01
  6
CONTINUOUS
 62
     7
100
AcDbLine
 10
344.2249766861325
 20
12.98076924
 30
0.0
 11
344.2249766861325
 21
15.00000000000001
 31
0.0
  0
LINE
  5
232
330
227
100
AcDbEntity
  8
0_01
  6
CONTINUOUS
 62
     7
100
AcDbLine
 10
344.2249766861325
 20
15.00000000000001
 30
0.0
 11
341.8018997861325
 21
15.00000000000001
 31
0.0
  0
LINE
  5
233
330
227
100
AcDbEntity
  8
0_01
  6
CONTINUOUS
 62
     7
100
AcDbLine
 10
341.8018997861325
 20
15.00000000000001
 30
0.0
 11
341.8018997861325
 21
14.13461538000001
 31
0.0
  0
LINE
  5
234
330
227
100
AcDbEntity
  8
0_01
  6
CONTINUOUS
 62
     7
100
AcDbLine
 10
341.8018997861325
 20
14.13461538000001
 30
0.0
 11
342.2461305461325
 21
14.13461538000001
 31
0.0
  0
LINE
  5
235
330
227
100
AcDbEntity
  8
0_01
  6
CONTINUOUS
 62
     7
100
AcDbLine
 10
342.2461305461325
 20
14.13461538000001
 30
0.0
 11
341.8018997861325
 21
13.69038462
 31
0.0
  0
LINE
  5
236
330
227
100
AcDbEntity
  8
0_01
  6
CONTINUOUS
 62
     7
100
AcDbLine
 10
341.8018997861325
 20
13.69038462
 30
0.0
 11
340.5788228861325
 21
14.91346152
 31
0.0
  0
LINE
  5
237
330
227
100
AcDbEntity
  8
0_01
  6
CONTINUOUS
 62
     7
100
AcDbLine
 10
340.5788228861325
 20
14.91346152
 30
0.0
 11
341.8018997861325
 21
16.13653842000003
 31
0.0
  0
LINE
  5
238
330
227
100
AcDbEntity
  8
0_01
  6
CONTINUOUS
 62
     7
100
AcDbLine
 10
341.8018997861325
 20
16.13653842000003
 30
0.0
 11
342.5922844061325
 21
15.3461538
 31
0.0
  0
LINE
  5
239
330
227
100
AcDbEntity
  8
0_01
  6
CONTINUOUS
 62
     7
100
AcDbLine
 10
342.5922844061325
 20
15.3461538
 30
0.0
 11
344.2249766861325
 21
15.3461538
 31
0.0
  0
ENDBLK
  5
229
330
227
100
AcDbEntity
  8
0
100
AcDbBlockEnd
  0
BLOCK
  5
242
330
241
100
AcDbEntity
  8
0
100
AcDbBlockBegin
  2
BLKF027
 70
     0
 10
0.0
 20
0.0
 30
0.0
  3
BLKF027
  1

  0
LINE
  5
245
330
241
100
AcDbEntity
  8
基準ﾚｲﾔｸ_ﾙ_ﾌ__01
  6
CONTINUOUS
 62
     3
100
AcDbLine
 10
97.2846153846153
 20
142.5
 30
0.0
 11
88.48461538461528
 21
142.5
 31
0.0
  0
LINE
  5
246
330
241
100
AcDbEntity
  8
基準ﾚｲﾔｸ_ﾙ_ﾌ__01
  6
CONTINUOUS
 62
     3
100
AcDbLine
 10
97.88461538461529
 20
143.1
 30
0.0
 11
97.88461538461529
 21
151.9
 31
0.0
  0
LINE
  5
247
330
241
100
AcDbEntity
  8
基準ﾚｲﾔｸ_ﾙ_ﾌ__01
  6
CONTINUOUS
 62
     3
100
AcDbLine
 10
87.88461538461529
 20
143.1
 30
0.0
 11
87.88461538461529
 21
149.1666666666667
 31
0.0
  0
LINE
  5
248
330
241
100
AcDbEntity
  8
基準ﾚｲﾔｸ_ﾙ_ﾌ__01
  6
CONTINUOUS
 62
     3
100
AcDbLine
 10
97.88461538461529
 20
149.1666666666667
 30
0.0
 11
95.77136673056343
 21
149.1666666666667
 31
0.0
  0
LINE
  5
249
330
241
100
AcDbEntity
  8
基準ﾚｲﾔｸ_ﾙ_ﾌ__01
  6
CONTINUOUS
 62
     3
100
AcDbLine
 10
89.99786403866715
 20
149.1666666666667
 30
0.0
 11
84.88461538461529
 21
149.1666666666667
 31
0.0
  0
CIRCLE
  5
24A
330
241
100
AcDbEntity
  8
基準ﾚｲﾔｸ_ﾙ_ﾌ__01
  6
CONTINUOUS
 62
     3
100
AcDbCircle
 10
92.88461538461529
 20
147.5
 30
0.0
 40
3.333333333333333
  0
LINE
  5
24B
330
241
100
AcDbEntity
  8
基準ﾚｲﾔｸ_ﾙ_ﾌ__01
  6
CONTINUOUS
 62
     3
100
AcDbLine
 10
97.2846153846153
 20
152.5
 30
0.0
 11
85.48461538461528
 21
152.5
 31
0.0
  0
ARC
  5
24C
330
241
100
AcDbEntity
  8
基準ﾚｲﾔｸ_ﾙ_ﾌ__01
  6
CONTINUOUS
 62
     3
100
AcDbCircle
 10
97.2846153846153
 20
143.1
 30
0.0
 40
0.6
100
AcDbArc
 50
270.0
 51
0.0
  0
ARC
  5
24D
330
241
100
AcDbEntity
  8
基準ﾚｲﾔｸ_ﾙ_ﾌ__01
  6
CONTINUOUS
 62
     3
100
AcDbCircle
 10
88.48461538461528
 20
143.1
 30
0.0
 40
0.6
100
AcDbArc
 50
180.0
 51
270.0
  0
ARC
  5
24E
330
241
100
AcDbEntity
  8
基準ﾚｲﾔｸ_ﾙ_ﾌ__01
  6
CONTINUOUS
 62
     3
100
AcDbCircle
 10
97.2846153846153
 20
151.9
 30
0.0
 40
0.6
100
AcDbArc
 50
0.0
 51
90.0
  0
LINE
  5
24F
330
241
100
AcDbEntity
  8
基準ﾚｲﾔｸ_ﾙ_ﾌ__01
  6
CONTINUOUS
 62
     3
100
AcDbLine
 10
97.2846153846153
 20
164.5
 30
0.0
 11
85.48461538461528
 21
164.5
 31
0.0
  0
LINE
  5
250
330
241
100
AcDbEntity
  8
基準ﾚｲﾔｸ_ﾙ_ﾌ__01
  6
CONTINUOUS
 62
     3
100
AcDbLine
 10
97.88461538461529
 20
165.1
 30
0.0
 11
97.88461538461529
 21
173.9
 31
0.0
  0
LINE
  5
251
330
241
100
AcDbEntity
  8
基準ﾚｲﾔｸ_ﾙ_ﾌ__01
  6
CONTINUOUS
 62
     3
100
AcDbLine
 10
87.88461538461526
 20
167.8333333333334
 30
0.0
 11
87.88461538461529
 21
173.9
 31
0.0
  0
LINE
  5
252
330
241
100
AcDbEntity
  8
基準ﾚｲﾔｸ_ﾙ_ﾌ__01
  6
CONTINUOUS
 62
     3
100
AcDbLine
 10
97.88461538461529
 20
167.8333333333334
 30
0.0
 11
95.77136673056343
 21
167.8333333333334
 31
0.0
  0
LINE
  5
253
330
241
100
AcDbEntity
  8
基準ﾚｲﾔｸ_ﾙ_ﾌ__01
  6
CONTINUOUS
 62
     3
100
AcDbLine
 10
89.99786403866715
 20
167.8333333333334
 30
0.0
 11
84.88461538461532
 21
167.8333333333334
 31
0.0
  0
CIRCLE
  5
254
330
241
100
AcDbEntity
  8
基準ﾚｲﾔｸ_ﾙ_ﾌ__01
  6
CONTINUOUS
 62
     3
100
AcDbCircle
 10
92.88461538461529
 20
169.5
 30
0.0
 40
3.333333333333333
  0
LINE
  5
255
330
241
100
AcDbEntity
  8
基準ﾚｲﾔｸ_ﾙ_ﾌ__01
  6
CONTINUOUS
 62
     3
100
AcDbLine
 10
97.2846153846153
 20
174.5
 30
0.0
 11
88.48461538461528
 21
174.5
 31
0.0
  0
ARC
  5
256
330
241
100
AcDbEntity
  8
基準ﾚｲﾔｸ_ﾙ_ﾌ__01
  6
CONTINUOUS
 62
     3
100
AcDbCircle
 10
97.2846153846153
 20
165.1
 30
0.0
 40
0.6
100
AcDbArc
 50
270.0
 51
0.0
  0
ARC
  5
257
330
241
100
AcDbEntity
  8
基準ﾚｲﾔｸ_ﾙ_ﾌ__01
  6
CONTINUOUS
 62
     3
100
AcDbCircle
 10
97.2846153846153
 20
173.9
 30
0.0
 40
0.6
100
AcDbArc
 50
0.0
 51
90.0
  0
ARC
  5
258
330
241
100
AcDbEntity
  8
基準ﾚｲﾔｸ_ﾙ_ﾌ__01
  6
CONTINUOUS
 62
     3
100
AcDbCircle
 10
88.48461538461528
 20
173.9
 30
0.0
 40
0.6
100
AcDbArc
 50
90.0
 51
180.0
  0
LINE
  5
259
330
241
100
AcDbEntity
  8
基準ﾚｲﾔｸ_ﾙ_ﾌ__01
  6
CONTINUOUS
 62
     3
100
AcDbLine
 10
96.63461538461529
 20
148.8888888888889
 30
0.0
 11
97.05128205128194
 21
148.8888888888889
 31
0.0
  0
LINE
  5
25A
330
241
100
AcDbEntity
  8
基準ﾚｲﾔｸ_ﾙ_ﾌ__01
  6
CONTINUOUS
 62
     3
100
AcDbLine
 10
97.05128205128194
 20
148.8888888888889
 30
0.0
 11
97.05128205128194
 21
146.25
 31
0.0
  0
LINE
  5
25B
330
241
100
AcDbEntity
  8
基準ﾚｲﾔｸ_ﾙ_ﾌ__01
  6
CONTINUOUS
 62
     3
100
AcDbLine
 10
97.05128205128194
 20
146.25
 30
0.0
 11
96.63461538461529
 21
145.8333333333334
 31
0.0
  0
LINE
  5
25C
330
241
100
AcDbEntity
  8
基準ﾚｲﾔｸ_ﾙ_ﾌ__01
  6
CONTINUOUS
 62
     3
100
AcDbLine
 10
96.63461538461529
 20
145.8333333333334
 30
0.0
 11
96.63461538461529
 21
145.2500000000001
 31
0.0
  0
LINE
  5
25D
330
241
100
AcDbEntity
  8
基準ﾚｲﾔｸ_ﾙ_ﾌ__01
  6
CONTINUOUS
 62
     3
100
AcDbLine
 10
97.46794871794863
 20
145.2500000000001
 30
0.0
 11
97.46794871794863
 21
145.5416666666667
 31
0.0
  0
LINE
  5
25E
330
241
100
AcDbEntity
  8
基準ﾚｲﾔｸ_ﾙ_ﾌ__01
  6
CONTINUOUS
 62
     3
100
AcDbLine
 10
97.46794871794863
 20
145.2500000000001
 30
0.0
 11
97.88461538461529
 21
145.2500000000001
 31
0.0
  0
LINE
  5
25F
330
241
100
AcDbEntity
  8
基準ﾚｲﾔｸ_ﾙ_ﾌ__01
  6
CONTINUOUS
 62
     3
100
AcDbLine
 10
95.77136673056343
 20
145.8333333333334
 30
0.0
 11
96.63461538461529
 21
145.8333333333334
 31
0.0
  0
ARC
  5
260
330
241
100
AcDbEntity
  8
基準ﾚｲﾔｸ_ﾙ_ﾌ__01
  6
CONTINUOUS
 62
     3
100
AcDbCircle
 10
97.05128205128194
 20
145.2500000000001
 30
0.0
 40
0.4166666666666856
100
AcDbArc
 50
180.0
 51
0.0
  0
LINE
  5
261
330
241
100
AcDbEntity
  8
基準ﾚｲﾔｸ_ﾙ_ﾌ__01
  6
CONTINUOUS
 62
     3
100
AcDbLine
 10
89.13461538461529
 20
148.8888888888889
 30
0.0
 11
88.71794871794863
 21
148.8888888888889
 31
0.0
  0
LINE
  5
262
330
241
100
AcDbEntity
  8
基準ﾚｲﾔｸ_ﾙ_ﾌ__01
  6
CONTINUOUS
 62
     3
100
AcDbLine
 10
88.71794871794863
 20
148.8888888888889
 30
0.0
 11
88.71794871794863
 21
146.25
 31
0.0
  0
LINE
  5
263
330
241
100
AcDbEntity
  8
基準ﾚｲﾔｸ_ﾙ_ﾌ__01
  6
CONTINUOUS
 62
     3
100
AcDbLine
 10
88.71794871794863
 20
146.25
 30
0.0
 11
89.13461538461529
 21
145.8333333333334
 31
0.0
  0
LINE
  5
264
330
241
100
AcDbEntity
  8
基準ﾚｲﾔｸ_ﾙ_ﾌ__01
  6
CONTINUOUS
 62
     3
100
AcDbLine
 10
89.13461538461529
 20
145.8333333333334
 30
0.0
 11
89.13461538461529
 21
145.2500000000001
 31
0.0
  0
LINE
  5
265
330
241
100
AcDbEntity
  8
基準ﾚｲﾔｸ_ﾙ_ﾌ__01
  6
CONTINUOUS
 62
     3
100
AcDbLine
 10
88.30128205128194
 20
145.2500000000001
 30
0.0
 11
88.30128205128194
 21
145.5416666666667
 31
0.0
  0
LINE
  5
266
330
241
100
AcDbEntity
  8
基準ﾚｲﾔｸ_ﾙ_ﾌ__01
  6
CONTINUOUS
 62
     3
100
AcDbLine
 10
88.30128205128194
 20
145.2500000000001
 30
0.0
 11
87.88461538461529
 21
145.2500000000001
 31
0.0
  0
LINE
  5
267
330
241
100
AcDbEntity
  8
基準ﾚｲﾔｸ_ﾙ_ﾌ__01
  6
CONTINUOUS
 62
     3
100
AcDbLine
 10
89.99786403866715
 20
145.8333333333334
 30
0.0
 11
89.13461538461529
 21
145.8333333333334
 31
0.0
  0
ARC
  5
268
330
241
100
AcDbEntity
  8
基準ﾚｲﾔｸ_ﾙ_ﾌ__01
  6
CONTINUOUS
 62
     3
100
AcDbCircle
 10
88.71794871794863
 20
145.2500000000001
 30
0.0
 40
0.4166666666666856
100
AcDbArc
 50
180.0
 51
0.0
  0
LINE
  5
269
330
241
100
AcDbEntity
  8
基準ﾚｲﾔｸ_ﾙ_ﾌ__01
  6
CONTINUOUS
 62
     3
100
AcDbLine
 10
96.63461538461529
 20
168.1111111111111
 30
0.0
 11
97.05128205128194
 21
168.1111111111111
 31
0.0
  0
LINE
  5
26A
330
241
100
AcDbEntity
  8
基準ﾚｲﾔｸ_ﾙ_ﾌ__01
  6
CONTINUOUS
 62
     3
100
AcDbLine
 10
97.05128205128194
 20
168.1111111111111
 30
0.0
 11
97.05128205128194
 21
170.75
 31
0.0
  0
LINE
  5
26B
330
241
100
AcDbEntity
  8
基準ﾚｲﾔｸ_ﾙ_ﾌ__01
  6
CONTINUOUS
 62
     3
100
AcDbLine
 10
97.05128205128194
 20
170.75
 30
0.0
 11
96.63461538461529
 21
171.1666666666667
 31
0.0
  0
LINE
  5
26C
330
241
100
AcDbEntity
  8
基準ﾚｲﾔｸ_ﾙ_ﾌ__01
  6
CONTINUOUS
 62
     3
100
AcDbLine
 10
96.63461538461529
 20
171.1666666666667
 30
0.0
 11
96.63461538461529
 21
171.75
 31
0.0
  0
LINE
  5
26D
330
241
100
AcDbEntity
  8
基準ﾚｲﾔｸ_ﾙ_ﾌ__01
  6
CONTINUOUS
 62
     3
100
AcDbLine
 10
97.46794871794863
 20
171.75
 30
0.0
 11
97.46794871794863
 21
171.4583333333333
 31
0.0
  0
LINE
  5
26E
330
241
100
AcDbEntity
  8
基準ﾚｲﾔｸ_ﾙ_ﾌ__01
  6
CONTINUOUS
 62
     3
100
AcDbLine
 10
97.46794871794863
 20
171.75
 30
0.0
 11
97.88461538461529
 21
171.75
 31
0.0
  0
LINE
  5
26F
330
241
100
AcDbEntity
  8
基準ﾚｲﾔｸ_ﾙ_ﾌ__01
  6
CONTINUOUS
 62
     3
100
AcDbLine
 10
95.77136673056343
 20
171.1666666666667
 30
0.0
 11
96.63461538461529
 21
171.1666666666667
 31
0.0
  0
ARC
  5
270
330
241
100
AcDbEntity
  8
基準ﾚｲﾔｸ_ﾙ_ﾌ__01
  6
CONTINUOUS
 62
     3
100
AcDbCircle
 10
97.05128205128194
 20
171.75
 30
0.0
 40
0.4166666666666856
100
AcDbArc
 50
0.0
 51
180.0
  0
LINE
  5
271
330
241
100
AcDbEntity
  8
基準ﾚｲﾔｸ_ﾙ_ﾌ__01
  6
CONTINUOUS
 62
     3
100
AcDbLine
 10
89.13461538461529
 20
168.1111111111111
 30
0.0
 11
88.71794871794863
 21
168.1111111111111
 31
0.0
  0
LINE
  5
272
330
241
100
AcDbEntity
  8
基準ﾚｲﾔｸ_ﾙ_ﾌ__01
  6
CONTINUOUS
 62
     3
100
AcDbLine
 10
88.71794871794863
 20
168.1111111111111
 30
0.0
 11
88.71794871794863
 21
170.75
 31
0.0
  0
LINE
  5
273
330
241
100
AcDbEntity
  8
基準ﾚｲﾔｸ_ﾙ_ﾌ__01
  6
CONTINUOUS
 62
     3
100
AcDbLine
 10
88.71794871794863
 20
170.75
 30
0.0
 11
89.13461538461529
 21
171.1666666666667
 31
0.0
  0
LINE
  5
274
330
241
100
AcDbEntity
  8
基準ﾚｲﾔｸ_ﾙ_ﾌ__01
  6
CONTINUOUS
 62
     3
100
AcDbLine
 10
89.13461538461529
 20
171.1666666666667
 30
0.0
 11
89.13461538461529
 21
171.75
 31
0.0
  0
LINE
  5
275
330
241
100
AcDbEntity
  8
基準ﾚｲﾔｸ_ﾙ_ﾌ__01
  6
CONTINUOUS
 62
     3
100
AcDbLine
 10
88.30128205128194
 20
171.75
 30
0.0
 11
88.30128205128194
 21
171.4583333333333
 31
0.0
  0
LINE
  5
276
330
241
100
AcDbEntity
  8
基準ﾚｲﾔｸ_ﾙ_ﾌ__01
  6
CONTINUOUS
 62
     3
100
AcDbLine
 10
88.30128205128194
 20
171.75
 30
0.0
 11
87.88461538461529
 21
171.75
 31
0.0
  0
LINE
  5
277
330
241
100
AcDbEntity
  8
基準ﾚｲﾔｸ_ﾙ_ﾌ__01
  6
CONTINUOUS
 62
     3
100
AcDbLine
 10
89.99786403866715
 20
171.1666666666667
 30
0.0
 11
89.13461538461529
 21
171.1666666666667
 31
0.0
  0
ARC
  5
278
330
241
100
AcDbEntity
  8
基準ﾚｲﾔｸ_ﾙ_ﾌ__01
  6
CONTINUOUS
 62
     3
100
AcDbCircle
 10
88.71794871794863
 20
171.75
 30
0.0
 40
0.4166666666666856
100
AcDbArc
 50
0.0
 51
180.0
  0
LINE
  5
279
330
241
100
AcDbEntity
  8
基準ﾚｲﾔｸ_ﾙ_ﾌ__01
  6
CONTINUOUS
 62
     3
100
AcDbLine
 10
84.88461538461532
 20
149.1666666666667
 30
0.0
 11
84.88461538461529
 21
151.9
 31
0.0
  0
ARC
  5
27A
330
241
100
AcDbEntity
  8
基準ﾚｲﾔｸ_ﾙ_ﾌ__01
  6
CONTINUOUS
 62
     3
100
AcDbCircle
 10
85.48461538461528
 20
151.9
 30
0.0
 40
0.6
100
AcDbArc
 50
90.0
 51
180.0
  0
LINE
  5
27B
330
241
100
AcDbEntity
  8
基準ﾚｲﾔｸ_ﾙ_ﾌ__01
  6
CONTINUOUS
 62
     3
100
AcDbLine
 10
84.88461538461529
 20
165.1
 30
0.0
 11
84.88461538461529
 21
167.8333333333334
 31
0.0
  0
ARC
  5
27C
330
241
100
AcDbEntity
  8
基準ﾚｲﾔｸ_ﾙ_ﾌ__01
  6
CONTINUOUS
 62
     3
100
AcDbCircle
 10
85.48461538461528
 20
165.1
 30
0.0
 40
0.6
100
AcDbArc
 50
180.0
 51
270.0
  0
LINE
  5
27D
330
241
100
AcDbEntity
  8
基準ﾚｲﾔｸ_ﾙ_ﾌ__01
  6
CONTINUOUS
 62
     6
100
AcDbLine
 10
84.88461538461529
 20
151.9
 30
0.0
 11
84.88461538461529
 21
165.1
 31
0.0
  0
LINE
  5
27E
330
241
100
AcDbEntity
  8
基準ﾚｲﾔｸ_ﾙ_ﾌ__01
  6
CONTINUOUS
 62
     6
100
AcDbLine
 10
97.88461538461529
 20
151.9
 30
0.0
 11
97.88461538461529
 21
165.1
 31
0.0
  0
ENDBLK
  5
243
330
241
100
AcDbEntity
  8
0
100
AcDbBlockEnd
  0
BLOCK
  5
280
330
27F
100
AcDbEntity
  8
0
100
AcDbBlockBegin
  2
BLKF028
 70
     0
 10
0.0
 20
0.0
 30
0.0
  3
BLKF028
  1

  0
LINE
  5
283
330
27F
100
AcDbEntity
  8
基準ﾚｲﾔｸ_ﾙ_ﾌ__01
  6
CONTINUOUS
 62
     3
100
AcDbLine
 10
126.4846153846154
 20
142.5
 30
0.0
 11
135.2846153846154
 21
142.5
 31
0.0
  0
LINE
  5
284
330
27F
100
AcDbEntity
  8
基準ﾚｲﾔｸ_ﾙ_ﾌ__01
  6
CONTINUOUS
 62
     3
100
AcDbLine
 10
125.8846153846154
 20
143.1
 30
0.0
 11
125.8846153846154
 21
151.9
 31
0.0
  0
LINE
  5
285
330
27F
100
AcDbEntity
  8
基準ﾚｲﾔｸ_ﾙ_ﾌ__01
  6
CONTINUOUS
 62
     3
100
AcDbLine
 10
135.8846153846154
 20
143.1
 30
0.0
 11
135.8846153846154
 21
149.1666666666667
 31
0.0
  0
LINE
  5
286
330
27F
100
AcDbEntity
  8
基準ﾚｲﾔｸ_ﾙ_ﾌ__01
  6
CONTINUOUS
 62
     3
100
AcDbLine
 10
125.8846153846154
 20
149.1666666666667
 30
0.0
 11
127.9978640386672
 21
149.1666666666667
 31
0.0
  0
LINE
  5
287
330
27F
100
AcDbEntity
  8
基準ﾚｲﾔｸ_ﾙ_ﾌ__01
  6
CONTINUOUS
 62
     3
100
AcDbLine
 10
133.7713667305635
 20
149.1666666666667
 30
0.0
 11
138.8846153846154
 21
149.1666666666667
 31
0.0
  0
CIRCLE
  5
288
330
27F
100
AcDbEntity
  8
基準ﾚｲﾔｸ_ﾙ_ﾌ__01
  6
CONTINUOUS
 62
     3
100
AcDbCircle
 10
130.8846153846154
 20
147.5
 30
0.0
 40
3.333333333333333
  0
LINE
  5
289
330
27F
100
AcDbEntity
  8
基準ﾚｲﾔｸ_ﾙ_ﾌ__01
  6
CONTINUOUS
 62
     3
100
AcDbLine
 10
126.4846153846154
 20
152.5
 30
0.0
 11
138.2846153846154
 21
152.5
 31
0.0
  0
ARC
  5
28A
330
27F
100
AcDbEntity
  8
基準ﾚｲﾔｸ_ﾙ_ﾌ__01
  6
CONTINUOUS
 62
     3
100
AcDbCircle
 10
126.4846153846154
 20
143.1
 30
0.0
 40
0.6
100
AcDbArc
 50
180.0
 51
270.0
  0
ARC
  5
28B
330
27F
100
AcDbEntity
  8
基準ﾚｲﾔｸ_ﾙ_ﾌ__01
  6
CONTINUOUS
 62
     3
100
AcDbCircle
 10
135.2846153846154
 20
143.1
 30
0.0
 40
0.6
100
AcDbArc
 50
270.0
 51
0.0
  0
ARC
  5
28C
330
27F
100
AcDbEntity
  8
基準ﾚｲﾔｸ_ﾙ_ﾌ__01
  6
CONTINUOUS
 62
     3
100
AcDbCircle
 10
126.4846153846154
 20
151.9
 30
0.0
 40
0.6
100
AcDbArc
 50
90.0
 51
180.0
  0
LINE
  5
28D
330
27F
100
AcDbEntity
  8
基準ﾚｲﾔｸ_ﾙ_ﾌ__01
  6
CONTINUOUS
 62
     3
100
AcDbLine
 10
126.4846153846154
 20
164.5
 30
0.0
 11
138.2846153846154
 21
164.5
 31
0.0
  0
LINE
  5
28E
330
27F
100
AcDbEntity
  8
基準ﾚｲﾔｸ_ﾙ_ﾌ__01
  6
CONTINUOUS
 62
     3
100
AcDbLine
 10
125.8846153846154
 20
165.1
 30
0.0
 11
125.8846153846154
 21
173.9
 31
0.0
  0
LINE
  5
28F
330
27F
100
AcDbEntity
  8
基準ﾚｲﾔｸ_ﾙ_ﾌ__01
  6
CONTINUOUS
 62
     3
100
AcDbLine
 10
135.8846153846154
 20
167.8333333333334
 30
0.0
 11
135.8846153846154
 21
173.9
 31
0.0
  0
LINE
  5
290
330
27F
100
AcDbEntity
  8
基準ﾚｲﾔｸ_ﾙ_ﾌ__01
  6
CONTINUOUS
 62
     3
100
AcDbLine
 10
125.8846153846154
 20
167.8333333333334
 30
0.0
 11
127.9978640386672
 21
167.8333333333334
 31
0.0
  0
LINE
  5
291
330
27F
100
AcDbEntity
  8
基準ﾚｲﾔｸ_ﾙ_ﾌ__01
  6
CONTINUOUS
 62
     3
100
AcDbLine
 10
133.7713667305635
 20
167.8333333333334
 30
0.0
 11
138.8846153846154
 21
167.8333333333334
 31
0.0
  0
CIRCLE
  5
292
330
27F
100
AcDbEntity
  8
基準ﾚｲﾔｸ_ﾙ_ﾌ__01
  6
CONTINUOUS
 62
     3
100
AcDbCircle
 10
130.8846153846154
 20
169.5
 30
0.0
 40
3.333333333333333
  0
LINE
  5
293
330
27F
100
AcDbEntity
  8
基準ﾚｲﾔｸ_ﾙ_ﾌ__01
  6
CONTINUOUS
 62
     3
100
AcDbLine
 10
126.4846153846154
 20
174.5
 30
0.0
 11
135.2846153846154
 21
174.5
 31
0.0
  0
ARC
  5
294
330
27F
100
AcDbEntity
  8
基準ﾚｲﾔｸ_ﾙ_ﾌ__01
  6
CONTINUOUS
 62
     3
100
AcDbCircle
 10
126.4846153846154
 20
165.1
 30
0.0
 40
0.6
100
AcDbArc
 50
180.0
 51
270.0
  0
ARC
  5
295
330
27F
100
AcDbEntity
  8
基準ﾚｲﾔｸ_ﾙ_ﾌ__01
  6
CONTINUOUS
 62
     3
100
AcDbCircle
 10
126.4846153846154
 20
173.9
 30
0.0
 40
0.6
100
AcDbArc
 50
90.0
 51
180.0
  0
ARC
  5
296
330
27F
100
AcDbEntity
  8
基準ﾚｲﾔｸ_ﾙ_ﾌ__01
  6
CONTINUOUS
 62
     3
100
AcDbCircle
 10
135.2846153846154
 20
173.9
 30
0.0
 40
0.6
100
AcDbArc
 50
0.0
 51
90.0
  0
LINE
  5
297
330
27F
100
AcDbEntity
  8
基準ﾚｲﾔｸ_ﾙ_ﾌ__01
  6
CONTINUOUS
 62
     3
100
AcDbLine
 10
127.1346153846154
 20
148.8888888888889
 30
0.0
 11
126.7179487179487
 21
148.8888888888889
 31
0.0
  0
LINE
  5
298
330
27F
100
AcDbEntity
  8
基準ﾚｲﾔｸ_ﾙ_ﾌ__01
  6
CONTINUOUS
 62
     3
100
AcDbLine
 10
126.7179487179487
 20
148.8888888888889
 30
0.0
 11
126.7179487179487
 21
146.25
 31
0.0
  0
LINE
  5
299
330
27F
100
AcDbEntity
  8
基準ﾚｲﾔｸ_ﾙ_ﾌ__01
  6
CONTINUOUS
 62
     3
100
AcDbLine
 10
126.7179487179487
 20
146.25
 30
0.0
 11
127.1346153846154
 21
145.8333333333334
 31
0.0
  0
LINE
  5
29A
330
27F
100
AcDbEntity
  8
基準ﾚｲﾔｸ_ﾙ_ﾌ__01
  6
CONTINUOUS
 62
     3
100
AcDbLine
 10
127.1346153846154
 20
145.8333333333334
 30
0.0
 11
127.1346153846154
 21
145.2500000000001
 31
0.0
  0
LINE
  5
29B
330
27F
100
AcDbEntity
  8
基準ﾚｲﾔｸ_ﾙ_ﾌ__01
  6
CONTINUOUS
 62
     3
100
AcDbLine
 10
126.301282051282
 20
145.2500000000001
 30
0.0
 11
126.301282051282
 21
145.5416666666667
 31
0.0
  0
LINE
  5
29C
330
27F
100
AcDbEntity
  8
基準ﾚｲﾔｸ_ﾙ_ﾌ__01
  6
CONTINUOUS
 62
     3
100
AcDbLine
 10
126.301282051282
 20
145.2500000000001
 30
0.0
 11
125.8846153846154
 21
145.2500000000001
 31
0.0
  0
LINE
  5
29D
330
27F
100
AcDbEntity
  8
基準ﾚｲﾔｸ_ﾙ_ﾌ__01
  6
CONTINUOUS
 62
     3
100
AcDbLine
 10
127.9978640386672
 20
145.8333333333334
 30
0.0
 11
127.1346153846154
 21
145.8333333333334
 31
0.0
  0
ARC
  5
29E
330
27F
100
AcDbEntity
  8
基準ﾚｲﾔｸ_ﾙ_ﾌ__01
  6
CONTINUOUS
 62
     3
100
AcDbCircle
 10
126.7179487179487
 20
145.2500000000001
 30
0.0
 40
0.4166666666666856
100
AcDbArc
 50
180.0
 51
0.0
  0
LINE
  5
29F
330
27F
100
AcDbEntity
  8
基準ﾚｲﾔｸ_ﾙ_ﾌ__01
  6
CONTINUOUS
 62
     3
100
AcDbLine
 10
134.6346153846154
 20
148.8888888888889
 30
0.0
 11
135.051282051282
 21
148.8888888888889
 31
0.0
  0
LINE
  5
2A0
330
27F
100
AcDbEntity
  8
基準ﾚｲﾔｸ_ﾙ_ﾌ__01
  6
CONTINUOUS
 62
     3
100
AcDbLine
 10
135.051282051282
 20
148.8888888888889
 30
0.0
 11
135.051282051282
 21
146.25
 31
0.0
  0
LINE
  5
2A1
330
27F
100
AcDbEntity
  8
基準ﾚｲﾔｸ_ﾙ_ﾌ__01
  6
CONTINUOUS
 62
     3
100
AcDbLine
 10
135.051282051282
 20
146.25
 30
0.0
 11
134.6346153846154
 21
145.8333333333334
 31
0.0
  0
LINE
  5
2A2
330
27F
100
AcDbEntity
  8
基準ﾚｲﾔｸ_ﾙ_ﾌ__01
  6
CONTINUOUS
 62
     3
100
AcDbLine
 10
134.6346153846154
 20
145.8333333333334
 30
0.0
 11
134.6346153846154
 21
145.2500000000001
 31
0.0
  0
LINE
  5
2A3
330
27F
100
AcDbEntity
  8
基準ﾚｲﾔｸ_ﾙ_ﾌ__01
  6
CONTINUOUS
 62
     3
100
AcDbLine
 10
135.4679487179487
 20
145.2500000000001
 30
0.0
 11
135.4679487179487
 21
145.5416666666667
 31
0.0
  0
LINE
  5
2A4
330
27F
100
AcDbEntity
  8
基準ﾚｲﾔｸ_ﾙ_ﾌ__01
  6
CONTINUOUS
 62
     3
100
AcDbLine
 10
135.4679487179487
 20
145.2500000000001
 30
0.0
 11
135.8846153846154
 21
145.2500000000001
 31
0.0
  0
LINE
  5
2A5
330
27F
100
AcDbEntity
  8
基準ﾚｲﾔｸ_ﾙ_ﾌ__01
  6
CONTINUOUS
 62
     3
100
AcDbLine
 10
133.7713667305635
 20
145.8333333333334
 30
0.0
 11
134.6346153846154
 21
145.8333333333334
 31
0.0
  0
ARC
  5
2A6
330
27F
100
AcDbEntity
  8
基準ﾚｲﾔｸ_ﾙ_ﾌ__01
  6
CONTINUOUS
 62
     3
100
AcDbCircle
 10
135.051282051282
 20
145.2500000000001
 30
0.0
 40
0.4166666666666856
100
AcDbArc
 50
180.0
 51
0.0
  0
LINE
  5
2A7
330
27F
100
AcDbEntity
  8
基準ﾚｲﾔｸ_ﾙ_ﾌ__01
  6
CONTINUOUS
 62
     3
100
AcDbLine
 10
127.1346153846154
 20
168.1111111111111
 30
0.0
 11
126.7179487179487
 21
168.1111111111111
 31
0.0
  0
LINE
  5
2A8
330
27F
100
AcDbEntity
  8
基準ﾚｲﾔｸ_ﾙ_ﾌ__01
  6
CONTINUOUS
 62
     3
100
AcDbLine
 10
126.7179487179487
 20
168.1111111111111
 30
0.0
 11
126.7179487179487
 21
170.75
 31
0.0
  0
LINE
  5
2A9
330
27F
100
AcDbEntity
  8
基準ﾚｲﾔｸ_ﾙ_ﾌ__01
  6
CONTINUOUS
 62
     3
100
AcDbLine
 10
126.7179487179487
 20
170.75
 30
0.0
 11
127.1346153846154
 21
171.1666666666667
 31
0.0
  0
LINE
  5
2AA
330
27F
100
AcDbEntity
  8
基準ﾚｲﾔｸ_ﾙ_ﾌ__01
  6
CONTINUOUS
 62
     3
100
AcDbLine
 10
127.1346153846154
 20
171.1666666666667
 30
0.0
 11
127.1346153846154
 21
171.75
 31
0.0
  0
LINE
  5
2AB
330
27F
100
AcDbEntity
  8
基準ﾚｲﾔｸ_ﾙ_ﾌ__01
  6
CONTINUOUS
 62
     3
100
AcDbLine
 10
126.301282051282
 20
171.75
 30
0.0
 11
126.301282051282
 21
171.4583333333333
 31
0.0
  0
LINE
  5
2AC
330
27F
100
AcDbEntity
  8
基準ﾚｲﾔｸ_ﾙ_ﾌ__01
  6
CONTINUOUS
 62
     3
100
AcDbLine
 10
126.301282051282
 20
171.75
 30
0.0
 11
125.8846153846154
 21
171.75
 31
0.0
  0
LINE
  5
2AD
330
27F
100
AcDbEntity
  8
基準ﾚｲﾔｸ_ﾙ_ﾌ__01
  6
CONTINUOUS
 62
     3
100
AcDbLine
 10
127.9978640386672
 20
171.1666666666667
 30
0.0
 11
127.1346153846154
 21
171.1666666666667
 31
0.0
  0
ARC
  5
2AE
330
27F
100
AcDbEntity
  8
基準ﾚｲﾔｸ_ﾙ_ﾌ__01
  6
CONTINUOUS
 62
     3
100
AcDbCircle
 10
126.7179487179487
 20
171.75
 30
0.0
 40
0.4166666666666856
100
AcDbArc
 50
0.0
 51
180.0
  0
LINE
  5
2AF
330
27F
100
AcDbEntity
  8
基準ﾚｲﾔｸ_ﾙ_ﾌ__01
  6
CONTINUOUS
 62
     3
100
AcDbLine
 10
134.6346153846154
 20
168.1111111111111
 30
0.0
 11
135.051282051282
 21
168.1111111111111
 31
0.0
  0
LINE
  5
2B0
330
27F
100
AcDbEntity
  8
基準ﾚｲﾔｸ_ﾙ_ﾌ__01
  6
CONTINUOUS
 62
     3
100
AcDbLine
 10
135.051282051282
 20
168.1111111111111
 30
0.0
 11
135.051282051282
 21
170.75
 31
0.0
  0
LINE
  5
2B1
330
27F
100
AcDbEntity
  8
基準ﾚｲﾔｸ_ﾙ_ﾌ__01
  6
CONTINUOUS
 62
     3
100
AcDbLine
 10
135.051282051282
 20
170.75
 30
0.0
 11
134.6346153846154
 21
171.1666666666667
 31
0.0
  0
LINE
  5
2B2
330
27F
100
AcDbEntity
  8
基準ﾚｲﾔｸ_ﾙ_ﾌ__01
  6
CONTINUOUS
 62
     3
100
AcDbLine
 10
134.6346153846154
 20
171.1666666666667
 30
0.0
 11
134.6346153846154
 21
171.75
 31
0.0
  0
LINE
  5
2B3
330
27F
100
AcDbEntity
  8
基準ﾚｲﾔｸ_ﾙ_ﾌ__01
  6
CONTINUOUS
 62
     3
100
AcDbLine
 10
135.4679487179487
 20
171.75
 30
0.0
 11
135.4679487179487
 21
171.4583333333333
 31
0.0
  0
LINE
  5
2B4
330
27F
100
AcDbEntity
  8
基準ﾚｲﾔｸ_ﾙ_ﾌ__01
  6
CONTINUOUS
 62
     3
100
AcDbLine
 10
135.4679487179487
 20
171.75
 30
0.0
 11
135.8846153846154
 21
171.75
 31
0.0
  0
LINE
  5
2B5
330
27F
100
AcDbEntity
  8
基準ﾚｲﾔｸ_ﾙ_ﾌ__01
  6
CONTINUOUS
 62
     3
100
AcDbLine
 10
133.7713667305635
 20
171.1666666666667
 30
0.0
 11
134.6346153846154
 21
171.1666666666667
 31
0.0
  0
ARC
  5
2B6
330
27F
100
AcDbEntity
  8
基準ﾚｲﾔｸ_ﾙ_ﾌ__01
  6
CONTINUOUS
 62
     3
100
AcDbCircle
 10
135.051282051282
 20
171.75
 30
0.0
 40
0.4166666666666856
100
AcDbArc
 50
0.0
 51
180.0
  0
LINE
  5
2B7
330
27F
100
AcDbEntity
  8
基準ﾚｲﾔｸ_ﾙ_ﾌ__01
  6
CONTINUOUS
 62
     3
100
AcDbLine
 10
138.8846153846154
 20
149.1666666666667
 30
0.0
 11
138.8846153846154
 21
151.9
 31
0.0
  0
ARC
  5
2B8
330
27F
100
AcDbEntity
  8
基準ﾚｲﾔｸ_ﾙ_ﾌ__01
  6
CONTINUOUS
 62
     3
100
AcDbCircle
 10
138.2846153846154
 20
151.9
 30
0.0
 40
0.6
100
AcDbArc
 50
0.0
 51
90.0
  0
LINE
  5
2B9
330
27F
100
AcDbEntity
  8
基準ﾚｲﾔｸ_ﾙ_ﾌ__01
  6
CONTINUOUS
 62
     3
100
AcDbLine
 10
138.8846153846154
 20
165.1
 30
0.0
 11
138.8846153846154
 21
167.8333333333334
 31
0.0
  0
ARC
  5
2BA
330
27F
100
AcDbEntity
  8
基準ﾚｲﾔｸ_ﾙ_ﾌ__01
  6
CONTINUOUS
 62
     3
100
AcDbCircle
 10
138.2846153846154
 20
165.1
 30
0.0
 40
0.6
100
AcDbArc
 50
270.0
 51
0.0
  0
LINE
  5
2BB
330
27F
100
AcDbEntity
  8
基準ﾚｲﾔｸ_ﾙ_ﾌ__01
  6
CONTINUOUS
 62
     6
100
AcDbLine
 10
138.8846153846154
 20
151.9
 30
0.0
 11
138.8846153846154
 21
165.1
 31
0.0
  0
LINE
  5
2BC
330
27F
100
AcDbEntity
  8
基準ﾚｲﾔｸ_ﾙ_ﾌ__01
  6
CONTINUOUS
 62
     6
100
AcDbLine
 10
125.8846153846154
 20
151.9
 30
0.0
 11
125.8846153846154
 21
165.1
 31
0.0
  0
ENDBLK
  5
281
330
27F
100
AcDbEntity
  8
0
100
AcDbBlockEnd
  0
ENDSEC
  0
SECTION
  2
ENTITIES
  0
TEXT
  5
B4
330
1F
100
AcDbEntity
  8
図面枠ﾚｲﾔ_01
  6
CONTINUOUS
 62
     7
100
AcDbText
 10
155.5818939208984
 20
12.0
 30
0.0
 40
6.0
  1
Ｓ－１５０　ＲＢ
 41
0.7943262411347518
  7
FX_VECTOR
 72
     5
 11
187.5818939208984
 21
12.0
 31
0.0
100
AcDbText
  0
TEXT
  5
B5
330
1F
100
AcDbEntity
  8
図面枠ﾚｲﾔ_01
  6
CONTINUOUS
 62
     7
100
AcDbText
 10
255.5935363769531
 20
12.0
 30
0.0
 40
6.0
  1
１Ｓ４０ＦＡＥＡ－Ｃ０１
 41
0.7887323943661974
  7
FX_VECTOR
 72
     5
 11
303.5935363769531
 21
12.0
 31
0.0
100
AcDbText
  0
LINE
  5
B7
330
1F
100
AcDbEntity
  8
GR1_01
  6
CONTINUOUS
 62
     3
100
AcDbLine
 10
112.4846153846154
 20
210.5000000000001
 30
0.0
 11
109.9846153846154
 21
210.5
 31
0.0
  0
ARC
  5
B8
330
1F
100
AcDbEntity
  8
GR1_01
  6
CONTINUOUS
 62
     3
100
AcDbCircle
 10
109.9846153846154
 20
211.0
 30
0.0
 40
0.5
100
AcDbArc
 50
180.0
 51
270.0
  0
LINE
  5
B9
330
1F
100
AcDbEntity
  8
GR1_01
  6
CONTINUOUS
 62
     3
100
AcDbLine
 10
109.4846153846154
 20
211.0
 30
0.0
 11
109.4846153846154
 21
213.0
 31
0.0
  0
LINE
  5
BA
330
1F
100
AcDbEntity
  8
GR1_01
  6
CONTINUOUS
 62
     3
100
AcDbLine
 10
109.4846153846154
 20
213.0
 30
0.0
 11
110.2846153846153
 21
213.0
 31
0.0
  0
LINE
  5
BB
330
1F
100
AcDbEntity
  8
GR1_01
  6
CONTINUOUS
 62
     3
100
AcDbLine
 10
110.2846153846154
 20
213.5
 30
0.0
 11
110.2846153846154
 21
211.6500000000001
 31
0.0
  0
LINE
  5
BC
330
1F
100
AcDbEntity
  8
GR1_01
  6
CONTINUOUS
 62
     3
100
AcDbLine
 10
110.2846153846154
 20
211.6500000000001
 30
0.0
 11
111.8846153846154
 21
211.6500000000001
 31
0.0
  0
LINE
  5
BD
330
1F
100
AcDbEntity
  8
GR1_01
  6
CONTINUOUS
 62
     3
100
AcDbLine
 10
111.8846153846153
 20
211.6500000000001
 30
0.0
 11
111.8846153846153
 21
213.4999999999999
 31
0.0
  0
ARC
  5
BE
330
1F
100
AcDbEntity
  8
GR1_01
  6
CONTINUOUS
 62
     3
100
AcDbCircle
 10
108.2846153846153
 20
213.4999999999999
 30
0.0
 40
3.6
100
AcDbArc
 50
0.0
 51
89.99999999999999
  0
ARC
  5
BF
330
1F
100
AcDbEntity
  8
GR1_01
  6
CONTINUOUS
 62
     3
100
AcDbCircle
 10
108.2846153846153
 20
213.5
 30
0.0
 40
2.0
100
AcDbArc
 50
0.0
 51
90.0
  0
LINE
  5
C0
330
1F
100
AcDbEntity
  8
GR1_01
  6
CONTINUOUS
 62
     3
100
AcDbLine
 10
113.4846153846154
 20
213.5000007152557
 30
0.0
 11
113.4846153846154
 21
211.5000000000001
 31
0.0
  0
ARC
  5
C1
330
1F
100
AcDbEntity
  8
GR1_01
  6
CONTINUOUS
 62
     3
100
AcDbCircle
 10
112.4846153846154
 20
211.5000000000001
 30
0.0
 40
1.0
100
AcDbArc
 50
269.9999999999992
 51
0.0
  0
ARC
  5
C2
330
1F
100
AcDbEntity
  8
GR1_01
  6
CONTINUOUS
 62
     3
100
AcDbCircle
 10
115.4846153846153
 20
213.5
 30
0.0
 40
2.0
100
AcDbArc
 50
89.99999999999999
 51
180.0
  0
ARC
  5
C3
330
1F
100
AcDbEntity
  8
GR1_01
  6
CONTINUOUS
 62
     3
100
AcDbCircle
 10
115.4846153846153
 20
213.4999999999999
 30
0.0
 40
3.6
100
AcDbArc
 50
90.00000000000021
 51
180.0
  0
LINE
  5
C4
330
1F
100
AcDbEntity
  8
GR1_01
  6
DASHDOT
 62
     6
100
AcDbLine
 10
111.8846153846153
 20
235.1560420787628
 30
0.0
 11
111.8846153846153
 21
81.89116166157164
 31
0.0
  0
LINE
  5
C5
330
1F
100
AcDbEntity
  8
GR1_01
  6
DASHDOT
 62
     6
100
AcDbLine
 10
114.5782751060485
 20
205.5
 30
0.0
 11
108.3588281534797
 21
205.5
 31
0.0
  0
LINE
  5
C6
330
1F
100
AcDbEntity
  8
GR1_01
  6
CONTINUOUS
 62
     3
100
AcDbLine
 10
111.8846153846154
 20
199.35
 30
0.0
 11
110.2846153846154
 21
199.35
 31
0.0
  0
LINE
  5
C7
330
1F
100
AcDbEntity
  8
GR1_01
  6
CONTINUOUS
 62
     3
100
AcDbLine
 10
110.2846153846153
 20
199.35
 30
0.0
 11
110.2846153846153
 21
196.6297843607433
 31
0.0
  0
LINE
  5
C8
330
1F
100
AcDbEntity
  8
GR1_01
  6
CONTINUOUS
 62
     3
100
AcDbLine
 10
110.2846153846153
 20
198.0000000000001
 30
0.0
 11
109.4846153846154
 21
198.0000000000001
 31
0.0
  0
LINE
  5
C9
330
1F
100
AcDbEntity
  8
GR1_01
  6
CONTINUOUS
 62
     3
100
AcDbLine
 10
109.4846153846154
 20
198.0000000000001
 30
0.0
 11
109.4846153846154
 21
200.0000000000001
 31
0.0
  0
ARC
  5
CA
330
1F
100
AcDbEntity
  8
GR1_01
  6
CONTINUOUS
 62
     3
100
AcDbCircle
 10
109.9846153846154
 20
200.0
 30
0.0
 40
0.5
100
AcDbArc
 50
90.00000000000162
 51
180.0
  0
LINE
  5
CB
330
1F
100
AcDbEntity
  8
GR1_01
  6
CONTINUOUS
 62
     3
100
AcDbLine
 10
109.9846153846154
 20
200.5000000000001
 30
0.0
 11
112.4846153846154
 21
200.5000000000001
 31
0.0
  0
ARC
  5
CC
330
1F
100
AcDbEntity
  8
GR1_01
  6
CONTINUOUS
 62
     3
100
AcDbCircle
 10
112.4846153846154
 20
199.5
 30
0.0
 40
1.0
100
AcDbArc
 50
0.0
 51
90.00000000000082
  0
LINE
  5
CD
330
1F
100
AcDbEntity
  8
GR1_01
  6
CONTINUOUS
 62
     3
100
AcDbLine
 10
111.8846153846154
 20
198.4541090015539
 30
0.0
 11
111.8846153846154
 21
199.3500000000001
 31
0.0
  0
LINE
  5
CE
330
1F
100
AcDbEntity
  8
GR1_01
  6
DASHDOT
 62
     6
100
AcDbLine
 10
82.76032046514973
 20
158.5
 30
0.0
 11
141.9603481176018
 21
158.5
 31
0.0
  0
LINE
  5
CF
330
1F
100
AcDbEntity
  8
GR1_01
  6
DASHDOT
 62
     6
100
AcDbLine
 10
203.9596250021252
 20
158.5
 30
0.0
 11
359.9736512563961
 21
158.5
 31
0.0
  0
LINE
  5
D0
330
1F
100
AcDbEntity
  8
GR1_01
  6
DASHDOT
 62
     6
100
AcDbLine
 10
281.8846153846154
 20
236.3587933824852
 30
0.0
 11
281.8846153846154
 21
80.5165887430318
 31
0.0
  0
LINE
  5
D1
330
1F
100
AcDbEntity
  8
GR1_01
  6
CONTINUOUS
 62
     3
100
AcDbLine
 10
115.4846153846153
 20
217.1
 30
0.0
 11
127.7846153846153
 21
217.1
 31
0.0
  0
LINE
  5
D2
330
1F
100
AcDbEntity
  8
GR1_01
  6
CONTINUOUS
 62
     3
100
AcDbLine
 10
127.7846153846153
 20
215.5
 30
0.0
 11
115.4846153846153
 21
215.5
 31
0.0
  0
LINE
  5
D3
330
1F
100
AcDbEntity
  8
GR1_01
  6
CONTINUOUS
 62
     3
100
AcDbLine
 10
129.2846153846153
 20
219.0
 30
0.0
 11
130.8846153846153
 21
219.0
 31
0.0
  0
LINE
  5
D5
330
1F
100
AcDbEntity
  8
基準ﾚｲﾔｸ_ﾙ_ﾌ__01
  6
CONTINUOUS
 62
     3
100
AcDbLine
 10
92.88461538461539
 20
185.0133928571429
 30
0.0
 11
92.88461538461533
 21
219.0
 31
0.0
  0
CIRCLE
  5
D6
330
1F
100
AcDbEntity
  8
基準ﾚｲﾔｸ_ﾙ_ﾌ__01
  6
CONTINUOUS
 62
     3
100
AcDbCircle
 10
281.8846153846154
 20
205.5
 30
0.0
 40
4.999999999999972
  0
LINE
  5
D7
330
1F
100
AcDbEntity
  8
GR1_01
  6
CONTINUOUS
 62
     3
100
AcDbLine
 10
94.48461538461534
 20
219.0
 30
0.0
 11
92.88461538461534
 21
219.0
 31
0.0
  0
LINE
  5
D8
330
1F
100
AcDbEntity
  8
GR1_01
  6
CONTINUOUS
 62
     3
100
AcDbLine
 10
97.88461538461534
 20
173.45
 30
0.0
 11
97.88461538461534
 21
172.0000000000001
 31
0.0
  0
LINE
  5
D9
330
1F
100
AcDbEntity
  8
GR1_01
  6
CONTINUOUS
 62
     3
100
AcDbLine
 10
98.88461538461536
 20
171.9999999999999
 30
0.0
 11
97.88461538461536
 21
171.9999999999999
 31
0.0
  0
ARC
  5
DA
330
1F
100
AcDbEntity
  8
基準ﾚｲﾔｸ_ﾙ_ﾌ__01
  6
CONTINUOUS
 62
     3
100
AcDbCircle
 10
96.88461538461534
 20
173.45
 30
0.0
 40
1.0
100
AcDbArc
 50
0.0
 51
90.0
  0
ARC
  5
DB
330
1F
100
AcDbEntity
  8
基準ﾚｲﾔｸ_ﾙ_ﾌ__01
  6
CONTINUOUS
 62
     3
100
AcDbCircle
 10
127.7846153846153
 20
218.6
 30
0.0
 40
3.1
100
AcDbArc
 50
270.0
 51
0.0
  0
ARC
  5
DC
330
1F
100
AcDbEntity
  8
基準ﾚｲﾔｸ_ﾙ_ﾌ__01
  6
CONTINUOUS
 62
     3
100
AcDbCircle
 10
127.7846153846153
 20
218.6
 30
0.0
 40
1.5
100
AcDbArc
 50
270.0
 51
0.0
  0
LINE
  5
DD
330
1F
100
AcDbEntity
  8
基準ﾚｲﾔｸ_ﾙ_ﾌ__01
  6
CONTINUOUS
 62
     3
100
AcDbLine
 10
130.8846153846153
 20
219.0
 30
0.0
 11
130.8846153846153
 21
185.0133928571429
 31
0.0
  0
LINE
  5
DE
330
1F
100
AcDbEntity
  8
基準ﾚｲﾔｸ_ﾙ_ﾌ__01
  6
CONTINUOUS
 62
     3
100
AcDbLine
 10
129.2846153846153
 20
219.0
 30
0.0
 11
129.2846153846153
 21
218.6
 31
0.0
  0
LINE
  5
DF
330
1F
100
AcDbEntity
  8
GR1_01
  6
CONTINUOUS
 62
     3
100
AcDbLine
 10
108.2846153846154
 20
217.1
 30
0.0
 11
95.98461538461538
 21
217.1
 31
0.0
  0
LINE
  5
E0
330
1F
100
AcDbEntity
  8
GR1_01
  6
CONTINUOUS
 62
     3
100
AcDbLine
 10
95.98461538461532
 20
215.5
 30
0.0
 11
108.2846153846154
 21
215.5
 31
0.0
  0
ARC
  5
E1
330
1F
100
AcDbEntity
  8
基準ﾚｲﾔｸ_ﾙ_ﾌ__01
  6
CONTINUOUS
 62
     3
100
AcDbCircle
 10
95.98461538461532
 20
218.6
 30
0.0
 40
3.1
100
AcDbArc
 50
180.0
 51
270.0
  0
ARC
  5
E2
330
1F
100
AcDbEntity
  8
基準ﾚｲﾔｸ_ﾙ_ﾌ__01
  6
CONTINUOUS
 62
     3
100
AcDbCircle
 10
95.98461538461538
 20
218.6
 30
0.0
 40
1.5
100
AcDbArc
 50
180.0
 51
270.0
  0
LINE
  5
E3
330
1F
100
AcDbEntity
  8
基準ﾚｲﾔｸ_ﾙ_ﾌ__01
  6
CONTINUOUS
 62
     3
100
AcDbLine
 10
94.48461538461538
 20
219.0
 30
0.0
 11
94.48461538461538
 21
218.6
 31
0.0
  0
ARC
  5
E4
330
1F
100
AcDbEntity
  8
GR1_01
  6
CONTINUOUS
 62
     3
100
AcDbCircle
 10
108.2846153846153
 20
103.5000000000001
 30
0.0
 40
3.6
100
AcDbArc
 50
270.0
 51
0.0
  0
ARC
  5
E5
330
1F
100
AcDbEntity
  8
GR1_01
  6
CONTINUOUS
 62
     3
100
AcDbCircle
 10
108.2846153846153
 20
103.5
 30
0.0
 40
2.0
100
AcDbArc
 50
270.0
 51
0.0
  0
ARC
  5
E6
330
1F
100
AcDbEntity
  8
GR1_01
  6
CONTINUOUS
 62
     3
100
AcDbCircle
 10
115.4846153846153
 20
103.5000000000001
 30
0.0
 40
2.0
100
AcDbArc
 50
180.0
 51
270.0
  0
ARC
  5
E7
330
1F
100
AcDbEntity
  8
GR1_01
  6
CONTINUOUS
 62
     3
100
AcDbCircle
 10
115.4846153846153
 20
103.5000000000001
 30
0.0
 40
3.6
100
AcDbArc
 50
180.0
 51
269.9999999999998
  0
LINE
  5
E8
330
1F
100
AcDbEntity
  8
GR1_01
  6
CONTINUOUS
 62
     3
100
AcDbLine
 10
115.4846153846153
 20
99.90000000000003
 30
0.0
 11
127.7846153846153
 21
99.90000000000003
 31
0.0
  0
LINE
  5
E9
330
1F
100
AcDbEntity
  8
GR1_01
  6
CONTINUOUS
 62
     3
100
AcDbLine
 10
127.7846153846153
 20
101.5000000000001
 30
0.0
 11
115.4846153846153
 21
101.5
 31
0.0
  0
LINE
  5
EA
330
1F
100
AcDbEntity
  8
GR1_01
  6
CONTINUOUS
 62
     3
100
AcDbLine
 10
129.2846153846153
 20
98.00000000000006
 30
0.0
 11
130.8846153846153
 21
98.00000000000006
 31
0.0
  0
LINE
  5
EB
330
1F
100
AcDbEntity
  8
GR1_01
  6
CONTINUOUS
 62
     3
100
AcDbLine
 10
94.48461538461534
 20
98.00000000000006
 30
0.0
 11
92.88461538461534
 21
98.00000000000006
 31
0.0
  0
ARC
  5
EC
330
1F
100
AcDbEntity
  8
基準ﾚｲﾔｸ_ﾙ_ﾌ__01
  6
CONTINUOUS
 62
     3
100
AcDbCircle
 10
127.7846153846153
 20
98.40000000000006
 30
0.0
 40
3.1
100
AcDbArc
 50
0.0
 51
90.0
  0
ARC
  5
ED
330
1F
100
AcDbEntity
  8
基準ﾚｲﾔｸ_ﾙ_ﾌ__01
  6
CONTINUOUS
 62
     3
100
AcDbCircle
 10
127.7846153846153
 20
98.40000000000003
 30
0.0
 40
1.5
100
AcDbArc
 50
0.0
 51
90.0
  0
LINE
  5
EE
330
1F
100
AcDbEntity
  8
基準ﾚｲﾔｸ_ﾙ_ﾌ__01
  6
CONTINUOUS
 62
     3
100
AcDbLine
 10
130.8846153846153
 20
98.00000000000006
 30
0.0
 11
130.8846153846153
 21
131.9866071428571
 31
0.0
  0
LINE
  5
EF
330
1F
100
AcDbEntity
  8
基準ﾚｲﾔｸ_ﾙ_ﾌ__01
  6
CONTINUOUS
 62
     3
100
AcDbLine
 10
129.2846153846153
 20
98.00000000000006
 30
0.0
 11
129.2846153846153
 21
98.40000000000003
 31
0.0
  0
LINE
  5
F0
330
1F
100
AcDbEntity
  8
GR1_01
  6
CONTINUOUS
 62
     3
100
AcDbLine
 10
108.2846153846154
 20
99.90000000000003
 30
0.0
 11
95.98461538461538
 21
99.90000000000003
 31
0.0
  0
LINE
  5
F1
330
1F
100
AcDbEntity
  8
GR1_01
  6
CONTINUOUS
 62
     3
100
AcDbLine
 10
95.98461538461532
 20
101.5000000000001
 30
0.0
 11
108.2846153846154
 21
101.5
 31
0.0
  0
ARC
  5
F2
330
1F
100
AcDbEntity
  8
基準ﾚｲﾔｸ_ﾙ_ﾌ__01
  6
CONTINUOUS
 62
     3
100
AcDbCircle
 10
95.98461538461532
 20
98.40000000000006
 30
0.0
 40
3.1
100
AcDbArc
 50
90.0
 51
180.0
  0
ARC
  5
F3
330
1F
100
AcDbEntity
  8
基準ﾚｲﾔｸ_ﾙ_ﾌ__01
  6
CONTINUOUS
 62
     3
100
AcDbCircle
 10
95.98461538461538
 20
98.40000000000003
 30
0.0
 40
1.5
100
AcDbArc
 50
90.0
 51
180.0
  0
LINE
  5
F4
330
1F
100
AcDbEntity
  8
基準ﾚｲﾔｸ_ﾙ_ﾌ__01
  6
CONTINUOUS
 62
     3
100
AcDbLine
 10
92.88461538461533
 20
98.00000000000006
 30
0.0
 11
92.88461538461539
 21
131.9866071428571
 31
0.0
  0
LINE
  5
F5
330
1F
100
AcDbEntity
  8
基準ﾚｲﾔｸ_ﾙ_ﾌ__01
  6
CONTINUOUS
 62
     3
100
AcDbLine
 10
94.48461538461538
 20
98.00000000000006
 30
0.0
 11
94.48461538461538
 21
98.40000000000003
 31
0.0
  0
LINE
  5
F6
330
1F
100
AcDbEntity
  8
基準ﾚｲﾔｸ_ﾙ_ﾌ__01
  6
CONTINUOUS
 62
     6
100
AcDbLine
 10
113.4846153846154
 20
211.5000000000001
 30
0.0
 11
113.4846153846153
 21
199.5
 31
0.0
  0
LINE
  5
F7
330
1F
100
AcDbEntity
  8
基準ﾚｲﾔｸ_ﾙ_ﾌ__01
  6
CONTINUOUS
 62
     6
100
AcDbLine
 10
109.4846153846154
 20
211.0
 30
0.0
 11
109.4846153846154
 21
200.0
 31
0.0
  0
CIRCLE
  5
F8
330
1F
100
AcDbEntity
  8
基準ﾚｲﾔｸ_ﾙ_ﾌ__01
  6
CONTINUOUS
 62
     6
100
AcDbCircle
 10
281.8846153846154
 20
158.5
 30
0.0
 40
23.49999999999997
  0
CIRCLE
  5
F9
330
1F
100
AcDbEntity
  8
基準ﾚｲﾔｸ_ﾙ_ﾌ__01
  6
CONTINUOUS
 62
     6
100
AcDbCircle
 10
281.8846153846154
 20
158.5
 30
0.0
 40
37.00000000000014
  0
CIRCLE
  5
FA
330
1F
100
AcDbEntity
  8
基準ﾚｲﾔｸ_ﾙ_ﾌ__01
  6
CONTINUOUS
 62
     3
100
AcDbCircle
 10
281.8846153846154
 20
158.5
 30
0.0
 40
60.5
  0
CIRCLE
  5
FB
330
1F
100
AcDbEntity
  8
基準ﾚｲﾔｸ_ﾙ_ﾌ__01
  6
CONTINUOUS
 62
     6
100
AcDbCircle
 10
281.8846153846154
 20
158.5
 30
0.0
 40
57.0
  0
LINE
  5
FC
330
1F
100
AcDbEntity
  8
GR1_01
  6
CONTINUOUS
 62
     3
100
AcDbLine
 10
112.4846153846154
 20
106.4999999999999
 30
0.0
 11
109.9846153846154
 21
106.5
 31
0.0
  0
ARC
  5
FD
330
1F
100
AcDbEntity
  8
GR1_01
  6
CONTINUOUS
 62
     3
100
AcDbCircle
 10
109.9846153846154
 20
106.0
 30
0.0
 40
0.5
100
AcDbArc
 50
90.0
 51
180.0
  0
LINE
  5
FE
330
1F
100
AcDbEntity
  8
GR1_01
  6
CONTINUOUS
 62
     3
100
AcDbLine
 10
109.4846153846154
 20
106.0
 30
0.0
 11
109.4846153846154
 21
104.0
 31
0.0
  0
LINE
  5
FF
330
1F
100
AcDbEntity
  8
GR1_01
  6
CONTINUOUS
 62
     3
100
AcDbLine
 10
109.4846153846154
 20
104.0
 30
0.0
 11
110.2846153846153
 21
104.0
 31
0.0
  0
LINE
  5
100
330
1F
100
AcDbEntity
  8
GR1_01
  6
CONTINUOUS
 62
     3
100
AcDbLine
 10
110.2846153846154
 20
103.5
 30
0.0
 11
110.2846153846154
 21
105.3499999999999
 31
0.0
  0
LINE
  5
101
330
1F
100
AcDbEntity
  8
GR1_01
  6
CONTINUOUS
 62
     3
100
AcDbLine
 10
110.2846153846154
 20
105.3499999999999
 30
0.0
 11
111.8846153846154
 21
105.3499999999999
 31
0.0
  0
LINE
  5
102
330
1F
100
AcDbEntity
  8
GR1_01
  6
CONTINUOUS
 62
     3
100
AcDbLine
 10
111.8846153846153
 20
105.3499999999999
 30
0.0
 11
111.8846153846153
 21
103.5000000000001
 31
0.0
  0
LINE
  5
103
330
1F
100
AcDbEntity
  8
GR1_01
  6
CONTINUOUS
 62
     3
100
AcDbLine
 10
113.4846153846154
 20
103.4999992847443
 30
0.0
 11
113.4846153846154
 21
105.4999999999999
 31
0.0
  0
ARC
  5
104
330
1F
100
AcDbEntity
  8
GR1_01
  6
CONTINUOUS
 62
     3
100
AcDbCircle
 10
112.4846153846154
 20
105.4999999999999
 30
0.0
 40
1.0
100
AcDbArc
 50
0.0
 51
90.00000000000082
  0
LINE
  5
105
330
1F
100
AcDbEntity
  8
GR1_01
  6
DASHDOT
 62
     6
100
AcDbLine
 10
114.5782751060485
 20
111.5
 30
0.0
 11
108.3588281534797
 21
111.5
 31
0.0
  0
LINE
  5
106
330
1F
100
AcDbEntity
  8
基準ﾚｲﾔｸ_ﾙ_ﾌ__01
  6
CONTINUOUS
 62
     6
100
AcDbLine
 10
113.4846153846154
 20
105.4999999999999
 30
0.0
 11
113.4846153846153
 21
117.5
 31
0.0
  0
LINE
  5
107
330
1F
100
AcDbEntity
  8
基準ﾚｲﾔｸ_ﾙ_ﾌ__01
  6
CONTINUOUS
 62
     6
100
AcDbLine
 10
109.4846153846154
 20
106.0
 30
0.0
 11
109.4846153846154
 21
117.0
 31
0.0
  0
CIRCLE
  5
108
330
1F
100
AcDbEntity
  8
基準ﾚｲﾔｸ_ﾙ_ﾌ__01
  6
CONTINUOUS
 62
     3
100
AcDbCircle
 10
234.8846153846154
 20
158.5000000000001
 30
0.0
 40
4.999999999999972
  0
CIRCLE
  5
109
330
1F
100
AcDbEntity
  8
基準ﾚｲﾔｸ_ﾙ_ﾌ__01
  6
CONTINUOUS
 62
     3
100
AcDbCircle
 10
248.6505966688476
 20
125.2659812842323
 30
0.0
 40
4.999999999999972
  0
CIRCLE
  5
10A
330
1F
100
AcDbEntity
  8
基準ﾚｲﾔｸ_ﾙ_ﾌ__01
  6
CONTINUOUS
 62
     6
100
AcDbCircle
 10
248.6505966688476
 20
125.2659812842323
 30
0.0
 40
7.500000000000085
  0
CIRCLE
  5
10B
330
1F
100
AcDbEntity
  8
基準ﾚｲﾔｸ_ﾙ_ﾌ__01
  6
CONTINUOUS
 62
     3
100
AcDbCircle
 10
281.8846153846153
 20
111.5
 30
0.0
 40
4.999999999999972
  0
CIRCLE
  5
10C
330
1F
100
AcDbEntity
  8
基準ﾚｲﾔｸ_ﾙ_ﾌ__01
  6
CONTINUOUS
 62
     3
100
AcDbCircle
 10
315.118634100383
 20
125.2659812842322
 30
0.0
 40
4.999999999999972
  0
CIRCLE
  5
10D
330
1F
100
AcDbEntity
  8
基準ﾚｲﾔｸ_ﾙ_ﾌ__01
  6
CONTINUOUS
 62
     6
100
AcDbCircle
 10
315.118634100383
 20
125.2659812842322
 30
0.0
 40
7.500000000000085
  0
CIRCLE
  5
10E
330
1F
100
AcDbEntity
  8
基準ﾚｲﾔｸ_ﾙ_ﾌ__01
  6
CONTINUOUS
 62
     3
100
AcDbCircle
 10
328.8846153846154
 20
158.4999999999999
 30
0.0
 40
4.999999999999972
  0
CIRCLE
  5
10F
330
1F
100
AcDbEntity
  8
基準ﾚｲﾔｸ_ﾙ_ﾌ__01
  6
CONTINUOUS
 62
     3
100
AcDbCircle
 10
315.1186341003831
 20
191.7340187157677
 30
0.0
 40
4.999999999999972
  0
CIRCLE
  5
110
330
1F
100
AcDbEntity
  8
基準ﾚｲﾔｸ_ﾙ_ﾌ__01
  6
CONTINUOUS
 62
     6
100
AcDbCircle
 10
315.1186341003831
 20
191.7340187157677
 30
0.0
 40
7.500000000000085
  0
CIRCLE
  5
111
330
1F
100
AcDbEntity
  8
基準ﾚｲﾔｸ_ﾙ_ﾌ__01
  6
CONTINUOUS
 62
     3
100
AcDbCircle
 10
248.6505966688477
 20
191.7340187157678
 30
0.0
 40
4.999999999999972
  0
CIRCLE
  5
112
330
1F
100
AcDbEntity
  8
基準ﾚｲﾔｸ_ﾙ_ﾌ__01
  6
CONTINUOUS
 62
     6
100
AcDbCircle
 10
248.6505966688477
 20
191.7340187157678
 30
0.0
 40
7.500000000000085
  0
LINE
  5
113
330
1F
100
AcDbEntity
  8
基準ﾚｲﾔｸ_ﾙ_ﾌ__01
  6
CONTINUOUS
 62
     3
100
AcDbLine
 10
109.3169786405454
 20
194.9168260694222
 30
0.0
 11
90.30370724479012
 21
183.4579348264446
 31
0.0
  0
LINE
  5
114
330
1F
100
AcDbEntity
  8
基準ﾚｲﾔｸ_ﾙ_ﾌ__01
  6
CONTINUOUS
 62
     3
100
AcDbLine
 10
87.88461538461533
 20
179.1755390981421
 30
0.0
 11
87.88461538461534
 21
176.45
 31
0.0
  0
LINE
  5
115
330
1F
100
AcDbEntity
  8
基準ﾚｲﾔｸ_ﾙ_ﾌ__01
  6
CONTINUOUS
 62
     3
100
AcDbLine
 10
89.88461538461533
 20
174.45
 30
0.0
 11
96.8846153846153
 21
174.45
 31
0.0
  0
ARC
  5
116
330
1F
100
AcDbEntity
  8
基準ﾚｲﾔｸ_ﾙ_ﾌ__01
  6
CONTINUOUS
 62
     3
100
AcDbCircle
 10
92.88461538461533
 20
179.1755390981421
 30
0.0
 40
5.0
100
AcDbArc
 50
121.0764693955553
 51
180.0
  0
ARC
  5
117
330
1F
100
AcDbEntity
  8
基準ﾚｲﾔｸ_ﾙ_ﾌ__01
  6
CONTINUOUS
 62
     3
100
AcDbCircle
 10
108.2846153846153
 20
196.6297843607433
 30
0.0
 40
2.0
100
AcDbArc
 50
301.0764693955552
 51
0.0
  0
LINE
  5
118
330
1F
100
AcDbEntity
  8
基準ﾚｲﾔｸ_ﾙ_ﾌ__01
  6
CONTINUOUS
 62
     3
100
AcDbLine
 10
89.48461538461532
 20
176.6499999999999
 30
0.0
 11
89.48461538461532
 21
178.8366037899191
 31
0.0
  0
LINE
  5
119
330
1F
100
AcDbEntity
  8
基準ﾚｲﾔｸ_ﾙ_ﾌ__01
  6
CONTINUOUS
 62
     3
100
AcDbLine
 10
91.41988887275515
 20
182.2625203725611
 30
0.0
 11
110.1428692452895
 21
193.5464594363654
 31
0.0
  0
ARC
  5
11A
330
1F
100
AcDbEntity
  8
基準ﾚｲﾔｸ_ﾙ_ﾌ__01
  6
CONTINUOUS
 62
     3
100
AcDbCircle
 10
108.2846153846153
 20
196.6297843607433
 30
0.0
 40
3.6
100
AcDbArc
 50
301.076469395555
 51
0.0
  0
LINE
  5
11B
330
1F
100
AcDbEntity
  8
基準ﾚｲﾔｸ_ﾙ_ﾌ__01
  6
CONTINUOUS
 62
     3
100
AcDbLine
 10
111.8846153846153
 20
196.6297843607433
 30
0.0
 11
111.8846153846153
 21
199.35
 31
0.0
  0
ARC
  5
11C
330
1F
100
AcDbEntity
  8
基準ﾚｲﾔｸ_ﾙ_ﾌ__01
  6
CONTINUOUS
 62
     3
100
AcDbCircle
 10
93.48461538461532
 20
178.8366037899191
 30
0.0
 40
4.0
100
AcDbArc
 50
121.0764693955552
 51
180.0
  0
ARC
  5
11D
330
1F
100
AcDbEntity
  8
基準ﾚｲﾔｸ_ﾙ_ﾌ__01
  6
CONTINUOUS
 62
     3
100
AcDbCircle
 10
96.38461538461534
 20
173.15
 30
0.0
 40
2.5
100
AcDbArc
 50
0.0
 51
90.0
  0
LINE
  5
11E
330
1F
100
AcDbEntity
  8
基準ﾚｲﾔｸ_ﾙ_ﾌ__01
  6
CONTINUOUS
 62
     3
100
AcDbLine
 10
90.48461538461532
 20
175.65
 30
0.0
 11
96.38461538461534
 21
175.6499999999999
 31
0.0
  0
LINE
  5
11F
330
1F
100
AcDbEntity
  8
基準ﾚｲﾔｸ_ﾙ_ﾌ__01
  6
CONTINUOUS
 62
     3
100
AcDbLine
 10
98.88461538461534
 20
173.15
 30
0.0
 11
98.88461538461534
 21
171.9999999999999
 31
0.0
  0
ARC
  5
120
330
1F
100
AcDbEntity
  8
基準ﾚｲﾔｸ_ﾙ_ﾌ__01
  6
CONTINUOUS
 62
     3
100
AcDbCircle
 10
90.48461538461532
 20
176.6499999999999
 30
0.0
 40
1.0
100
AcDbArc
 50
180.0
 51
270.0
  0
ARC
  5
121
330
1F
100
AcDbEntity
  8
基準ﾚｲﾔｸ_ﾙ_ﾌ__01
  6
CONTINUOUS
 62
     3
100
AcDbCircle
 10
89.88461538461533
 20
176.45
 30
0.0
 40
2.0
100
AcDbArc
 50
180.0
 51
270.0
  0
LINE
  5
122
330
1F
100
AcDbEntity
  8
GR1_01
  6
CONTINUOUS
 62
     3
100
AcDbLine
 10
113.4846153846153
 20
199.5
 30
0.0
 11
113.4846153846153
 21
196.6297843607433
 31
0.0
  0
LINE
  5
123
330
1F
100
AcDbEntity
  8
GR1_01
  6
CONTINUOUS
 62
     3
100
AcDbLine
 10
125.8846153846153
 20
173.45
 30
0.0
 11
125.8846153846153
 21
172.0000000000001
 31
0.0
  0
LINE
  5
124
330
1F
100
AcDbEntity
  8
GR1_01
  6
CONTINUOUS
 62
     3
100
AcDbLine
 10
124.8846153846153
 20
171.9999999999999
 30
0.0
 11
125.8846153846153
 21
171.9999999999999
 31
0.0
  0
ARC
  5
125
330
1F
100
AcDbEntity
  8
基準ﾚｲﾔｸ_ﾙ_ﾌ__01
  6
CONTINUOUS
 62
     3
100
AcDbCircle
 10
126.8846153846153
 20
173.45
 30
0.0
 40
1.0
100
AcDbArc
 50
90.0
 51
180.0
  0
LINE
  5
126
330
1F
100
AcDbEntity
  8
基準ﾚｲﾔｸ_ﾙ_ﾌ__01
  6
CONTINUOUS
 62
     3
100
AcDbLine
 10
114.4522521286852
 20
194.9168260694222
 30
0.0
 11
133.4655235244405
 21
183.4579348264446
 31
0.0
  0
LINE
  5
127
330
1F
100
AcDbEntity
  8
基準ﾚｲﾔｸ_ﾙ_ﾌ__01
  6
CONTINUOUS
 62
     3
100
AcDbLine
 10
135.8846153846153
 20
179.1755390981421
 30
0.0
 11
135.8846153846153
 21
176.45
 31
0.0
  0
LINE
  5
128
330
1F
100
AcDbEntity
  8
基準ﾚｲﾔｸ_ﾙ_ﾌ__01
  6
CONTINUOUS
 62
     3
100
AcDbLine
 10
133.8846153846153
 20
174.45
 30
0.0
 11
126.8846153846153
 21
174.45
 31
0.0
  0
ARC
  5
129
330
1F
100
AcDbEntity
  8
基準ﾚｲﾔｸ_ﾙ_ﾌ__01
  6
CONTINUOUS
 62
     3
100
AcDbCircle
 10
130.8846153846153
 20
179.1755390981421
 30
0.0
 40
5.0
100
AcDbArc
 50
0.0
 51
58.92353060444479
  0
ARC
  5
12A
330
1F
100
AcDbEntity
  8
基準ﾚｲﾔｸ_ﾙ_ﾌ__01
  6
CONTINUOUS
 62
     3
100
AcDbCircle
 10
115.4846153846153
 20
196.6297843607433
 30
0.0
 40
2.0
100
AcDbArc
 50
180.0
 51
238.9235306044448
  0
LINE
  5
12B
330
1F
100
AcDbEntity
  8
基準ﾚｲﾔｸ_ﾙ_ﾌ__01
  6
CONTINUOUS
 62
     3
100
AcDbLine
 10
134.2846153846153
 20
176.6499999999999
 30
0.0
 11
134.2846153846153
 21
178.8366037899191
 31
0.0
  0
LINE
  5
12C
330
1F
100
AcDbEntity
  8
基準ﾚｲﾔｸ_ﾙ_ﾌ__01
  6
CONTINUOUS
 62
     3
100
AcDbLine
 10
132.3493418964755
 20
182.2625203725611
 30
0.0
 11
113.6263615239411
 21
193.5464594363654
 31
0.0
  0
ARC
  5
12D
330
1F
100
AcDbEntity
  8
基準ﾚｲﾔｸ_ﾙ_ﾌ__01
  6
CONTINUOUS
 62
     3
100
AcDbCircle
 10
115.4846153846153
 20
196.6297843607433
 30
0.0
 40
3.6
100
AcDbArc
 50
180.0
 51
238.9235306044451
  0
ARC
  5
12E
330
1F
100
AcDbEntity
  8
基準ﾚｲﾔｸ_ﾙ_ﾌ__01
  6
CONTINUOUS
 62
     3
100
AcDbCircle
 10
130.2846153846153
 20
178.8366037899191
 30
0.0
 40
4.0
100
AcDbArc
 50
0.0
 51
58.92353060444493
  0
ARC
  5
12F
330
1F
100
AcDbEntity
  8
基準ﾚｲﾔｸ_ﾙ_ﾌ__01
  6
CONTINUOUS
 62
     3
100
AcDbCircle
 10
127.3846153846153
 20
173.15
 30
0.0
 40
2.5
100
AcDbArc
 50
90.0
 51
180.0
  0
LINE
  5
130
330
1F
100
AcDbEntity
  8
基準ﾚｲﾔｸ_ﾙ_ﾌ__01
  6
CONTINUOUS
 62
     3
100
AcDbLine
 10
133.2846153846153
 20
175.65
 30
0.0
 11
127.3846153846153
 21
175.6499999999999
 31
0.0
  0
LINE
  5
131
330
1F
100
AcDbEntity
  8
基準ﾚｲﾔｸ_ﾙ_ﾌ__01
  6
CONTINUOUS
 62
     3
100
AcDbLine
 10
124.8846153846153
 20
173.15
 30
0.0
 11
124.8846153846153
 21
171.9999999999999
 31
0.0
  0
ARC
  5
132
330
1F
100
AcDbEntity
  8
基準ﾚｲﾔｸ_ﾙ_ﾌ__01
  6
CONTINUOUS
 62
     3
100
AcDbCircle
 10
133.2846153846153
 20
176.6499999999999
 30
0.0
 40
1.0
100
AcDbArc
 50
270.0
 51
0.0
  0
ARC
  5
133
330
1F
100
AcDbEntity
  8
基準ﾚｲﾔｸ_ﾙ_ﾌ__01
  6
CONTINUOUS
 62
     3
100
AcDbCircle
 10
133.8846153846153
 20
176.45
 30
0.0
 40
2.0
100
AcDbArc
 50
270.0
 51
0.0
  0
LINE
  5
134
330
1F
100
AcDbEntity
  8
GR1_01
  6
CONTINUOUS
 62
     3
100
AcDbLine
 10
111.8846153846154
 20
117.65
 30
0.0
 11
110.2846153846154
 21
117.65
 31
0.0
  0
LINE
  5
135
330
1F
100
AcDbEntity
  8
GR1_01
  6
CONTINUOUS
 62
     3
100
AcDbLine
 10
110.2846153846153
 20
117.65
 30
0.0
 11
110.2846153846153
 21
120.3702156392567
 31
0.0
  0
LINE
  5
136
330
1F
100
AcDbEntity
  8
GR1_01
  6
CONTINUOUS
 62
     3
100
AcDbLine
 10
110.2846153846153
 20
118.9999999999999
 30
0.0
 11
109.4846153846154
 21
118.9999999999999
 31
0.0
  0
LINE
  5
137
330
1F
100
AcDbEntity
  8
GR1_01
  6
CONTINUOUS
 62
     3
100
AcDbLine
 10
109.4846153846154
 20
118.9999999999999
 30
0.0
 11
109.4846153846154
 21
116.9999999999999
 31
0.0
  0
ARC
  5
138
330
1F
100
AcDbEntity
  8
GR1_01
  6
CONTINUOUS
 62
     3
100
AcDbCircle
 10
109.9846153846154
 20
117.0
 30
0.0
 40
0.5
100
AcDbArc
 50
180.0
 51
269.9999999999984
  0
LINE
  5
139
330
1F
100
AcDbEntity
  8
GR1_01
  6
CONTINUOUS
 62
     3
100
AcDbLine
 10
109.9846153846154
 20
116.4999999999999
 30
0.0
 11
112.4846153846154
 21
116.4999999999999
 31
0.0
  0
ARC
  5
13A
330
1F
100
AcDbEntity
  8
GR1_01
  6
CONTINUOUS
 62
     3
100
AcDbCircle
 10
112.4846153846154
 20
117.5
 30
0.0
 40
1.0
100
AcDbArc
 50
269.9999999999992
 51
0.0
  0
LINE
  5
13B
330
1F
100
AcDbEntity
  8
GR1_01
  6
CONTINUOUS
 62
     3
100
AcDbLine
 10
111.8846153846154
 20
118.5458909984461
 30
0.0
 11
111.8846153846154
 21
117.6499999999999
 31
0.0
  0
LINE
  5
13C
330
1F
100
AcDbEntity
  8
GR1_01
  6
CONTINUOUS
 62
     3
100
AcDbLine
 10
97.88461538461534
 20
143.55
 30
0.0
 11
97.88461538461534
 21
144.9999999999999
 31
0.0
  0
LINE
  5
13D
330
1F
100
AcDbEntity
  8
GR1_01
  6
CONTINUOUS
 62
     3
100
AcDbLine
 10
98.88461538461536
 20
145.0000000000001
 30
0.0
 11
97.88461538461536
 21
145.0000000000001
 31
0.0
  0
ARC
  5
13E
330
1F
100
AcDbEntity
  8
基準ﾚｲﾔｸ_ﾙ_ﾌ__01
  6
CONTINUOUS
 62
     3
100
AcDbCircle
 10
96.88461538461534
 20
143.55
 30
0.0
 40
1.0
100
AcDbArc
 50
270.0
 51
0.0
  0
LINE
  5
13F
330
1F
100
AcDbEntity
  8
基準ﾚｲﾔｸ_ﾙ_ﾌ__01
  6
CONTINUOUS
 62
     3
100
AcDbLine
 10
109.3169786405454
 20
122.0831739305778
 30
0.0
 11
90.30370724479012
 21
133.5420651735554
 31
0.0
  0
LINE
  5
140
330
1F
100
AcDbEntity
  8
基準ﾚｲﾔｸ_ﾙ_ﾌ__01
  6
CONTINUOUS
 62
     3
100
AcDbLine
 10
87.88461538461533
 20
137.8244609018579
 30
0.0
 11
87.88461538461534
 21
140.55
 31
0.0
  0
LINE
  5
141
330
1F
100
AcDbEntity
  8
基準ﾚｲﾔｸ_ﾙ_ﾌ__01
  6
CONTINUOUS
 62
     3
100
AcDbLine
 10
89.88461538461533
 20
142.55
 30
0.0
 11
96.88461538461529
 21
142.55
 31
0.0
  0
ARC
  5
142
330
1F
100
AcDbEntity
  8
基準ﾚｲﾔｸ_ﾙ_ﾌ__01
  6
CONTINUOUS
 62
     3
100
AcDbCircle
 10
92.88461538461533
 20
137.8244609018579
 30
0.0
 40
5.0
100
AcDbArc
 50
180.0
 51
238.9235306044448
  0
ARC
  5
143
330
1F
100
AcDbEntity
  8
基準ﾚｲﾔｸ_ﾙ_ﾌ__01
  6
CONTINUOUS
 62
     3
100
AcDbCircle
 10
108.2846153846153
 20
120.3702156392567
 30
0.0
 40
2.0
100
AcDbArc
 50
0.0
 51
58.9235306044448
  0
LINE
  5
144
330
1F
100
AcDbEntity
  8
基準ﾚｲﾔｸ_ﾙ_ﾌ__01
  6
CONTINUOUS
 62
     3
100
AcDbLine
 10
89.48461538461532
 20
140.3500000000001
 30
0.0
 11
89.48461538461532
 21
138.1633962100809
 31
0.0
  0
LINE
  5
145
330
1F
100
AcDbEntity
  8
基準ﾚｲﾔｸ_ﾙ_ﾌ__01
  6
CONTINUOUS
 62
     3
100
AcDbLine
 10
91.41988887275515
 20
134.7374796274389
 30
0.0
 11
110.1428692452895
 21
123.4535405636346
 31
0.0
  0
ARC
  5
146
330
1F
100
AcDbEntity
  8
基準ﾚｲﾔｸ_ﾙ_ﾌ__01
  6
CONTINUOUS
 62
     3
100
AcDbCircle
 10
108.2846153846153
 20
120.3702156392567
 30
0.0
 40
3.6
100
AcDbArc
 50
0.0
 51
58.92353060444515
  0
LINE
  5
147
330
1F
100
AcDbEntity
  8
基準ﾚｲﾔｸ_ﾙ_ﾌ__01
  6
CONTINUOUS
 62
     3
100
AcDbLine
 10
111.8846153846153
 20
120.3702156392567
 30
0.0
 11
111.8846153846153
 21
117.65
 31
0.0
  0
ARC
  5
148
330
1F
100
AcDbEntity
  8
基準ﾚｲﾔｸ_ﾙ_ﾌ__01
  6
CONTINUOUS
 62
     3
100
AcDbCircle
 10
93.48461538461532
 20
138.1633962100809
 30
0.0
 40
4.0
100
AcDbArc
 50
180.0
 51
238.9235306044447
  0
ARC
  5
149
330
1F
100
AcDbEntity
  8
基準ﾚｲﾔｸ_ﾙ_ﾌ__01
  6
CONTINUOUS
 62
     3
100
AcDbCircle
 10
96.38461538461534
 20
143.85
 30
0.0
 40
2.5
100
AcDbArc
 50
270.0
 51
0.0
  0
LINE
  5
14A
330
1F
100
AcDbEntity
  8
基準ﾚｲﾔｸ_ﾙ_ﾌ__01
  6
CONTINUOUS
 62
     3
100
AcDbLine
 10
90.48461538461532
 20
141.35
 30
0.0
 11
96.38461538461534
 21
141.3500000000001
 31
0.0
  0
LINE
  5
14B
330
1F
100
AcDbEntity
  8
基準ﾚｲﾔｸ_ﾙ_ﾌ__01
  6
CONTINUOUS
 62
     3
100
AcDbLine
 10
98.88461538461534
 20
143.85
 30
0.0
 11
98.88461538461534
 21
145.0000000000001
 31
0.0
  0
ARC
  5
14C
330
1F
100
AcDbEntity
  8
基準ﾚｲﾔｸ_ﾙ_ﾌ__01
  6
CONTINUOUS
 62
     3
100
AcDbCircle
 10
90.48461538461532
 20
140.3500000000001
 30
0.0
 40
1.0
100
AcDbArc
 50
90.0
 51
180.0
  0
ARC
  5
14D
330
1F
100
AcDbEntity
  8
基準ﾚｲﾔｸ_ﾙ_ﾌ__01
  6
CONTINUOUS
 62
     3
100
AcDbCircle
 10
89.88461538461533
 20
140.55
 30
0.0
 40
2.0
100
AcDbArc
 50
90.0
 51
180.0
  0
LINE
  5
14E
330
1F
100
AcDbEntity
  8
GR1_01
  6
CONTINUOUS
 62
     3
100
AcDbLine
 10
113.4846153846153
 20
117.5
 30
0.0
 11
113.4846153846153
 21
120.3702156392567
 31
0.0
  0
LINE
  5
14F
330
1F
100
AcDbEntity
  8
GR1_01
  6
CONTINUOUS
 62
     3
100
AcDbLine
 10
125.8846153846153
 20
143.55
 30
0.0
 11
125.8846153846153
 21
144.9999999999999
 31
0.0
  0
LINE
  5
150
330
1F
100
AcDbEntity
  8
GR1_01
  6
CONTINUOUS
 62
     3
100
AcDbLine
 10
124.8846153846153
 20
145.0000000000001
 30
0.0
 11
125.8846153846153
 21
145.0000000000001
 31
0.0
  0
ARC
  5
151
330
1F
100
AcDbEntity
  8
基準ﾚｲﾔｸ_ﾙ_ﾌ__01
  6
CONTINUOUS
 62
     3
100
AcDbCircle
 10
126.8846153846153
 20
143.55
 30
0.0
 40
1.0
100
AcDbArc
 50
180.0
 51
270.0
  0
LINE
  5
152
330
1F
100
AcDbEntity
  8
基準ﾚｲﾔｸ_ﾙ_ﾌ__01
  6
CONTINUOUS
 62
     3
100
AcDbLine
 10
114.4522521286852
 20
122.0831739305778
 30
0.0
 11
133.4655235244405
 21
133.5420651735554
 31
0.0
  0
LINE
  5
153
330
1F
100
AcDbEntity
  8
基準ﾚｲﾔｸ_ﾙ_ﾌ__01
  6
CONTINUOUS
 62
     3
100
AcDbLine
 10
135.8846153846153
 20
137.8244609018579
 30
0.0
 11
135.8846153846153
 21
140.55
 31
0.0
  0
LINE
  5
154
330
1F
100
AcDbEntity
  8
基準ﾚｲﾔｸ_ﾙ_ﾌ__01
  6
CONTINUOUS
 62
     3
100
AcDbLine
 10
126.8846153846153
 20
142.55
 30
0.0
 11
133.8846153846153
 21
142.55
 31
0.0
  0
ARC
  5
155
330
1F
100
AcDbEntity
  8
基準ﾚｲﾔｸ_ﾙ_ﾌ__01
  6
CONTINUOUS
 62
     3
100
AcDbCircle
 10
130.8846153846153
 20
137.8244609018579
 30
0.0
 40
5.0
100
AcDbArc
 50
301.0764693955552
 51
0.0
  0
ARC
  5
156
330
1F
100
AcDbEntity
  8
基準ﾚｲﾔｸ_ﾙ_ﾌ__01
  6
CONTINUOUS
 62
     3
100
AcDbCircle
 10
115.4846153846153
 20
120.3702156392567
 30
0.0
 40
2.0
100
AcDbArc
 50
121.0764693955552
 51
180.0
  0
LINE
  5
157
330
1F
100
AcDbEntity
  8
基準ﾚｲﾔｸ_ﾙ_ﾌ__01
  6
CONTINUOUS
 62
     3
100
AcDbLine
 10
134.2846153846153
 20
140.3500000000001
 30
0.0
 11
134.2846153846153
 21
138.1633962100809
 31
0.0
  0
LINE
  5
158
330
1F
100
AcDbEntity
  8
基準ﾚｲﾔｸ_ﾙ_ﾌ__01
  6
CONTINUOUS
 62
     3
100
AcDbLine
 10
132.3493418964755
 20
134.7374796274389
 30
0.0
 11
113.6263615239411
 21
123.4535405636346
 31
0.0
  0
ARC
  5
159
330
1F
100
AcDbEntity
  8
基準ﾚｲﾔｸ_ﾙ_ﾌ__01
  6
CONTINUOUS
 62
     3
100
AcDbCircle
 10
115.4846153846153
 20
120.3702156392567
 30
0.0
 40
3.6
100
AcDbArc
 50
121.0764693955549
 51
180.0
  0
ARC
  5
15A
330
1F
100
AcDbEntity
  8
基準ﾚｲﾔｸ_ﾙ_ﾌ__01
  6
CONTINUOUS
 62
     3
100
AcDbCircle
 10
130.2846153846153
 20
138.1633962100809
 30
0.0
 40
4.0
100
AcDbArc
 50
301.0764693955551
 51
0.0
  0
ARC
  5
15B
330
1F
100
AcDbEntity
  8
基準ﾚｲﾔｸ_ﾙ_ﾌ__01
  6
CONTINUOUS
 62
     3
100
AcDbCircle
 10
127.3846153846153
 20
143.85
 30
0.0
 40
2.5
100
AcDbArc
 50
180.0
 51
270.0
  0
LINE
  5
15C
330
1F
100
AcDbEntity
  8
基準ﾚｲﾔｸ_ﾙ_ﾌ__01
  6
CONTINUOUS
 62
     3
100
AcDbLine
 10
133.2846153846153
 20
141.35
 30
0.0
 11
127.3846153846153
 21
141.3500000000001
 31
0.0
  0
LINE
  5
15D
330
1F
100
AcDbEntity
  8
基準ﾚｲﾔｸ_ﾙ_ﾌ__01
  6
CONTINUOUS
 62
     3
100
AcDbLine
 10
124.8846153846153
 20
143.85
 30
0.0
 11
124.8846153846153
 21
145.0000000000001
 31
0.0
  0
ARC
  5
15E
330
1F
100
AcDbEntity
  8
基準ﾚｲﾔｸ_ﾙ_ﾌ__01
  6
CONTINUOUS
 62
     3
100
AcDbCircle
 10
133.2846153846153
 20
140.3500000000001
 30
0.0
 40
1.0
100
AcDbArc
 50
0.0
 51
90.0
  0
ARC
  5
15F
330
1F
100
AcDbEntity
  8
基準ﾚｲﾔｸ_ﾙ_ﾌ__01
  6
CONTINUOUS
 62
     3
100
AcDbCircle
 10
133.8846153846153
 20
140.55
 30
0.0
 40
2.0
100
AcDbArc
 50
0.0
 51
90.0
  0
ARC
  5
160
330
1F
100
AcDbEntity
  8
GR1_01
  6
CONTINUOUS
 62
     3
100
AcDbCircle
 10
111.8846153846153
 20
183.5
 30
0.0
 40
50.0
100
AcDbArc
 50
81.79909887530202
 51
98.20090112469798
  0
ARC
  5
161
330
1F
100
AcDbEntity
  8
基準ﾚｲﾔｸ_ﾙ_ﾌ__01
  6
CONTINUOUS
 62
     3
100
AcDbCircle
 10
105.6082573632514
 20
227.0500554533248
 30
0.0
 40
6.0
100
AcDbArc
 50
98.20090112469798
 51
157.9999999999998
  0
ARC
  5
162
330
1F
100
AcDbEntity
  8
基準ﾚｲﾔｸ_ﾙ_ﾌ__01
  6
CONTINUOUS
 62
     3
100
AcDbCircle
 10
93.86108983408803
 20
222.0
 30
0.0
 40
3.0
100
AcDbArc
 50
270.0
 51
338.0
  0
LINE
  5
163
330
1F
100
AcDbEntity
  8
基準ﾚｲﾔｸ_ﾙ_ﾌ__01
  6
CONTINUOUS
 62
     3
100
AcDbLine
 10
96.64264139778841
 20
220.8761802197523
 30
0.0
 11
100.0451542358506
 21
229.2976950138203
 31
0.0
  0
ARC
  5
164
330
1F
100
AcDbEntity
  8
基準ﾚｲﾔｸ_ﾙ_ﾌ__01
  6
CONTINUOUS
 62
     3
100
AcDbCircle
 10
118.1609734059792
 20
227.0500554533248
 30
0.0
 40
6.0
100
AcDbArc
 50
22.00000000000013
 51
81.79909887530201
  0
ARC
  5
165
330
1F
100
AcDbEntity
  8
基準ﾚｲﾔｸ_ﾙ_ﾌ__01
  6
CONTINUOUS
 62
     3
100
AcDbCircle
 10
129.9081409351426
 20
222.0
 30
0.0
 40
3.0
100
AcDbArc
 50
202.0000000000001
 51
270.0
  0
LINE
  5
166
330
1F
100
AcDbEntity
  8
基準ﾚｲﾔｸ_ﾙ_ﾌ__01
  6
CONTINUOUS
 62
     3
100
AcDbLine
 10
127.1265893714423
 20
220.8761802197523
 30
0.0
 11
123.7240765333801
 21
229.2976950138203
 31
0.0
  0
ARC
  5
167
330
1F
100
AcDbEntity
  8
GR1_01
  6
CONTINUOUS
 62
     3
100
AcDbCircle
 10
111.8846153846153
 20
133.5
 30
0.0
 40
50.0
100
AcDbArc
 50
261.799098875302
 51
278.200901124698
  0
ARC
  5
168
330
1F
100
AcDbEntity
  8
基準ﾚｲﾔｸ_ﾙ_ﾌ__01
  6
CONTINUOUS
 62
     3
100
AcDbCircle
 10
105.6082573632514
 20
89.94994454667523
 30
0.0
 40
6.0
100
AcDbArc
 50
202.0000000000001
 51
261.799098875302
  0
ARC
  5
169
330
1F
100
AcDbEntity
  8
基準ﾚｲﾔｸ_ﾙ_ﾌ__01
  6
CONTINUOUS
 62
     3
100
AcDbCircle
 10
93.86108983408803
 20
95.0
 30
0.0
 40
3.0
100
AcDbArc
 50
22.00000000000013
 51
90.0
  0
LINE
  5
16A
330
1F
100
AcDbEntity
  8
基準ﾚｲﾔｸ_ﾙ_ﾌ__01
  6
CONTINUOUS
 62
     3
100
AcDbLine
 10
96.64264139778841
 20
96.12381978024774
 30
0.0
 11
100.0451542358506
 21
87.70230498617974
 31
0.0
  0
ARC
  5
16B
330
1F
100
AcDbEntity
  8
基準ﾚｲﾔｸ_ﾙ_ﾌ__01
  6
CONTINUOUS
 62
     3
100
AcDbCircle
 10
118.1609734059792
 20
89.94994454667523
 30
0.0
 40
6.0
100
AcDbArc
 50
278.200901124698
 51
337.9999999999998
  0
ARC
  5
16C
330
1F
100
AcDbEntity
  8
基準ﾚｲﾔｸ_ﾙ_ﾌ__01
  6
CONTINUOUS
 62
     3
100
AcDbCircle
 10
129.9081409351426
 20
95.0
 30
0.0
 40
3.0
100
AcDbArc
 50
90.0
 51
157.9999999999999
  0
LINE
  5
16D
330
1F
100
AcDbEntity
  8
基準ﾚｲﾔｸ_ﾙ_ﾌ__01
  6
CONTINUOUS
 62
     3
100
AcDbLine
 10
127.1265893714423
 20
96.12381978024774
 30
0.0
 11
123.7240765333801
 21
87.70230498617974
 31
0.0
  0
CIRCLE
  5
16E
330
1F
100
AcDbEntity
  8
基準ﾚｲﾔｸ_ﾙ_ﾌ__01
  6
CONTINUOUS
 62
     3
100
AcDbCircle
 10
281.8846153846154
 20
158.5
 30
0.0
 40
75.0
  0
INSERT
  5
172
330
1F
100
AcDbEntity
  8
GR1_01
  6
CONTINUOUS
 62
     7
100
AcDbBlockReference
  2
BLKF023
 10
0.0
 20
0.0
 30
0.0
  0
LINE
  5
1CA
330
1F
100
AcDbEntity
  8
GR1_01
  6
CONTINUOUS
 62
     7
100
AcDbLine
 10
236.4195868299265
 20
203.3057606957115
 30
0.0
 11
241.2118924683017
 21
207.6970997475741
 31
0.0
  0
LINE
  5
1CB
330
1F
100
AcDbEntity
  8
GR1_01
  6
CONTINUOUS
 62
     7
100
AcDbLine
 10
241.2118924683017
 20
207.6970997475741
 30
0.0
 11
236.8205534164391
 21
212.4894053859493
 31
0.0
  0
LINE
  5
1CC
330
1F
100
AcDbEntity
  8
GR1_01
  6
CONTINUOUS
 62
     7
100
AcDbLine
 10
236.8205534164391
 20
212.4894053859493
 30
0.0
 11
232.0282477780639
 21
208.0980663340867
 31
0.0
  0
LINE
  5
1CD
330
1F
100
AcDbEntity
  8
GR1_01
  6
CONTINUOUS
 62
     7
100
AcDbLine
 10
232.0282477780639
 20
208.0980663340867
 30
0.0
 11
236.4195868299265
 21
203.3057606957115
 31
0.0
  0
LINE
  5
1CE
330
1F
100
AcDbEntity
  8
GR1_01
  6
CONTINUOUS
 62
     7
100
AcDbLine
 10
234.3609555802404
 20
205.8274859594562
 30
0.0
 11
234.5499730418086
 21
210.1566975837728
 31
0.0
  0
LINE
  5
1CF
330
1F
100
AcDbEntity
  8
GR1_01
  6
CONTINUOUS
 62
     7
100
AcDbLine
 10
234.5499730418086
 20
210.1566975837728
 30
0.0
 11
238.4200024316133
 21
209.9877284515302
 31
0.0
  0
LINE
  5
1D0
330
1F
100
AcDbEntity
  8
GR1_01
  6
CONTINUOUS
 62
     7
100
AcDbLine
 10
238.4200024316133
 20
209.9877284515302
 30
0.0
 11
237.2904451601421
 21
208.9526799108431
 31
0.0
  0
LINE
  5
1D1
330
1F
100
AcDbEntity
  8
GR1_01
  6
CONTINUOUS
 62
     7
100
AcDbLine
 10
237.2904451601421
 20
208.9526799108431
 30
0.0
 11
235.5850215824957
 21
209.0271403123016
 31
0.0
  0
LINE
  5
1D2
330
1F
100
AcDbEntity
  8
GR1_01
  6
CONTINUOUS
 62
     7
100
AcDbLine
 10
235.5850215824957
 20
209.0271403123016
 30
0.0
 11
235.4905128517116
 21
206.8625345001433
 31
0.0
  0
LINE
  5
1D3
330
1F
100
AcDbEntity
  8
GR1_01
  6
CONTINUOUS
 62
     7
100
AcDbLine
 10
235.4905128517116
 20
206.8625345001433
 30
0.0
 11
237.6551186638699
 21
206.7680257693592
 31
0.0
  0
LINE
  5
1D4
330
1F
100
AcDbEntity
  8
GR1_01
  6
CONTINUOUS
 62
     7
100
AcDbLine
 10
237.6551186638699
 20
206.7680257693592
 30
0.0
 11
237.7048052994635
 21
207.9060368218858
 31
0.0
  0
ARC
  5
1D5
330
1F
100
AcDbEntity
  8
GR1_01
  6
CONTINUOUS
 62
     7
100
AcDbCircle
 10
237.5965750088556
 20
207.910762258425
 30
0.0
 40
0.1083334
100
AcDbArc
 50
357.5
 51
132.5
  0
LINE
  5
1D6
330
1F
100
AcDbEntity
  8
GR1_01
  6
CONTINUOUS
 62
     7
100
AcDbLine
 10
237.5233860246579
 20
207.9906340190646
 30
0.0
 11
236.9860150441714
 21
207.4982242376325
 31
0.0
  0
LINE
  5
1D7
330
1F
100
AcDbEntity
  8
GR1_01
  6
CONTINUOUS
 62
     7
100
AcDbLine
 10
236.9860150441714
 20
207.4982242376325
 30
0.0
 11
236.6200701231828
 21
207.8975830408304
 31
0.0
  0
LINE
  5
1D8
330
1F
100
AcDbEntity
  8
GR1_01
  6
CONTINUOUS
 62
     7
100
AcDbLine
 10
236.6200701231828
 20
207.8975830408304
 30
0.0
 11
238.8791846661251
 21
209.9676801222046
 31
0.0
  0
LINE
  5
1D9
330
1F
100
AcDbEntity
  8
GR1_01
  6
CONTINUOUS
 62
     7
100
AcDbLine
 10
238.8791846661251
 20
209.9676801222046
 30
0.0
 11
240.3607643651127
 21
208.3508196016879
 31
0.0
  0
LINE
  5
1DA
330
1F
100
AcDbEntity
  8
GR1_01
  6
CONTINUOUS
 62
     7
100
AcDbLine
 10
240.3607643651127
 20
208.3508196016879
 30
0.0
 11
239.5620467587168
 21
207.6189297597108
 31
0.0
  0
LINE
  5
1DB
330
1F
100
AcDbEntity
  8
GR1_01
  6
CONTINUOUS
 62
     7
100
AcDbLine
 10
239.5620467587168
 20
207.6189297597108
 30
0.0
 11
238.9890507399728
 21
208.244245186045
 31
0.0
  0
ARC
  5
1DC
330
1F
100
AcDbEntity
  8
GR1_01
  6
CONTINUOUS
 62
     7
100
AcDbCircle
 10
238.9091789793332
 20
208.1710562018473
 30
0.0
 40
0.1083334
100
AcDbArc
 50
42.50000000000001
 51
177.5000000000028
  0
LINE
  5
1DD
330
1F
100
AcDbEntity
  8
GR1_01
  6
CONTINUOUS
 62
     7
100
AcDbLine
 10
238.8009486887253
 20
208.1757816383865
 30
0.0
 11
238.690167204557
 21
205.638468497888
 31
0.0
  0
LINE
  5
1DE
330
1F
100
AcDbEntity
  8
GR1_01
  6
CONTINUOUS
 62
     7
100
AcDbLine
 10
238.690167204557
 20
205.638468497888
 30
0.0
 11
234.3609555802404
 21
205.8274859594562
 31
0.0
  0
TEXT
  5
1DF
330
1F
100
AcDbEntity
  8
基準ﾚｲﾔｸ_ﾙ_ﾌ__01
  6
CONTINUOUS
 62
     7
100
AcDbText
 10
247.2260284423828
 20
210.7570495605469
 30
0.0
 40
8.833128929138184
  1
Ｇ
 50
29.49999999999996
 41
1.423032674609843
  7
FX_VECTOR
 72
     5
 11
255.0404742152476
 21
215.1782502554582
 31
0.0
100
AcDbText
  0
TEXT
  5
1E0
330
1F
100
AcDbEntity
  8
基準ﾚｲﾔｸ_ﾙ_ﾌ__01
  6
CONTINUOUS
 62
     7
100
AcDbText
 10
253.8529052734375
 20
214.5913543701172
 30
0.0
 40
8.833128929138184
  1
Ｏ
 50
22.5000000000001
 41
1.423032674609839
  7
FX_VECTOR
 72
     5
 11
262.1479121782554
 21
218.0272587300713
 31
0.0
100
AcDbText
  0
TEXT
  5
1E1
330
1F
100
AcDbEntity
  8
基準ﾚｲﾔｸ_ﾙ_ﾌ__01
  6
CONTINUOUS
 62
     7
100
AcDbText
 10
261.4140930175781
 20
217.7703552246094
 30
0.0
 40
8.833128929138184
  1
Ｌ
 50
15.00000000000004
 41
1.423032674609839
  7
FX_VECTOR
 72
     5
 11
270.0866105013572
 21
220.0941492807328
 31
0.0
100
AcDbText
  0
TEXT
  5
1E2
330
1F
100
AcDbEntity
  8
基準ﾚｲﾔｸ_ﾙ_ﾌ__01
  6
CONTINUOUS
 62
     7
100
AcDbText
 10
268.7899169921875
 20
219.8232879638672
 30
0.0
 40
8.833128929138184
  1
Ｄ
 50
8.000000000000028
 41
1.423032674609842
  7
FX_VECTOR
 72
     5
 11
277.6809901015831
 21
221.0728468000616
 31
0.0
100
AcDbText
  0
TEXT
  5
1E3
330
1F
100
AcDbEntity
  8
基準ﾚｲﾔｸ_ﾙ_ﾌ__01
  6
CONTINUOUS
 62
     7
100
AcDbText
 10
284.0143127441406
 20
221.1696319580078
 30
0.0
 40
8.833128929138184
  1
Ｃ
 50
354.0000000000001
 41
1.423032674609839
  7
FX_VECTOR
 72
     5
 11
292.94357862651
 21
220.2311282959575
 31
0.0
100
AcDbText
  0
TEXT
  5
1E4
330
1F
100
AcDbEntity
  8
基準ﾚｲﾔｸ_ﾙ_ﾌ__01
  6
CONTINUOUS
 62
     7
100
AcDbText
 10
291.6359558105469
 20
220.4429473876953
 30
0.0
 40
8.833128929138184
  1
Ａ
 50
347.0000000000001
 41
1.423032674609841
  7
FX_VECTOR
 72
     5
 11
300.3842894739974
 21
218.4232354194516
 31
0.0
100
AcDbText
  0
TEXT
  5
1E5
330
1F
100
AcDbEntity
  8
基準ﾚｲﾔｸ_ﾙ_ﾌ__01
  6
CONTINUOUS
 62
     7
100
AcDbText
 10
300.1618347167969
 20
218.4830017089844
 30
0.0
 40
8.833128929138184
  1
Ｓ
 50
339.0000000000001
 41
1.423032674609841
  7
FX_VECTOR
 72
     5
 11
308.5439406207423
 21
215.2654127146017
 31
0.0
100
AcDbText
  0
TEXT
  5
1E6
330
1F
100
AcDbEntity
  8
基準ﾚｲﾔｸ_ﾙ_ﾌ__01
  6
CONTINUOUS
 62
     7
100
AcDbText
 10
307.8348388671875
 20
215.5841827392578
 30
0.0
 40
8.833128929138184
  1
Ｔ
 50
331.5
 41
1.423032674609839
  7
FX_VECTOR
 72
     5
 11
315.7252550535793
 21
211.300036298337
 31
0.0
100
AcDbText
  0
TEXT
  5
1E7
330
1F
100
AcDbEntity
  8
基準ﾚｲﾔｸ_ﾙ_ﾌ__01
  6
CONTINUOUS
 62
     7
100
AcDbText
 10
315.0637817382812
 20
211.7086639404297
 30
0.0
 40
8.833128929138184
  1
Ｅ
 50
323.9999999999999
 41
1.423032674609839
  7
FX_VECTOR
 72
     5
 11
322.3275009985337
 21
206.4312629863647
 31
0.0
100
AcDbText
  0
TEXT
  5
1E8
330
1F
100
AcDbEntity
  8
基準ﾚｲﾔｸ_ﾙ_ﾌ__01
  6
CONTINUOUS
 62
     7
100
AcDbText
 10
320.8739013671875
 20
207.6106262207031
 30
0.0
 40
8.833128929138184
  1
Ｒ
 50
317.4999999999999
 41
1.423032674609839
  7
FX_VECTOR
 72
     5
 11
327.4935096433683
 21
201.5448727974549
 31
0.0
100
AcDbText
  0
TEXT
  5
1E9
330
1F
100
AcDbEntity
  8
基準ﾚｲﾔｸ_ﾙ_ﾌ__01
  6
CONTINUOUS
 62
     7
100
AcDbText
 10
267.8361206054688
 20
97.38814544677734
 30
0.0
 40
8.833128929138184
  1
８
 50
163.0
 41
1.423032674609845
  7
FX_VECTOR
 72
     5
 11
259.2499854280161
 21
100.0131904056761
 31
0.0
100
AcDbText
  0
TEXT
  5
1EA
330
1F
100
AcDbEntity
  8
基準ﾚｲﾔｸ_ﾙ_ﾌ__01
  6
CONTINUOUS
 62
     7
100
AcDbText
 10
276.4779663085938
 20
96.0277099609375
 30
0.0
 40
8.833128929138184
  1
３
 50
171.0000000000001
 41
1.423032674609841
  7
FX_VECTOR
 72
     5
 11
267.6100551613742
 21
97.43224910483758
 31
0.0
100
AcDbText
  0
TEXT
  5
1EB
330
1F
100
AcDbEntity
  8
基準ﾚｲﾔｸ_ﾙ_ﾌ__01
  6
CONTINUOUS
 62
     7
100
AcDbText
 10
284.6784973144531
 20
95.8564682006836
 30
0.0
 40
8.833128929138184
  1
Ｘ
 50
178.5
 41
1.423032674609841
  7
FX_VECTOR
 72
     5
 11
275.7031232301455
 21
96.09149664250938
 31
0.0
100
AcDbText
  0
TEXT
  5
1EC
330
1F
100
AcDbEntity
  8
基準ﾚｲﾔｸ_ﾙ_ﾌ__01
  6
CONTINUOUS
 62
     7
100
AcDbText
 10
293.36962890625
 20
96.85494232177734
 30
0.0
 40
8.833128929138184
  1
０
 50
186.4999999999999
 41
1.423032674609842
  7
FX_VECTOR
 72
     5
 11
284.4488929084868
 21
95.8385528393738
 31
0.0
100
AcDbText
  0
TEXT
  5
1ED
330
1F
100
AcDbEntity
  8
基準ﾚｲﾔｸ_ﾙ_ﾌ__01
  6
CONTINUOUS
 62
     7
100
AcDbText
 10
301.8371887207031
 20
99.05327606201172
 30
0.0
 40
8.833128929138184
  1
５
 50
194.5
 41
1.423032674609844
  7
FX_VECTOR
 72
     5
 11
293.1447227884941
 21
96.80525152052793
 31
0.0
100
AcDbText
  0
TEXT
  5
1EE
330
1F
100
AcDbEntity
  8
基準ﾚｲﾔｸ_ﾙ_ﾌ__01
  6
CONTINUOUS
 62
     7
100
AcDbText
 10
308.9331970214844
 20
101.9279861450195
 30
0.0
 40
8.833128929138184
  1
１
 50
201.4999999999999
 41
1.423032674609844
  7
FX_VECTOR
 72
     5
 11
300.5794886870262
 21
98.63737292184463
 31
0.0
100
AcDbText
  0
HATCH
  5
1EF
330
1F
100
AcDbEntity
  8
基準ﾚｲﾔｸ_ﾙ_ﾌ__01
  6
CONTINUOUS
 62
     6
100
AcDbHatch
 10
0.0
 20
0.0
 30
0.0
210
0.0
220
0.0
230
1.0
  2
_USER
 70
     0
 71
     0
 91
        4
 92
        0
 93
       25
 72
     1
 10
127.7846153846153
 20
217.1
 11
115.4846153846153
 21
217.1
 72
     2
 10
115.4846153846153
 20
213.4999999999999
 40
3.6
 50
90.0
 51
180.0
 73
     1
 72
     2
 10
108.2846153846153
 20
213.4999999999999
 40
3.6
 50
0.0
 51
90.0
 73
     1
 72
     1
 10
108.2846153846153
 20
217.1
 11
95.98461538461538
 21
217.1
 72
     2
 10
95.98461538461538
 20
218.6
 40
1.5
 50
90.0
 51
180.0
 73
     0
 72
     1
 10
94.48461538461538
 20
218.6
 11
94.48461538461538
 21
219.0
 72
     1
 10
94.48461538461538
 20
219.0
 11
92.88461538461534
 21
219.0
 72
     1
 10
92.88461538461534
 20
219.0
 11
92.88461538461533
 21
218.6000000000001
 72
     2
 10
95.98461538461532
 20
218.6
 40
3.1
 50
179.9999999999979
 51
270.0000000000002
 73
     1
 72
     1
 10
95.98461538461534
 20
215.5
 11
108.2846153846153
 21
215.5
 72
     2
 10
108.2846153846153
 20
213.5
 40
2.0
 50
270.0
 51
359.9999999999992
 73
     0
 72
     1
 10
110.2846153846154
 20
213.5000000000001
 11
110.2846153846154
 21
213.0
 72
     1
 10
110.2846153846154
 20
213.0
 11
109.4846153846154
 21
213.0
 72
     1
 10
109.4846153846154
 20
213.0
 11
109.4846153846154
 21
211.0
 72
     2
 10
109.9846153846154
 20
211.0
 40
0.5
 50
180.0
 51
270.0
 73
     1
 72
     1
 10
109.9846153846154
 20
210.5
 11
112.4846153846154
 21
210.5000000000001
 72
     2
 10
112.4846153846154
 20
211.5000000000001
 40
1.0
 50
270.0000000000007
 51
360.0
 73
     1
 72
     1
 10
113.4846153846154
 20
211.5000000000001
 11
113.4846153846154
 21
213.5
 72
     2
 10
115.4846153846153
 20
213.5
 40
2.0
 50
180.0000000000008
 51
270.0
 73
     0
 72
     1
 10
115.4846153846153
 20
215.5
 11
127.7846153846153
 21
215.5
 72
     2
 10
127.7846153846153
 20
218.6
 40
3.1
 50
270.0
 51
360.0
 73
     1
 72
     1
 10
130.8846153846153
 20
218.6
 11
130.8846153846153
 21
219.0
 72
     1
 10
130.8846153846153
 20
219.0
 11
129.2846153846153
 21
219.0
 72
     1
 10
129.2846153846153
 20
219.0
 11
129.2846153846153
 21
218.6
 72
     2
 10
127.7846153846153
 20
218.6
 40
1.5
 50
0.0
 51
90.0
 73
     0
 97
        0
 92
        0
 93
       43
 72
     1
 10
113.4846153846153
 20
196.6297843607433
 11
113.4846153846153
 21
199.5
 72
     2
 10
112.4846153846154
 20
199.5
 40
1.0
 50
0.0
 51
89.99999999999919
 73
     1
 72
     1
 10
112.4846153846154
 20
200.5000000000001
 11
109.9846153846154
 21
200.5000000000001
 72
     2
 10
109.9846153846154
 20
200.0
 40
0.5
 50
90.0
 51
180.0
 73
     1
 72
     1
 10
109.4846153846154
 20
200.0
 11
109.4846153846154
 21
198.0000000000001
 72
     1
 10
109.4846153846154
 20
198.0000000000001
 11
110.2846153846153
 21
198.0000000000001
 72
     1
 10
110.2846153846153
 20
198.0000000000001
 11
110.2846153846153
 21
196.6297843607433
 72
     2
 10
108.2846153846153
 20
196.6297843607433
 40
2.0
 50
0.0
 51
58.92353060444479
 73
     0
 72
     1
 10
109.3169786405454
 20
194.9168260694222
 11
90.30370724479012
 21
183.4579348264446
 72
     2
 10
92.88461538461533
 20
179.1755390981421
 40
5.0
 50
121.0764693955553
 51
180.0000000000003
 73
     1
 72
     1
 10
87.88461538461533
 20
179.1755390981421
 11
87.88461538461534
 21
176.45
 72
     2
 10
89.88461538461533
 20
176.45
 40
2.0
 50
180.0
 51
270.0
 73
     1
 72
     1
 10
89.88461538461533
 20
174.45
 11
96.88461538461534
 21
174.45
 72
     2
 10
96.88461538461534
 20
173.45
 40
1.0
 50
270.0
 51
360.0
 73
     0
 72
     1
 10
97.88461538461534
 20
173.45
 11
97.88461538461534
 21
172.0000000000001
 72
     1
 10
97.88461538461534
 20
172.0000000000001
 11
98.88461538461536
 21
171.9999999999999
 72
     1
 10
98.88461538461536
 20
171.9999999999999
 11
98.88461538461534
 21
173.15
 72
     2
 10
96.38461538461534
 20
173.15
 40
2.5
 50
0.0000000000006514
 51
89.99999999999969
 73
     1
 72
     1
 10
96.38461538461536
 20
175.6499999999999
 11
90.48461538461532
 21
175.65
 72
     2
 10
90.48461538461532
 20
176.6499999999999
 40
1.0
 50
90.0
 51
180.0
 73
     0
 72
     1
 10
89.48461538461532
 20
176.6499999999999
 11
89.48461538461532
 21
178.8366037899191
 72
     2
 10
93.48461538461532
 20
178.8366037899191
 40
4.0
 50
180.0
 51
238.9235306044448
 73
     0
 72
     1
 10
91.41988887275515
 20
182.2625203725611
 11
110.1428692452895
 21
193.5464594363654
 72
     2
 10
108.2846153846153
 20
196.6297843607433
 40
3.6
 50
301.0764693955553
 51
360.0
 73
     1
 72
     2
 10
115.4846153846153
 20
196.6297843607433
 40
3.6
 50
180.0
 51
238.9235306044447
 73
     1
 72
     1
 10
113.6263615239411
 20
193.5464594363654
 11
132.3493418964755
 21
182.2625203725611
 72
     2
 10
130.2846153846153
 20
178.8366037899191
 40
4.0
 50
301.0764693955551
 51
360.0
 73
     0
 72
     1
 10
134.2846153846153
 20
178.8366037899191
 11
134.2846153846153
 21
176.6499999999999
 72
     2
 10
133.2846153846153
 20
176.6499999999999
 40
1.0
 50
0.0
 51
90.0
 73
     0
 72
     1
 10
133.2846153846153
 20
175.65
 11
127.3846153846153
 21
175.6499999999999
 72
     2
 10
127.3846153846153
 20
173.15
 40
2.5
 50
90.0
 51
180.0
 73
     1
 72
     1
 10
124.8846153846153
 20
173.15
 11
124.8846153846153
 21
171.9999999999999
 72
     1
 10
124.8846153846153
 20
171.9999999999999
 11
125.8846153846153
 21
171.9999999999999
 72
     1
 10
125.8846153846153
 20
171.9999999999999
 11
125.8846153846153
 21
173.45
 72
     2
 10
126.8846153846153
 20
173.45
 40
1.0
 50
180.0
 51
270.0
 73
     0
 72
     1
 10
126.8846153846153
 20
174.45
 11
133.8846153846153
 21
174.45
 72
     2
 10
133.8846153846153
 20
176.45
 40
2.0
 50
270.0
 51
359.9999999999993
 73
     1
 72
     1
 10
135.8846153846153
 20
176.4499999999999
 11
135.8846153846153
 21
179.175539098142
 72
     2
 10
130.8846153846153
 20
179.1755390981421
 40
5.0
 50
359.9999999999994
 51
418.9235306044449
 73
     1
 72
     1
 10
133.4655235244405
 20
183.4579348264446
 11
114.4522521286852
 21
194.9168260694222
 72
     2
 10
115.4846153846153
 20
196.6297843607433
 40
2.0
 50
121.0764693955552
 51
180.0
 73
     0
 72
     1
 10
113.4846153846153
 20
196.6297843607433
 11
113.4846153846153
 21
199.5
 72
     1
 10
113.4846153846153
 20
199.5
 11
113.4846153846153
 21
196.6297843607433
 97
        0
 92
        0
 93
       41
 72
     1
 10
132.3493418964755
 20
134.7374796274389
 11
113.6263615239411
 21
123.4535405636346
 72
     2
 10
115.4846153846153
 20
120.3702156392567
 40
3.6
 50
121.0764693955553
 51
180.0
 73
     1
 72
     2
 10
108.2846153846153
 20
120.3702156392567
 40
3.6
 50
0.0
 51
58.92353060444476
 73
     1
 72
     1
 10
110.1428692452895
 20
123.4535405636346
 11
91.41988887275515
 21
134.7374796274389
 72
     2
 10
93.48461538461532
 20
138.1633962100809
 40
4.0
 50
121.0764693955553
 51
180.0
 73
     0
 72
     1
 10
89.48461538461532
 20
138.1633962100809
 11
89.48461538461532
 21
140.3500000000001
 72
     2
 10
90.48461538461532
 20
140.3500000000001
 40
1.0
 50
180.0
 51
270.0
 73
     0
 72
     1
 10
90.48461538461532
 20
141.35
 11
96.38461538461536
 21
141.3500000000001
 72
     2
 10
96.38461538461534
 20
143.85
 40
2.5
 50
270.0000000000003
 51
360.0
 73
     1
 72
     1
 10
98.88461538461534
 20
143.85
 11
98.88461538461534
 21
145.0000000000001
 72
     1
 10
98.88461538461534
 20
145.0000000000001
 11
97.88461538461536
 21
145.0000000000001
 72
     1
 10
97.88461538461536
 20
145.0000000000001
 11
97.88461538461534
 21
143.55
 72
     2
 10
96.88461538461529
 20
143.55
 40
1.0
 50
0.0
 51
90.0
 73
     0
 72
     1
 10
96.88461538461529
 20
142.55
 11
89.88461538461533
 21
142.55
 72
     2
 10
89.88461538461533
 20
140.55
 40
2.0
 50
90.0
 51
180.0
 73
     1
 72
     1
 10
87.88461538461534
 20
140.55
 11
87.88461538461533
 21
137.8244609018579
 72
     2
 10
92.88461538461533
 20
137.8244609018579
 40
5.0
 50
179.9999999999997
 51
238.9235306044447
 73
     1
 72
     1
 10
90.30370724479012
 20
133.5420651735554
 11
109.3169786405454
 21
122.0831739305778
 72
     2
 10
108.2846153846153
 20
120.3702156392567
 40
2.0
 50
301.0764693955552
 51
360.0
 73
     0
 72
     1
 10
110.2846153846153
 20
120.3702156392567
 11
110.2846153846153
 21
119.0
 72
     1
 10
110.2846153846153
 20
119.0
 11
109.4846153846154
 21
118.9999999999999
 72
     1
 10
109.4846153846154
 20
118.9999999999999
 11
109.4846153846154
 21
117.0
 72
     2
 10
109.9846153846154
 20
117.0
 40
0.5
 50
180.0
 51
270.0
 73
     1
 72
     1
 10
109.9846153846154
 20
116.4999999999999
 11
112.4846153846154
 21
116.4999999999999
 72
     2
 10
112.4846153846154
 20
117.5
 40
1.0
 50
270.0000000000007
 51
360.0
 73
     1
 72
     1
 10
113.4846153846153
 20
117.5
 11
113.4846153846153
 21
120.3702156392567
 72
     2
 10
115.4846153846153
 20
120.3702156392567
 40
2.0
 50
180.0
 51
238.9235306044448
 73
     0
 72
     1
 10
114.4522521286852
 20
122.0831739305778
 11
133.4655235244405
 21
133.5420651735554
 72
     2
 10
130.8846153846153
 20
137.8244609018579
 40
5.0
 50
301.0764693955551
 51
360.0000000000006
 73
     1
 72
     1
 10
135.8846153846153
 20
137.824460901858
 11
135.8846153846153
 21
140.5500000000001
 72
     2
 10
133.8846153846153
 20
140.55
 40
2.0
 50
0.0000000000008142
 51
90.0
 73
     1
 72
     1
 10
133.8846153846153
 20
142.55
 11
126.8846153846153
 21
142.55
 72
     2
 10
126.8846153846153
 20
143.55
 40
1.0
 50
90.0
 51
180.0
 73
     0
 72
     1
 10
125.8846153846153
 20
143.55
 11
125.8846153846153
 21
144.9999999999999
 72
     1
 10
125.8846153846153
 20
144.9999999999999
 11
124.8846153846153
 21
145.0000000000001
 72
     1
 10
124.8846153846153
 20
145.0000000000001
 11
124.8846153846153
 21
143.85
 72
     2
 10
127.3846153846153
 20
143.85
 40
2.5
 50
180.0
 51
270.0
 73
     1
 72
     1
 10
127.3846153846153
 20
141.3500000000001
 11
133.2846153846153
 21
141.35
 72
     2
 10
133.2846153846153
 20
140.3500000000001
 40
1.0
 50
270.0
 51
360.0
 73
     0
 72
     1
 10
134.2846153846153
 20
140.3500000000001
 11
134.2846153846153
 21
138.1633962100809
 72
     2
 10
130.2846153846153
 20
138.1633962100809
 40
4.0
 50
0.0
 51
58.92353060444493
 73
     0
 97
        0
 92
        0
 93
       25
 72
     1
 10
115.4846153846153
 20
101.5
 11
127.7846153846153
 21
101.5000000000001
 72
     2
 10
127.7846153846153
 20
98.40000000000006
 40
3.1
 50
270.0
 51
360.0
 73
     0
 72
     1
 10
130.8846153846153
 20
98.40000000000006
 11
130.8846153846153
 21
98.00000000000006
 72
     1
 10
130.8846153846153
 20
98.00000000000006
 11
129.2846153846153
 21
98.00000000000006
 72
     1
 10
129.2846153846153
 20
98.00000000000006
 11
129.2846153846153
 21
98.40000000000003
 72
     2
 10
127.7846153846153
 20
98.40000000000003
 40
1.5
 50
0.0
 51
90.0
 73
     1
 72
     1
 10
127.7846153846153
 20
99.90000000000003
 11
115.4846153846153
 21
99.90000000000003
 72
     2
 10
115.4846153846153
 20
103.5000000000001
 40
3.6
 50
90.0
 51
180.0
 73
     0
 72
     2
 10
108.2846153846153
 20
103.5000000000001
 40
3.6
 50
0.0
 51
90.0
 73
     0
 72
     1
 10
108.2846153846153
 20
99.90000000000003
 11
95.98461538461538
 21
99.90000000000003
 72
     2
 10
95.98461538461538
 20
98.40000000000003
 40
1.5
 50
90.0
 51
180.0
 73
     1
 72
     1
 10
94.48461538461538
 20
98.40000000000003
 11
94.48461538461538
 21
98.00000000000006
 72
     1
 10
94.48461538461538
 20
98.00000000000006
 11
92.88461538461534
 21
98.00000000000006
 72
     1
 10
92.88461538461534
 20
98.00000000000006
 11
92.88461538461533
 21
98.39999999999995
 72
     2
 10
95.98461538461532
 20
98.40000000000006
 40
3.1
 50
179.9999999999979
 51
270.0000000000002
 73
     0
 72
     1
 10
95.98461538461534
 20
101.5000000000001
 11
108.2846153846153
 21
101.5
 72
     2
 10
108.2846153846153
 20
103.5
 40
2.0
 50
270.0
 51
359.9999999999996
 73
     1
 72
     1
 10
110.2846153846154
 20
103.5
 11
110.2846153846154
 21
104.0
 72
     1
 10
110.2846153846154
 20
104.0
 11
109.4846153846154
 21
104.0
 72
     1
 10
109.4846153846154
 20
104.0
 11
109.4846153846154
 21
106.0
 72
     2
 10
109.9846153846154
 20
106.0
 40
0.5
 50
180.0
 51
270.0
 73
     0
 72
     1
 10
109.9846153846154
 20
106.5
 11
112.4846153846154
 21
106.4999999999999
 72
     2
 10
112.4846153846154
 20
105.4999999999999
 40
1.0
 50
270.0000000000008
 51
359.9999999999992
 73
     0
 72
     1
 10
113.4846153846154
 20
105.4999999999999
 11
113.4846153846154
 21
103.5000000000001
 72
     2
 10
115.4846153846153
 20
103.5000000000001
 40
2.0
 50
180.0000000000008
 51
270.0
 73
     1
 97
        0
 75
     0
 76
     0
 52
45.0
 41
2.0
 77
     0
 78
     1
 53
45.0
 43
0.0
 44
0.0
 45
-1.414213562373095
 46
1.414213562373095
 79
     0
 98
        0
  0
CIRCLE
  5
1F0
330
1F
100
AcDbEntity
  8
基準ﾚｲﾔｸ_ﾙ_ﾌ__01
  6
CONTINUOUS
 62
     6
100
AcDbCircle
 10
281.8846153846154
 20
158.5
 30
0.0
 40
17.14999999999998
  0
TEXT
  5
1F1
330
1F
100
AcDbEntity
  8
基準ﾚｲﾔｸ_ﾙ_ﾌ__01
  6
CONTINUOUS
 62
     7
100
AcDbText
 10
108.8846206665039
 20
70.51063537545296
 30
0.0
 40
4.0
  1
３８
 41
0.9545454545454547
  7
FX_VECTOR
 72
     5
 11
114.8846206665039
 21
70.51063537650016
 31
0.0
100
AcDbText
  0
LINE
  5
1F2
330
1F
100
AcDbEntity
  8
基準ﾚｲﾔｸ_ﾙ_ﾌ__01
  6
CONTINUOUS
 62
     7
100
AcDbLine
 10
92.88461538461539
 20
69.51063829787233
 30
0.0
 11
130.8846153846153
 21
69.51063829787233
 31
0.0
  0
INSERT
  5
1F3
330
1F
100
AcDbEntity
  8
基準ﾚｲﾔｸ_ﾙ_ﾌ__01
  6
CONTINUOUS
 62
     7
100
AcDbBlockReference
  2
FXTIP_ARROW_S
 10
92.88461538461539
 20
69.51063829787233
 30
0.0
 41
4.0
 42
4.0
 50
180.0
  0
INSERT
  5
1F4
330
1F
100
AcDbEntity
  8
基準ﾚｲﾔｸ_ﾙ_ﾌ__01
  6
CONTINUOUS
 62
     7
100
AcDbBlockReference
  2
FXTIP_ARROW_E
 10
130.8846153846153
 20
69.51063829787233
 30
0.0
 41
4.0
 42
4.0
 50
360.0
  0
LINE
  5
1F5
330
1F
100
AcDbEntity
  8
基準ﾚｲﾔｸ_ﾙ_ﾌ__01
  6
CONTINUOUS
 62
     7
100
AcDbLine
 10
92.88461538461539
 20
97.40000000000006
 30
0.0
 11
92.8846153846154
 21
68.51063829787233
 31
0.0
  0
LINE
  5
1F6
330
1F
100
AcDbEntity
  8
基準ﾚｲﾔｸ_ﾙ_ﾌ__01
  6
CONTINUOUS
 62
     7
100
AcDbLine
 10
130.8846153846153
 20
97.40000000000006
 30
0.0
 11
130.8846153846153
 21
68.51063829787233
 31
0.0
  0
TEXT
  5
1F7
330
1F
100
AcDbEntity
  8
基準ﾚｲﾔｸ_ﾙ_ﾌ__01
  6
CONTINUOUS
 62
     7
100
AcDbText
 10
108.8846206665039
 20
60.27006149239632
 30
0.0
 40
4.0
  1
５４
 41
0.9545454545454547
  7
FX_VECTOR
 72
     5
 11
114.8846206665039
 21
60.27006149344352
 31
0.0
100
AcDbText
  0
LINE
  5
1F8
330
1F
100
AcDbEntity
  8
基準ﾚｲﾔｸ_ﾙ_ﾌ__01
  6
CONTINUOUS
 62
     7
100
AcDbLine
 10
84.8846153846153
 20
59.27006058713164
 30
0.0
 11
138.8846153846153
 21
59.27006058713163
 31
0.0
  0
INSERT
  5
1F9
330
1F
100
AcDbEntity
  8
基準ﾚｲﾔｸ_ﾙ_ﾌ__01
  6
CONTINUOUS
 62
     7
100
AcDbBlockReference
  2
FXTIP_ARROW_S
 10
84.8846153846153
 20
59.27006058713164
 30
0.0
 41
4.0
 42
4.0
 50
180.0
  0
INSERT
  5
1FA
330
1F
100
AcDbEntity
  8
基準ﾚｲﾔｸ_ﾙ_ﾌ__01
  6
CONTINUOUS
 62
     7
100
AcDbBlockReference
  2
FXTIP_ARROW_E
 10
138.8846153846153
 20
59.27006058713163
 30
0.0
 41
4.0
 42
4.0
 50
360.0
  0
LINE
  5
1FB
330
1F
100
AcDbEntity
  8
基準ﾚｲﾔｸ_ﾙ_ﾌ__01
  6
CONTINUOUS
 62
     7
100
AcDbLine
 10
84.8846153846153
 20
148.0
 30
0.0
 11
84.8846153846153
 21
58.27006058713164
 31
0.0
  0
LINE
  5
1FC
330
1F
100
AcDbEntity
  8
基準ﾚｲﾔｸ_ﾙ_ﾌ__01
  6
CONTINUOUS
 62
     7
100
AcDbLine
 10
138.8846153846153
 20
148.0
 30
0.0
 11
138.8846153846153
 21
58.27006058713163
 31
0.0
  0
TEXT
  5
1FD
330
1F
100
AcDbEntity
  8
基準ﾚｲﾔｸ_ﾙ_ﾌ__01
  6
CONTINUOUS
 62
     7
100
AcDbText
 10
157.746337890625
 20
151.0
 30
0.0
 40
4.0
  1
φ
 50
90.0
 41
1.05
  7
FX_VECTOR
 72
     5
 11
157.746337890625
 21
154.0
 31
0.0
100
AcDbText
  0
TEXT
  5
1FE
330
1F
100
AcDbEntity
  8
基準ﾚｲﾔｸ_ﾙ_ﾌ__01
  6
CONTINUOUS
 62
     7
100
AcDbText
 10
157.746337890625
 20
154.0
 30
0.0
 40
4.0
  1
１２．２
 50
90.0
 41
0.9130434782608696
  7
FX_VECTOR
 72
     5
 11
157.746337890625
 21
166.0
 31
0.0
100
AcDbText
  0
LINE
  5
1FF
330
1F
100
AcDbEntity
  8
基準ﾚｲﾔｸ_ﾙ_ﾌ__01
  6
CONTINUOUS
 62
     7
100
AcDbLine
 10
149.7463316434784
 20
152.4000000000001
 30
0.0
 11
149.7463316434784
 21
164.6000000000001
 31
0.0
  0
LINE
  5
200
330
1F
100
AcDbEntity
  8
基準ﾚｲﾔｸ_ﾙ_ﾌ__01
  6
CONTINUOUS
 62
     7
100
AcDbLine
 10
139.3846153846154
 20
152.4000000000001
 30
0.0
 11
150.7463316434784
 21
152.4000000000001
 31
0.0
  0
LINE
  5
201
330
1F
100
AcDbEntity
  8
基準ﾚｲﾔｸ_ﾙ_ﾌ__01
  6
CONTINUOUS
 62
     7
100
AcDbLine
 10
139.3846153846154
 20
164.6
 30
0.0
 11
150.7463316434784
 21
164.6000000000001
 31
0.0
  0
LINE
  5
202
330
1F
100
AcDbEntity
  8
基準ﾚｲﾔｸ_ﾙ_ﾌ__01
  6
CONTINUOUS
 62
     7
100
AcDbLine
 10
149.7463316434784
 20
146.4000000000001
 30
0.0
 11
149.7463316434784
 21
152.4000000000001
 31
0.0
  0
INSERT
  5
203
330
1F
100
AcDbEntity
  8
基準ﾚｲﾔｸ_ﾙ_ﾌ__01
  6
CONTINUOUS
 62
     7
100
AcDbBlockReference
  2
FXTIP_ARROW_E
 10
149.7463316434784
 20
152.4000000000001
 30
0.0
 41
4.0
 42
4.0
 50
90.0
  0
LINE
  5
204
330
1F
100
AcDbEntity
  8
基準ﾚｲﾔｸ_ﾙ_ﾌ__01
  6
CONTINUOUS
 62
     7
100
AcDbLine
 10
149.7463316434784
 20
164.6000000000001
 30
0.0
 11
149.7463316434784
 21
170.6000000000001
 31
0.0
  0
INSERT
  5
205
330
1F
100
AcDbEntity
  8
基準ﾚｲﾔｸ_ﾙ_ﾌ__01
  6
CONTINUOUS
 62
     7
100
AcDbBlockReference
  2
FXTIP_ARROW_S
 10
149.7463316434784
 20
164.6000000000001
 30
0.0
 41
4.0
 42
4.0
 50
270.0
  0
TEXT
  5
206
330
1F
100
AcDbEntity
  8
基準ﾚｲﾔｸ_ﾙ_ﾌ__01
  6
CONTINUOUS
 62
     7
100
AcDbText
 10
173.8463897705078
 20
155.5
 30
0.0
 40
4.0
  1
１５０
 50
90.0
 41
0.9264705882352942
  7
FX_VECTOR
 72
     5
 11
173.8463897705078
 21
164.5
 31
0.0
100
AcDbText
  0
LINE
  5
207
330
1F
100
AcDbEntity
  8
基準ﾚｲﾔｸ_ﾙ_ﾌ__01
  6
CONTINUOUS
 62
     7
100
AcDbLine
 10
174.8463935994138
 20
83.5
 30
0.0
 11
174.8463935994138
 21
233.5
 31
0.0
  0
INSERT
  5
208
330
1F
100
AcDbEntity
  8
基準ﾚｲﾔｸ_ﾙ_ﾌ__01
  6
CONTINUOUS
 62
     7
100
AcDbBlockReference
  2
FXTIP_ARROW_S
 10
174.8463935994138
 20
83.5
 30
0.0
 41
4.0
 42
4.0
 50
270.0
  0
INSERT
  5
209
330
1F
100
AcDbEntity
  8
基準ﾚｲﾔｸ_ﾙ_ﾌ__01
  6
CONTINUOUS
 62
     7
100
AcDbBlockReference
  2
FXTIP_ARROW_E
 10
174.8463935994138
 20
233.5
 30
0.0
 41
4.0
 42
4.0
 50
90.0
  0
LINE
  5
20A
330
1F
100
AcDbEntity
  8
基準ﾚｲﾔｸ_ﾙ_ﾌ__01
  6
CONTINUOUS
 62
     7
100
AcDbLine
 10
112.8846153846153
 20
83.5
 30
0.0
 11
175.8463935994138
 21
83.5
 31
0.0
  0
LINE
  5
20B
330
1F
100
AcDbEntity
  8
基準ﾚｲﾔｸ_ﾙ_ﾌ__01
  6
CONTINUOUS
 62
     7
100
AcDbLine
 10
112.8846153846153
 20
233.5
 30
0.0
 11
175.8463935994138
 21
233.5
 31
0.0
  0
TEXT
  5
20C
330
1F
100
AcDbEntity
  8
基準ﾚｲﾔｸ_ﾙ_ﾌ__01
  6
CONTINUOUS
 62
     7
100
AcDbText
 10
173.8463897705078
 20
152.5
 30
0.0
 40
4.0
  1
φ
 50
90.0
 41
1.05
  7
FX_VECTOR
 72
     5
 11
173.8463897705078
 21
155.5
 31
0.0
100
AcDbText
  0
LINE
  5
20D
330
1F
100
AcDbEntity
  8
GR1_01
  6
DASHDOT
 62
     6
100
AcDbLine
 10
321.6730446369175
 20
118.7115707476977
 30
0.0
 11
307.1851976405763
 21
133.1994177440389
 31
0.0
  0
LINE
  5
20E
330
1F
100
AcDbEntity
  8
GR1_01
  6
DASHDOT
 62
     6
100
AcDbLine
 10
307.4641160203162
 20
184.0795006357009
 30
0.0
 11
321.7867921225623
 21
198.402176737947
 31
0.0
  0
LINE
  5
20F
330
1F
100
AcDbEntity
  8
GR1_01
  6
DASHDOT
 62
     6
100
AcDbLine
 10
256.3556719149364
 20
132.9710565303211
 30
0.0
 11
241.9858041286632
 21
118.6011887440478
 31
0.0
  0
LINE
  5
210
330
1F
100
AcDbEntity
  8
GR1_01
  6
DASHDOT
 62
     6
100
AcDbLine
 10
242.0606736830818
 20
198.3239417015335
 30
0.0
 11
256.26537057526
 21
184.1192448093553
 31
0.0
  0
CIRCLE
  5
211
330
1F
100
AcDbEntity
  8
基準ﾚｲﾔｸ_ﾙ_ﾌ__01
  6
DASHDOT
 62
     6
100
AcDbCircle
 10
281.8846153846154
 20
158.5
 30
0.0
 40
47.0
  0
INSERT
  5
215
330
1F
100
AcDbEntity
  8
図面枠ﾚｲﾔ_01
  6
CONTINUOUS
 62
     7
100
AcDbBlockReference
  2
BLKF024
 10
0.0
 20
0.0
 30
0.0
  0
CIRCLE
  5
240
330
1F
100
AcDbEntity
  8
基準ﾚｲﾔｸ_ﾙ_ﾌ__01
  6
CONTINUOUS
 62
     3
100
AcDbCircle
 10
281.8846153846154
 20
158.5
 30
0.0
 40
16.0
  0
INSERT
  5
244
330
1F
100
AcDbEntity
  8
基準ﾚｲﾔｸ_ﾙ_ﾌ__01
  6
CONTINUOUS
 62
     3
100
AcDbBlockReference
  2
BLKF027
 10
0.0
 20
0.0
 30
0.0
  0
INSERT
  5
282
330
1F
100
AcDbEntity
  8
基準ﾚｲﾔｸ_ﾙ_ﾌ__01
  6
CONTINUOUS
 62
     3
100
AcDbBlockReference
  2
BLKF028
 10
0.0
 20
0.0
 30
0.0
  0
CIRCLE
  5
2BD
330
1F
100
AcDbEntity
  8
基準ﾚｲﾔｸ_ﾙ_ﾌ__01
  6
CONTINUOUS
 62
     3
100
AcDbCircle
 10
281.8846153846154
 20
158.5
 30
0.0
 40
5.999999999999943
  0
CIRCLE
  5
2BE
330
1F
100
AcDbEntity
  8
基準ﾚｲﾔｸ_ﾙ_ﾌ__01
  6
CONTINUOUS
 62
     3
100
AcDbCircle
 10
281.8846153846154
 20
158.5
 30
0.0
 40
9.333333333333314
  0
CIRCLE
  5
2BF
330
1F
100
AcDbEntity
  8
基準ﾚｲﾔｸ_ﾙ_ﾌ__01
  6
CONTINUOUS
 62
     6
100
AcDbCircle
 10
281.8846153846154
 20
158.5
 30
0.0
 40
13.25
  0
CIRCLE
  5
2C0
330
1F
100
AcDbEntity
  8
基準ﾚｲﾔｸ_ﾙ_ﾌ__01
  6
CONTINUOUS
 62
     6
100
AcDbCircle
 10
281.8846153846154
 20
158.5
 30
0.0
 40
6.599999999999923
  0
ENDSEC
  0
SECTION
  2
OBJECTS
  0
DICTIONARY
  5
C
330
0
100
AcDbDictionary
  3
ACAD_GROUP
350
D
  3
ACAD_LAYOUT
350
1A
  3
ACAD_MATERIAL
350
3B
  3
ACAD_MLEADERSTYLE
350
2E3
  3
ACAD_MLINESTYLE
350
17
  3
ACAD_PLOTSETTINGS
350
19
  3
ACAD_VISUALSTYLE
350
2A
  3
ACDBHEADERROUNDTRIPXREC
350
2C1
  3
ACDBVARIABLEDICTIONARY
350
2E1
  0
DICTIONARY
  5
D
102
{ACAD_REACTORS
330
C
102
}
330
C
100
AcDbDictionary
  0
DICTIONARY
  5
1A
102
{ACAD_REACTORS
330
C
102
}
330
C
100
AcDbDictionary
  0
DICTIONARY
  5
3B
102
{ACAD_REACTORS
330
C
102
}
330
C
100
AcDbDictionary
  3
BYBLOCK
350
3D
  3
BYLAYER
350
3C
  3
GLOBAL
350
3E
  0
DICTIONARY
  5
2E3
102
{ACAD_REACTORS
330
C
102
}
330
C
100
AcDbDictionary
  0
DICTIONARY
  5
17
102
{ACAD_REACTORS
330
C
102
}
330
C
100
AcDbDictionary
  3
STANDARD
350
18
  0
DICTIONARY
  5
19
102
{ACAD_REACTORS
330
C
102
}
330
C
100
AcDbDictionary
  0
DICTIONARY
  5
2A
102
{ACAD_REACTORS
330
C
102
}
330
C
100
AcDbDictionary
  3
2DWIREFRAME
350
2F
  3
3D_HIDDEN
350
31
  3
3DWIREFRAME
350
30
  3
BASIC
350
32
  3
BRIGHTEN
350
36
  3
COLORCHANGE
350
3A
  3
CONCEPTUAL
350
34
  3
DIM
350
35
  3
FACEPATTERN
350
39
  3
FLAT
350
2B
  3
FLATWITHEDGES
350
2C
  3
GOURAUD
350
2D
  3
GOURAUDWITHEDGES
350
2E
  3
LINEPATTERN
350
38
  3
REALISTIC
350
33
  3
THICKEN
350
37
  0
DICTIONARY
  5
2C1
102
{ACAD_REACTORS
330
C
102
}
330
C
100
AcDbDictionary
  3
CEPSNTYPE
350
2CA
  3
DIMSTYLEDATA
350
2E0
  3
FINGERPRINTGUID
350
2CB
  3
HYPERLINKBASE
350
2C4
  3
INSUNITS
350
2C9
  3
LAYOUTDICT
350
2C6
  3
LWETCUNION
350
2C8
  3
PLOTSETDICT
350
2C7
  3
PSVPSCALE
350
2CD
  3
PUCSBASE
350
2D0
  3
PUCSORGBACK
350
2D6
  3
PUCSORGBOTTOM
350
2D2
  3
PUCSORGFRONT
350
2D5
  3
PUCSORGLEFT
350
2D3
  3
PUCSORGRIGHT
350
2D4
  3
PUCSORGTOP
350
2D1
  3
PUCSORTHOREF
350
2CE
  3
PUCSORTHOVIEW
350
2CF
  3
STYLESHEET
350
2C5
  3
TSTACKALIGN
350
2C2
  3
TSTACKSIZE
350
2C3
  3
UCSBASE
350
2D9
  3
UCSORGBACK
350
2DF
  3
UCSORGBOTTOM
350
2DB
  3
UCSORGFRONT
350
2DE
  3
UCSORGLEFT
350
2DC
  3
UCSORGRIGHT
350
2DD
  3
UCSORGTOP
350
2DA
  3
UCSORTHOREF
350
2D7
  3
UCSORTHOVIEW
350
2D8
  3
VERSIONGUID
350
2CC
  0
DICTIONARY
  5
2E1
102
{ACAD_REACTORS
330
C
102
}
330
C
100
AcDbDictionary
  3
DIMASSOC
350
2E6
  3
HIDETEXT
350
2E7
  3
PSOLHEIGHT
350
2E5
  3
PSOLWIDTH
350
2E4
  0
MATERIAL
  5
3D
102
{ACAD_REACTORS
330
3B
102
}
102
{ACAD_XDICTIONARY
360
2EA
102
}
330
3B
100
AcDbMaterial
  1
ByBlock
  0
MATERIAL
  5
3C
102
{ACAD_REACTORS
330
3B
102
}
102
{ACAD_XDICTIONARY
360
2E8
102
}
330
3B
100
AcDbMaterial
  1
ByLayer
  0
MATERIAL
  5
3E
102
{ACAD_REACTORS
330
3B
102
}
102
{ACAD_XDICTIONARY
360
2EC
102
}
330
3B
100
AcDbMaterial
  1
Global
  0
MLINESTYLE
  5
18
102
{ACAD_REACTORS
330
17
102
}
330
17
100
AcDbMlineStyle
  2
Standard
 70
     0
  3

 62
   256
 51
90.0
 52
90.0
 71
     2
 49
0.5
 62
   256
  6
BYLAYER
 49
-0.5
 62
   256
  6
BYLAYER
  0
ACAD_PROXY_OBJECT
  5
2F
102
{ACAD_REACTORS
330
2A
102
}
330
2A
100
AcDbProxyObject
 90
      499
 91
      501
 93
      436
310
42CC9915DA5C99599C985B595049028333333333333E3BF0000000000000FB0107901411070040501600405405064090741402480A0340
1001
ACAD
1000
AcDbSavedByObjectVersion
1070
     0
  0
ACAD_PROXY_OBJECT
  5
31
102
{ACAD_REACTORS
330
2A
102
}
330
2A
100
AcDbProxyObject
 90
      499
 91
      501
 93
      500
310
424CD108121A5919195B90640502408333333333333E3BF0000000000000FB01079024090700405020000000000001110200405405064090740C02480A0340
1001
ACAD
1000
AcDbSavedByObjectVersion
1070
     0
  0
ACAD_PROXY_OBJECT
  5
30
102
{ACAD_REACTORS
330
2A
102
}
330
2A
100
AcDbProxyObject
 90
      499
 91
      501
 93
      436
310
42CCD915DA5C99599C985B595059028333333333333E3BF0000000000000FB0107901411070040501600405405064090741402480A0340
1001
ACAD
1000
AcDbSavedByObjectVersion
1070
     0
  0
ACAD_PROXY_OBJECT
  5
32
102
{ACAD_REACTORS
330
2A
102
}
330
2A
100
AcDbProxyObject
 90
      499
 91
      501
 93
      388
310
4150985CDA58D07406404333333333333E3BF0000000000000FB0107A41107004050150841D405064090741402480A0350
1001
ACAD
1000
AcDbSavedByObjectVersion
1070
     0
  0
ACAD_PROXY_OBJECT
  5
36
102
{ACAD_REACTORS
330
2A
102
}
330
2A
100
AcDbProxyObject
 90
      499
 91
      501
 93
      428
310
42109C9A59DA1D195B90C409028333333333333E3BF0000000000000FB010790141107004050150841D405064090741402480A029950
1001
ACAD
1000
AcDbSavedByObjectVersion
1070
     0
  0
ACAD_PROXY_OBJECT
  5
3A
102
{ACAD_REACTORS
330
2A
102
}
330
2A
100
AcDbProxyObject
 90
      499
 91
      501
 93
      452
310
42D0DBDB1BDC90DA185B99D95104090240C333333333333E3BF0000000000000FB0108901411070040501508421405064090741402480A0350
1001
ACAD
1000
AcDbSavedByObjectVersion
1070
     0
  0
ACAD_PROXY_OBJECT
  5
34
102
{ACAD_REACTORS
330
2A
102
}
330
2A
100
AcDbProxyObject
 90
      499
 91
      501
 93
      500
310
4290DBDB98D95C1D1D585B10940D028333333333333E3BF0000000000000FB0107902409070040501000000000000111010841D405064090740C02480A0340
1001
ACAD
1000
AcDbSavedByObjectVersion
1070
     0
  0
ACAD_PROXY_OBJECT
  5
35
102
{ACAD_REACTORS
330
2A
102
}
330
2A
100
AcDbProxyObject
 90
      499
 91
      501
 93
      412
310
40D11A5B50B409028333333333333E3BF0000000000000FB010790141107004050150841D405064090741402480A02677FFFFFD0
1001
ACAD
1000
AcDbSavedByObjectVersion
1070
     0
  0
ACAD_PROXY_OBJECT
  5
39
102
{ACAD_REACTORS
330
2A
102
}
330
2A
100
AcDbProxyObject
 90
      499
 91
      501
 93
      444
310
42D19858D95C185D1D195C9B90F409028333333333333E3BF0000000000000FB010790141107004050150841D405064090741402480A0350
1001
ACAD
1000
AcDbSavedByObjectVersion
1070
     0
  0
ACAD_PROXY_OBJECT
  5
2B
102
{ACAD_REACTORS
330
2A
102
}
330
2A
100
AcDbProxyObject
 90
      499
 91
      501
 93
      388
310
41119B185D240901404333333333333E3BF0000000000000F9010740A41107004050150841D405064090741402480A1B50
1001
ACAD
1000
AcDbSavedByObjectVersion
1070
     0
  0
ACAD_PROXY_OBJECT
  5
2C
102
{ACAD_REACTORS
330
2A
102
}
330
2A
100
AcDbProxyObject
 90
      499
 91
      501
 93
      476
310
43519B185D15DA5D1A115919D95CD0140901404333333333333E3BF0000000000000F9010740901411070040501600405405064090741402480A1B50
1001
ACAD
1000
AcDbSavedByObjectVersion
1070
     0
  0
ACAD_PROXY_OBJECT
  5
2D
102
{ACAD_REACTORS
330
2A
102
}
330
2A
100
AcDbProxyObject
 90
      499
 91
      501
 93
      412
310
41D1DBDD5C985D5910240902404333333333333E3BF0000000000000F9010740A411070040501641D405064090741402480A1B50
1001
ACAD
1000
AcDbSavedByObjectVersion
1070
     0
  0
ACAD_PROXY_OBJECT
  5
2E
102
{ACAD_REACTORS
330
2A
102
}
330
2A
100
AcDbProxyObject
 90
      499
 91
      501
 93
      500
310
4411DBDD5C985D5915DA5D1A115919D95CD0340902404333333333333E3BF0000000000000F9010740901411070040501600405405064090741402480A1B50
1001
ACAD
1000
AcDbSavedByObjectVersion
1070
     0
  0
ACAD_PROXY_OBJECT
  5
38
102
{ACAD_REACTORS
330
2A
102
}
330
2A
100
AcDbProxyObject
 90
      499
 91
      501
 93
      444
310
42D31A5B995C185D1D195C9B90E409028333333333333E3BF0000000000000FB010790141107004050750841D405064090741402483A0350
1001
ACAD
1000
AcDbSavedByObjectVersion
1070
     0
  0
ACAD_PROXY_OBJECT
  5
33
102
{ACAD_REACTORS
330
2A
102
}
330
2A
100
AcDbProxyObject
 90
      499
 91
      501
 93
      420
310
425499585B1A5CDD1A58D08409028333333333333E3BF0000000000000FB01079019070040501508421405064090741402480A1B40
1001
ACAD
1000
AcDbSavedByObjectVersion
1070
     0
  0
ACAD_PROXY_OBJECT
  5
37
102
{ACAD_REACTORS
330
2A
102
}
330
2A
100
AcDbProxyObject
 90
      499
 91
      501
 93
      412
310
41D51A1A58DAD95B90D409028333333333333E3BF0000000000000FB010790141107004050150C41D405064090741402480A0350
1001
ACAD
1000
AcDbSavedByObjectVersion
1070
     0
  0
XRECORD
  5
2CA
102
{ACAD_REACTORS
330
2C1
102
}
330
2C1
100
AcDbXrecord
 90
        0
  0
XRECORD
  5
2E0
102
{ACAD_REACTORS
330
2C1
102
}
330
2C1
100
AcDbXrecord
1000
DSTYLE
1002
{
1070
   179
 70
     2
1070
   143
 40
0.03937
1070
    41
 40
4.0
1070
    79
 70
     2
1070
   343
340
4A
1070
   344
340
50
1070
   176
 70
     7
1070
   177
 70
     7
1070
   178
 70
     7
1070
    46
 40
6.0
1070
    43
 40
10.0
1070
   278
 70
    46
1070
    44
 40
1.0
1070
    42
 40
1.0
1070
   147
 40
1.0
1070
   341
340
4A
1070
   173
 70
     1
1070
   283
 70
     1
1070
   340
340
46
1070
   140
 40
4.0
1002
}
  0
XRECORD
  5
2CB
102
{ACAD_REACTORS
330
2C1
102
}
330
2C1
100
AcDbXrecord
  1
{193103C3-8352-461B-9971-3935C48F726B}
  0
XRECORD
  5
2C4
102
{ACAD_REACTORS
330
2C1
102
}
330
2C1
100
AcDbXrecord
  1

  0
XRECORD
  5
2C9
102
{ACAD_REACTORS
330
2C1
102
}
330
2C1
100
AcDbXrecord
 90
        4
  0
XRECORD
  5
2C6
102
{ACAD_REACTORS
330
2C1
102
}
330
2C1
100
AcDbXrecord
340
1A
  0
XRECORD
  5
2C8
102
{ACAD_REACTORS
330
2C1
102
}
330
2C1
100
AcDbXrecord
 90
    10781
  0
XRECORD
  5
2C7
102
{ACAD_REACTORS
330
2C1
102
}
330
2C1
100
AcDbXrecord
340
19
  0
XRECORD
  5
2CD
102
{ACAD_REACTORS
330
2C1
102
}
330
2C1
100
AcDbXrecord
 40
0.0
  0
XRECORD
  5
2D0
102
{ACAD_REACTORS
330
2C1
102
}
330
2C1
100
AcDbXrecord
340
0
  0
XRECORD
  5
2D6
102
{ACAD_REACTORS
330
2C1
102
}
330
2C1
100
AcDbXrecord
 10
0.0
 20
0.0
 30
0.0
  0
XRECORD
  5
2D2
102
{ACAD_REACTORS
330
2C1
102
}
330
2C1
100
AcDbXrecord
 10
0.0
 20
0.0
 30
0.0
  0
XRECORD
  5
2D5
102
{ACAD_REACTORS
330
2C1
102
}
330
2C1
100
AcDbXrecord
 10
0.0
 20
0.0
 30
0.0
  0
XRECORD
  5
2D3
102
{ACAD_REACTORS
330
2C1
102
}
330
2C1
100
AcDbXrecord
 10
0.0
 20
0.0
 30
0.0
  0
XRECORD
  5
2D4
102
{ACAD_REACTORS
330
2C1
102
}
330
2C1
100
AcDbXrecord
 10
0.0
 20
0.0
 30
0.0
  0
XRECORD
  5
2D1
102
{ACAD_REACTORS
330
2C1
102
}
330
2C1
100
AcDbXrecord
 10
0.0
 20
0.0
 30
0.0
  0
XRECORD
  5
2CE
102
{ACAD_REACTORS
330
2C1
102
}
330
2C1
100
AcDbXrecord
340
0
  0
XRECORD
  5
2CF
102
{ACAD_REACTORS
330
2C1
102
}
330
2C1
100
AcDbXrecord
 70
     0
  0
XRECORD
  5
2C5
102
{ACAD_REACTORS
330
2C1
102
}
330
2C1
100
AcDbXrecord
  1

  0
XRECORD
  5
2C2
102
{ACAD_REACTORS
330
2C1
102
}
330
2C1
100
AcDbXrecord
 90
        1
  0
XRECORD
  5
2C3
102
{ACAD_REACTORS
330
2C1
102
}
330
2C1
100
AcDbXrecord
 90
       70
  0
XRECORD
  5
2D9
102
{ACAD_REACTORS
330
2C1
102
}
330
2C1
100
AcDbXrecord
340
0
  0
XRECORD
  5
2DF
102
{ACAD_REACTORS
330
2C1
102
}
330
2C1
100
AcDbXrecord
 10
0.0
 20
0.0
 30
0.0
  0
XRECORD
  5
2DB
102
{ACAD_REACTORS
330
2C1
102
}
330
2C1
100
AcDbXrecord
 10
0.0
 20
0.0
 30
0.0
  0
XRECORD
  5
2DE
102
{ACAD_REACTORS
330
2C1
102
}
330
2C1
100
AcDbXrecord
 10
0.0
 20
0.0
 30
0.0
  0
XRECORD
  5
2DC
102
{ACAD_REACTORS
330
2C1
102
}
330
2C1
100
AcDbXrecord
 10
0.0
 20
0.0
 30
0.0
  0
XRECORD
  5
2DD
102
{ACAD_REACTORS
330
2C1
102
}
330
2C1
100
AcDbXrecord
 10
0.0
 20
0.0
 30
0.0
  0
XRECORD
  5
2DA
102
{ACAD_REACTORS
330
2C1
102
}
330
2C1
100
AcDbXrecord
 10
0.0
 20
0.0
 30
0.0
  0
XRECORD
  5
2D7
102
{ACAD_REACTORS
330
2C1
102
}
330
2C1
100
AcDbXrecord
340
0
  0
XRECORD
  5
2D8
102
{ACAD_REACTORS
330
2C1
102
}
330
2C1
100
AcDbXrecord
 70
     0
  0
XRECORD
  5
2CC
102
{ACAD_REACTORS
330
2C1
102
}
330
2C1
100
AcDbXrecord
  1
{FAEB1C32-E019-11D5-929B-00C0DF256EC4}
  0
DICTIONARYVAR
  5
2E6
102
{ACAD_REACTORS
330
2E1
102
}
330
2E1
100
DictionaryVariables
280
     0
  1
2
  0
DICTIONARYVAR
  5
2E7
102
{ACAD_REACTORS
330
2E1
102
}
330
2E1
100
DictionaryVariables
280
     0
  1
1
  0
DICTIONARYVAR
  5
2E5
102
{ACAD_REACTORS
330
2E1
102
}
330
2E1
100
DictionaryVariables
280
     0
  1
80.000000
  0
DICTIONARYVAR
  5
2E4
102
{ACAD_REACTORS
330
2E1
102
}
330
2E1
100
DictionaryVariables
280
     0
  1
5.000000
  0
DICTIONARY
  5
2EA
330
3D
100
AcDbDictionary
280
     1
  3
ACAD_XREC_ROUNDTRIP
360
2EB
  0
DICTIONARY
  5
2E8
330
3C
100
AcDbDictionary
280
     1
  3
ACAD_XREC_ROUNDTRIP
360
2E9
  0
DICTIONARY
  5
2EC
330
3E
100
AcDbDictionary
280
     1
  3
ACAD_XREC_ROUNDTRIP
360
2ED
  0
XRECORD
  5
2EB
102
{ACAD_REACTORS
330
2EA
102
}
330
2EA
100
AcDbXrecord
102
MATERIAL
148
0.0
149
0.0
149
0.0
 93
        0
 94
      127
282
     0
 72
     1
 77
     1
171
     1
175
     1
179
     1
273
     0
  0
XRECORD
  5
2E9
102
{ACAD_REACTORS
330
2E8
102
}
330
2E8
100
AcDbXrecord
102
MATERIAL
148
0.0
149
0.0
149
0.0
 93
        0
 94
      127
282
     0
 72
     1
 77
     1
171
     1
175
     1
179
     1
273
     0
  0
XRECORD
  5
2ED
102
{ACAD_REACTORS
330
2EC
102
}
330
2EC
100
AcDbXrecord
102
MATERIAL
148
0.0
149
0.0
149
0.0
 93
        0
 94
      127
282
     0
 72
     1
 77
     1
171
     1
175
     1
179
     1
273
     0
  0
ENDSEC
  0
EOF
